  0
SECTION
  2
HEADER
  9
$ACADVER
  1
AC1015
  9
$ACADMAINTVER
 70
         6
  9
$DWGCODEPAGE
  3
ANSI_1252
  9
$INSBASE
 10
0.0
 20
0.0
 30
0.0
  9
$EXTMIN
 10
29.1728725433
 20
18.4658584595
 30
0.0
  9
$EXTMAX
 10
387.122833252
 20
283.1450195313
 30
0.0
  9
$LIMMIN
 10
29.1728725433
 20
18.4658584595
  9
$LIMMAX
 10
387.122833252
 20
283.1450195313
  9
$ORTHOMODE
 70
         0
  9
$REGENMODE
 70
         1
  9
$FILLMODE
 70
         1
  9
$QTEXTMODE
 70
         0
  9
$MIRRTEXT
 70
         1
  9
$LTSCALE
 40
8.9487490177
  9
$ATTMODE
 70
         1
  9
$TEXTSIZE
 40
0.2
  9
$TRACEWID
 40
0.05
  9
$TEXTSTYLE
  7
Standard
  9
$CLAYER
  8
0
  9
$CELTYPE
  6
CONTINUOUS
  9
$CECOLOR
 62
       256
  9
$CELTSCALE
 40
1.0
  9
$DISPSILH
 70
         0
  9
$DIMSCALE
 40
1.0
  9
$DIMASZ
 40
0.18
  9
$DIMEXO
 40
0.0625
  9
$DIMDLI
 40
0.38
  9
$DIMRND
 40
0.0
  9
$DIMDLE
 40
0.0
  9
$DIMEXE
 40
0.18
  9
$DIMTP
 40
0.0
  9
$DIMTM
 40
0.0
  9
$DIMTXT
 40
3.0
  9
$DIMCEN
 40
0.09
  9
$DIMTSZ
 40
0.0
  9
$DIMTOL
 70
         0
  9
$DIMLIM
 70
         0
  9
$DIMTIH
 70
         1
  9
$DIMTOH
 70
         1
  9
$DIMSE1
 70
         0
  9
$DIMSE2
 70
         0
  9
$DIMTAD
 70
         1
  9
$DIMZIN
 70
         0
  9
$DIMBLK
  1

  9
$DIMASO
 70
         1
  9
$DIMSHO
 70
         1
  9
$DIMPOST
  1
<>
  9
$DIMAPOST
  1

  9
$DIMALT
 70
         0
  9
$DIMALTD
 70
         2
  9
$DIMALTF
 40
25.4
  9
$DIMLFAC
 40
1.0
  9
$DIMTOFL
 70
         0
  9
$DIMTVP
 40
0.0
  9
$DIMTIX
 70
         0
  9
$DIMSOXD
 70
         0
  9
$DIMSAH
 70
         0
  9
$DIMBLK1
  1

  9
$DIMBLK2
  1

  9
$DIMSTYLE
  2
Standard
  9
$DIMCLRD
 70
         0
  9
$DIMCLRE
 70
         0
  9
$DIMCLRT
 70
         0
  9
$DIMTFAC
 40
1.0
  9
$DIMGAP
 40
0.09
  9
$DIMJUST
 70
         0
  9
$DIMSD1
 70
         0
  9
$DIMSD2
 70
         0
  9
$DIMTOLJ
 70
         1
  9
$DIMTZIN
 70
         0
  9
$DIMALTZ
 70
         0
  9
$DIMALTTZ
 70
         0
  9
$DIMUPT
 70
         0
  9
$DIMDEC
 70
         4
  9
$DIMTDEC
 70
         4
  9
$DIMALTU
 70
         2
  9
$DIMALTTD
 70
         2
  9
$DIMTXSTY
  7
Standard
  9
$DIMAUNIT
 70
         0
  9
$DIMADEC
 70
         0
  9
$DIMALTRND
 40
0.0
  9
$DIMAZIN
 70
         0
  9
$DIMDSEP
 70
         0
  9
$DIMATFIT
 70
         3
  9
$DIMFRAC
 70
         0
  9
$DIMLDRBLK
  1

  9
$DIMLUNIT
 70
         2
  9
$DIMLWD
 70
         0
  9
$DIMLWE
 70
         0
  9
$DIMTMOVE
 70
         0
  9
$LUNITS
 70
         2
  9
$LUPREC
 70
         4
  9
$SKETCHINC
 40
0.1
  9
$FILLETRAD
 40
0.0
  9
$AUNITS
 70
         0
  9
$AUPREC
 70
         0
  9
$MENU
  1
acad
  9
$ELEVATION
 40
0.0
  9
$PELEVATION
 40
0.0
  9
$THICKNESS
 40
0.0
  9
$LIMCHECK
 70
         0
  9
$CHAMFERA
 40
0.0
  9
$CHAMFERB
 40
0.0
  9
$CHAMFERC
 40
0.0
  9
$CHAMFERD
 40
0.0
  9
$SKPOLY
 70
         0
  9
$TDCREATE
 40
0.000000000
  9
$TDUCREATE
 40
0.000000000
  9
$TDUPDATE
 40
0.000000000
  9
$TDUUPDATE
 40
0.000000000
  9
$TDINDWG
 40
0.0000000000
  9
$TDUSRTIMER
 40
0.0000000000
  9
$USRTIMER
 70
         1
  9
$ANGBASE
 50
0.0
  9
$ANGDIR
 70
         0
  9
$PDMODE
 70
         0
  9
$PDSIZE
 40
0.0
  9
$PLINEWID
 40
0.0
  9
$SPLFRAME
 70
         0
  9
$SPLINETYPE
 70
         6
  9
$SPLINESEGS
 70
         8
  9
$HANDSEED
  5
1CA
  9
$SURFTAB1
 70
         6
  9
$SURFTAB2
 70
         6
  9
$SURFTYPE
 70
         6
  9
$SURFU
 70
         6
  9
$SURFV
 70
         6
  9
$UCSBASE
  2

  9
$UCSNAME
  2

  9
$UCSORG
 10
0.0
 20
0.0
 30
0.0
  9
$UCSXDIR
 10
1.0
 20
0.0
 30
0.0
  9
$UCSYDIR
 10
0.0
 20
1.0
 30
0.0
  9
$UCSORTHOREF
  2

  9
$UCSORTHOVIEW
 70
         0
  9
$UCSORGTOP
 10
0.0
 20
0.0
 30
0.0
  9
$UCSORGBOTTOM
 10
0.0
 20
0.0
 30
0.0
  9
$UCSORGLEFT
 10
0.0
 20
0.0
 30
0.0
  9
$UCSORGRIGHT
 10
0.0
 20
0.0
 30
0.0
  9
$UCSORGFRONT
 10
0.0
 20
0.0
 30
0.0
  9
$UCSORGBACK
 10
0.0
 20
0.0
 30
0.0
  9
$PUCSBASE
  2

  9
$PUCSNAME
  2

  9
$PUCSORG
 10
0.0
 20
0.0
 30
0.0
  9
$PUCSXDIR
 10
1.0
 20
0.0
 30
0.0
  9
$PUCSYDIR
 10
0.0
 20
1.0
 30
0.0
  9
$PUCSORTHOREF
  2

  9
$PUCSORTHOVIEW
 70
         0
  9
$PUCSORGTOP
 10
0.0
 20
0.0
 30
0.0
  9
$PUCSORGBOTTOM
 10
0.0
 20
0.0
 30
0.0
  9
$PUCSORGLEFT
 10
0.0
 20
0.0
 30
0.0
  9
$PUCSORGRIGHT
 10
0.0
 20
0.0
 30
0.0
  9
$PUCSORGFRONT
 10
0.0
 20
0.0
 30
0.0
  9
$PUCSORGBACK
 10
0.0
 20
0.0
 30
0.0
  9
$USERI1
 70
         0
  9
$USERI2
 70
         0
  9
$USERI3
 70
         0
  9
$USERI4
 70
         0
  9
$USERI5
 70
         0
  9
$USERR1
 40
0.0
  9
$USERR2
 40
0.0
  9
$USERR3
 40
0.0
  9
$USERR4
 40
0.0
  9
$USERR5
 40
0.0
  9
$WORLDVIEW
 70
         1
  9
$SHADEDGE
 70
         3
  9
$SHADEDIF
 70
        70
  9
$TILEMODE
 70
         1
  9
$MAXACTVP
 70
        16
  9
$PINSBASE
 10
0.0
 20
0.0
 30
0.0
  9
$PLIMCHECK
 70
         0
  9
$PEXTMIN
 10
1.0000000000E+20
 20
1.0000000000E+20
 30
1.0000000000E+20
  9
$PEXTMAX
 10
-1.0000000000E+20
 20
-1.0000000000E+20
 30
-1.0000000000E+20
  9
$PLIMMIN
 10
0.0
 20
0.0
  9
$PLIMMAX
 10
12.0
 20
9.0
  9
$UNITMODE
 70
         0
  9
$VISRETAIN
 70
         0
  9
$PLINEGEN
 70
         1
  9
$PSLTSCALE
 70
         0
  9
$TREEDEPTH
 70
      3020
  9
$CMLSTYLE
  2
Standard
  9
$CMLJUST
 70
         0
  9
$CMLSCALE
 40
1.0
  9
$PROXYGRAPHICS
 70
         0
  9
$MEASUREMENT
 70
         1
  9
$CELWEIGHT
370
         0
  9
$ENDCAPS
280
         0
  9
$JOINSTYLE
280
         0
  9
$LWDISPLAY
290
         0
  9
$INSUNITS
 70
         0
  9
$HYPERLINKBASE
  1

  9
$STYLESHEET
  1

  9
$XEDIT
290
         1
  9
$CEPSNTYPE
380
         0
  9
$PSTYLEMODE
290
         1
  9
$FINGERPRINTGUID
  2

  9
$VERSIONGUID
  2

  9
$EXTNAMES
290
         1
  9
$PSVPSCALE
 40
0.0
  0
ENDSEC
  0
SECTION
  2
CLASSES
  0
CLASS
  1
LWPOLYLINE
  2
AcDbPolyline
  3
AutoCAD 2000
 90
        0
280
         0
281
         1
  0
CLASS
  1
IMAGE
  2
AcDbRasterImage
  3
ISM
 90
      127
280
         0
281
         1
  0
CLASS
  1
OLE2FRAME
  2
AcDbOle2Frame
  3
AutoCAD 2000
 90
        0
280
         0
281
         1
  0
CLASS
  1
HATCH
  2
AcDbHatch
  3
AutoCAD 2000
 90
        0
280
         0
281
         1
  0
CLASS
  1
DICTIONARYVAR
  2
AcDbDictionaryVar
  3
AutoCAD 2000
 90
        0
280
         0
281
         0
  0
CLASS
  1
RASTERVARIABLES
  2
AcDbRasterVariables
  3
ISM
 90
        0
280
         0
281
         0
  0
CLASS
  1
IMAGEDEF
  2
AcDbRasterImageDef
  3
ISM
 90
        0
280
         0
281
         0
  0
CLASS
  1
IMAGEDEF_REACTOR
  2
AcDbRasterImageDefReactor
  3
ISM
 90
        1
280
         0
281
         0
  0
CLASS
  1
IDBUFFER
  2
AcDbIdBuffer
  3
AutoCAD 2000
 90
        0
280
         0
281
         0
  0
CLASS
  1
SPATIAL_FILTER
  2
AcDbSpatialFilter
  3
AutoCAD 2000
 90
        0
280
         0
281
         0
  0
CLASS
  1
XRECORD
  2
AcDbXrecord
  3
AutoCAD 2000
 90
        0
280
         0
281
         0
  0
CLASS
  1
SORTENTSTABLE
  2
AcDbSortentsTable
  3
AutoCAD 2000
 90
        0
280
         0
281
         0
  0
CLASS
  1
LAYER_INDEX
  2
AcDbLayerIndex
  3
AutoCAD 2000
 90
        0
280
         0
281
         0
  0
CLASS
  1
SPATIAL_INDEX
  2
AcDbSpatialIndex
  3
AutoCAD 2000
 90
        0
280
         0
281
         0
  0
CLASS
  1
OBJECT_PTR
  2
CAseDLPNTableRecord
  3
"ASE-LPNTableRecord"
 90
        1
280
         0
281
         0
  0
CLASS
  1
LAYOUT
  2
AcDbLayout
  3
AutoCAD 2000
 90
        0
280
         0
281
         0
  0
CLASS
  1
PLOTSETTINGS
  2
AcDbPlotSettings
  3
AutoCAD 2000
 90
        0
280
         0
281
         0
  0
CLASS
  1
ACDBDICTIONARYWDFLT
  2
AcDbDictionaryWithDefault
  3
AutoCAD 2000
 90
        0
280
         0
281
         0
  0
CLASS
  1
ACDBPLACEHOLDER
  2
AcDbPlaceHolder
  3
AutoCAD 2000
 90
        0
280
         0
281
         0
  0
CLASS
  1
VBA_PROJECT
  2
AcDbVbaProject
  3
acadvba
 90
        0
280
         0
281
         0
  0
CLASS
  1
WIPEOUT
  2
AcDbWipeout
  3
WipeOut|AutoCAD Express Tool|expresstools@autodesk.com
 90
      127
280
         0
281
         1
  0
CLASS
  1
WIPEOUTVARIABLES
  2
AcDbWipeoutVariables
  3
WipeOut|AutoCAD Express Tool|expresstools@autodesk.com
 90
        0
280
         0
281
         0
  0
CLASS
  1
RTEXT
  2
RText
  3
RText|AutoCAD Express Tool|expresstools@autodesk.com
 90
        0
280
         0
281
         1
  0
CLASS
  1
ARCALIGNEDTEXT
  2
AcDbArcAlignedText
  3
ATEXT|AutoCAD Express Tool|expresstools@autodesk.com
 90
        0
280
         0
281
         1
  0
ENDSEC
  0
SECTION
  2
TABLES
  0
TABLE
  2
VPORT
  5
7
100
AcDbSymbolTable
 70
         1
  0
VPORT
  5
15
100
AcDbSymbolTableRecord
100
AcDbViewportTableRecord
  2
*ACTIVE
 70
         0
 10
0.0
 20
0.0
 11
1.0
 21
1.0
 12
210.0
 22
148.5
 13
0.0
 23
0.0
 14
1.0
 24
1.0
 15
0.0
 25
0.0
 16
0.0
 26
0.0
 36
1.0
 17
0.0
 27
0.0
 37
0.0
 40
327.0940995679
 41
1.0
 42
50.0
 43
0.0
 44
0.0
 50
0.0
 51
0.0
 71
         0
 72
       100
 73
         1
 74
         1
 75
         0
 76
         0
 77
         0
 78
         0
281
         0
 65
         0
110
0.0
120
0.0
130
0.0
111
1.0
121
0.0
131
0.0
112
0.0
122
1.0
132
0.0
345
0
346
0
 79
         0
146
0.0
  0
ENDTAB
  0
TABLE
  2
LTYPE
  5
4
100
AcDbSymbolTable
 70
        12
  0
LTYPE
  5
11
100
AcDbSymbolTableRecord
100
AcDbLinetypeTableRecord
  2
ByBlock
 70
        64
  3

 72
        65
 73
         0
 40
0.0
  0
LTYPE
  5
12
100
AcDbSymbolTableRecord
100
AcDbLinetypeTableRecord
  2
ByLayer
 70
        64
  3

 72
        65
 73
         0
 40
0.0
  0
LTYPE
  5
13
100
AcDbSymbolTableRecord
100
AcDbLinetypeTableRecord
  2
CONTINUOUS
 70
        64
  3
Solid Line
 72
        65
 73
         0
 40
0.0
  0
LTYPE
  5
24
100
AcDbSymbolTableRecord
100
AcDbLinetypeTableRecord
  2
DOT
 70
        64
  3
. . . . . . . . . . . . . . . . . . . . . . 
 72
        65
 73
         2
 40
0.25
 49
0.0
 74
         0
 49
-0.25
 74
         0
  0
LTYPE
  5
25
100
AcDbSymbolTableRecord
100
AcDbLinetypeTableRecord
  2
HIDDEN
 70
         0
  3
_ _ _ _ _ _ _ _ _ _ _ _ _ _ _ _ _ _ _ _ _ _ _
 72
        65
 73
         2
 40
0.375
 49
0.25
 74
         0
 49
-0.125
 74
         0
  0
LTYPE
  5
26
100
AcDbSymbolTableRecord
100
AcDbLinetypeTableRecord
  2
DASHDOT
 70
         0
  3
__ . __ . __ . __ . __ . __ . __ . __ . __ . __
 72
        65
 73
         4
 40
1.0
 49
0.5
 74
         0
 49
-0.25
 74
         0
 49
0.0
 74
         0
 49
-0.25
 74
         0
  0
LTYPE
  5
27
100
AcDbSymbolTableRecord
100
AcDbLinetypeTableRecord
  2
DIVIDE
 70
         0
  3
__ . . __ . . __ . . __ . . __ . . __ . . __
 72
        65
 73
         6
 40
1.25
 49
0.5
 74
         0
 49
-0.25
 74
         0
 49
0.0
 74
         0
 49
-0.25
 74
         0
 49
0.0
 74
         0
 49
-0.25
 74
         0
  0
LTYPE
  5
28
100
AcDbSymbolTableRecord
100
AcDbLinetypeTableRecord
  2
DASHED
 70
         0
  3
__ __ __ __ __ __ __ __ __ __ __ __ __ __ __
 72
        65
 73
         2
 40
0.75
 49
0.5
 74
         0
 49
-0.25
 74
         0
  0
LTYPE
  5
29
100
AcDbSymbolTableRecord
100
AcDbLinetypeTableRecord
  2
BORDER
 70
         0
  3
__ __ . __ __ . __ __ . __ __ . __ __ .
 72
        65
 73
         6
 40
1.75
 49
0.5
 74
         0
 49
-0.25
 74
         0
 49
0.5
 74
         0
 49
-0.25
 74
         0
 49
0.0
 74
         0
 49
-0.25
 74
         0
  0
LTYPE
  5
2A
100
AcDbSymbolTableRecord
100
AcDbLinetypeTableRecord
  2
CENTER
 70
         0
  3
____ _ ____ _ ____ _ ____ _ ____ _ ____
 72
        65
 73
         4
 40
2.0
 49
1.25
 74
         0
 49
-0.25
 74
         0
 49
0.25
 74
         0
 49
-0.25
 74
         0
  0
LTYPE
  5
2B
100
AcDbSymbolTableRecord
100
AcDbLinetypeTableRecord
  2
DOT2
 70
         0
  3
........................................
 72
        65
 73
         2
 40
0.125
 49
0.0
 74
         0
 49
-0.125
 74
         0
  0
LTYPE
  5
2C
100
AcDbSymbolTableRecord
100
AcDbLinetypeTableRecord
  2
PHANTOM
 70
         0
  3
______  __  __  ______  __  __  ______
 72
        65
 73
         6
 40
2.5
 49
1.25
 74
         0
 49
-0.25
 74
         0
 49
0.25
 74
         0
 49
-0.25
 74
         0
 49
0.25
 74
         0
 49
-0.25
 74
         0
  0
ENDTAB
  0
TABLE
  2
LAYER
  5
2
100
AcDbSymbolTable
 70
        37
  0
LAYER
  5
14
100
AcDbSymbolTableRecord
100
AcDbLayerTableRecord
  2
0
 70
         0
 62
         7
  6
CONTINUOUS
290
         1
370
        -3
390
1D
  0
LAYER
  5
33
100
AcDbSymbolTableRecord
100
AcDbLayerTableRecord
  2
GEOMETRIE
 70
        64
 62
         7
  6
CONTINUOUS
290
         1
370
        50
390
1D
  0
LAYER
  5
34
100
AcDbSymbolTableRecord
100
AcDbLayerTableRecord
  2
BESCHRIFTUNG
 70
        64
 62
         7
  6
CONTINUOUS
290
         1
370
        25
390
1D
  0
LAYER
  5
35
100
AcDbSymbolTableRecord
100
AcDbLayerTableRecord
  2
SCHRAFFUR
 70
        64
 62
         7
  6
CONTINUOUS
290
         1
370
        25
390
1D
  0
LAYER
  5
36
100
AcDbSymbolTableRecord
100
AcDbLayerTableRecord
  2
MASSTEXTE
 70
        64
 62
       212
  6
CONTINUOUS
290
         1
370
        25
390
1D
  0
LAYER
  5
37
100
AcDbSymbolTableRecord
100
AcDbLayerTableRecord
  2
MASSLINIEN
 70
        64
 62
       172
  6
CONTINUOUS
290
         1
370
        25
390
1D
  0
LAYER
  5
38
100
AcDbSymbolTableRecord
100
AcDbLayerTableRecord
  2
MASSGRENZEN
 70
        64
 62
       172
  6
CONTINUOUS
290
         1
370
        25
390
1D
  0
LAYER
  5
39
100
AcDbSymbolTableRecord
100
AcDbLayerTableRecord
  2
TOLERANZEN
 70
        64
 62
       212
  6
CONTINUOUS
290
         1
370
         0
390
1D
  0
LAYER
  5
3A
100
AcDbSymbolTableRecord
100
AcDbLayerTableRecord
  2
BEMASSUNG
 70
        64
 62
         7
  6
CONTINUOUS
290
         1
370
        25
390
1D
  0
LAYER
  5
3B
100
AcDbSymbolTableRecord
100
AcDbLayerTableRecord
  2
HILFSLINIEN
 70
        64
 62
         3
  6
CONTINUOUS
290
         1
370
         0
390
1D
  0
LAYER
  5
3C
100
AcDbSymbolTableRecord
100
AcDbLayerTableRecord
  2
MITTELLINIEN
 70
        64
 62
         5
  6
DASHDOT
290
         1
370
        25
390
1D
  0
LAYER
  5
3D
100
AcDbSymbolTableRecord
100
AcDbLayerTableRecord
  2
GEWINDELINIEN
 70
        64
 62
       212
  6
CONTINUOUS
290
         1
370
        25
390
1D
  0
LAYER
  5
3E
100
AcDbSymbolTableRecord
100
AcDbLayerTableRecord
  2
UNSICHTBARE
 70
        64
 62
        92
  6
DASHED
290
         1
370
        25
390
1D
  0
LAYER
  5
3F
100
AcDbSymbolTableRecord
100
AcDbLayerTableRecord
  2
VERDECKTE
 70
        64
 62
        92
  6
DASHED
290
         1
370
        25
390
1D
  0
LAYER
  5
40
100
AcDbSymbolTableRecord
100
AcDbLayerTableRecord
  2
SCHNITTLINIE
 70
        64
 62
        15
  6
DASHDOT
290
         1
370
        70
390
1D
  0
LAYER
  5
41
100
AcDbSymbolTableRecord
100
AcDbLayerTableRecord
  2
SCHNITTBESCHRIFTUNG
 70
        64
 62
         7
  6
CONTINUOUS
290
         1
370
        50
390
1D
  0
LAYER
  5
42
100
AcDbSymbolTableRecord
100
AcDbLayerTableRecord
  2
BLICKRICHTUNGSPFEILE
 70
        64
 62
         7
  6
CONTINUOUS
290
         1
370
        25
390
1D
  0
LAYER
  5
43
100
AcDbSymbolTableRecord
100
AcDbLayerTableRecord
  2
SCHNITTVERLAUF
 70
        64
 62
         7
  6
CONTINUOUS
290
         1
370
        50
390
1D
  0
LAYER
  5
44
100
AcDbSymbolTableRecord
100
AcDbLayerTableRecord
  2
RAHMEN
 70
        64
 62
         7
  6
DIVIDE
290
         1
370
        25
390
1D
  0
LAYER
  5
45
100
AcDbSymbolTableRecord
100
AcDbLayerTableRecord
  2
BEZUGSPFEIL
 70
        64
 62
         5
  6
CONTINUOUS
290
         1
370
        25
390
1D
  0
LAYER
  5
46
100
AcDbSymbolTableRecord
100
AcDbLayerTableRecord
  2
TEXTE
 70
        64
 62
         7
  6
CONTINUOUS
290
         1
370
        25
390
1D
  0
LAYER
  5
47
100
AcDbSymbolTableRecord
100
AcDbLayerTableRecord
  2
DETAIL
 70
        64
 62
         7
  6
CONTINUOUS
290
         1
370
         0
390
1D
  0
LAYER
  5
48
100
AcDbSymbolTableRecord
100
AcDbLayerTableRecord
  2
SCHWEIß-BEZUGS-STRICHLINIE
 70
        64
 62
       172
  6
DASHED
290
         1
370
        25
390
1D
  0
LAYER
  5
49
100
AcDbSymbolTableRecord
100
AcDbLayerTableRecord
  2
Z-BEZUGSLINIE_BEZUGSPFEIL
 70
        64
 62
        30
  6
CONTINUOUS
290
         1
370
        25
390
1D
  0
LAYER
  5
4A
100
AcDbSymbolTableRecord
100
AcDbLayerTableRecord
  2
Z-RAHMEN
 70
        64
 62
         5
  6
CONTINUOUS
290
         1
370
        35
390
1D
  0
LAYER
  5
4B
100
AcDbSymbolTableRecord
100
AcDbLayerTableRecord
  2
Z-TEXTE
 70
        64
 62
         7
  6
CONTINUOUS
290
         1
370
        35
390
1D
  0
LAYER
  5
4C
100
AcDbSymbolTableRecord
100
AcDbLayerTableRecord
  2
SSYMBOL
 70
        64
 62
         7
  6
CONTINUOUS
290
         1
370
        25
390
1D
  0
LAYER
  5
4D
100
AcDbSymbolTableRecord
100
AcDbLayerTableRecord
  2
FLSYM
 70
        64
 62
         7
  6
CONTINUOUS
290
         1
370
        25
390
1D
  0
LAYER
  5
4E
100
AcDbSymbolTableRecord
100
AcDbLayerTableRecord
  2
ZEICHNUNGSZUSÄTZE
 70
        64
 62
         7
  6
CONTINUOUS
290
         1
370
         0
390
1D
  0
LAYER
  5
4F
100
AcDbSymbolTableRecord
100
AcDbLayerTableRecord
  2
TANGENTIALE KANTEN
 70
        64
 62
         7
  6
CONTINUOUS
290
         1
370
        13
390
1D
  0
LAYER
  5
50
100
AcDbSymbolTableRecord
100
AcDbLayerTableRecord
  2
035_NB_TEXT
 70
        64
 62
         7
  6
CONTINUOUS
290
         1
370
        35
390
1D
  0
LAYER
  5
51
100
AcDbSymbolTableRecord
100
AcDbLayerTableRecord
  2
050_NB_TEXT
 70
        64
 62
         7
  6
CONTINUOUS
290
         1
370
        50
390
1D
  0
LAYER
  5
52
100
AcDbSymbolTableRecord
100
AcDbLayerTableRecord
  2
035_NB
 70
        64
 62
         7
  6
CONTINUOUS
290
         1
370
        35
390
1D
  0
LAYER
  5
53
100
AcDbSymbolTableRecord
100
AcDbLayerTableRecord
  2
025_NB_TEXT
 70
        64
 62
         7
  6
CONTINUOUS
290
         1
370
        25
390
1D
  0
LAYER
  5
54
100
AcDbSymbolTableRecord
100
AcDbLayerTableRecord
  2
018_NB
 70
        64
 62
         7
  6
CONTINUOUS
290
         1
370
        18
390
1D
  0
LAYER
  5
55
100
AcDbSymbolTableRecord
100
AcDbLayerTableRecord
  2
070_NB
 70
        64
 62
         7
  6
CONTINUOUS
290
         1
370
        70
390
1D
  0
LAYER
  5
56
100
AcDbSymbolTableRecord
100
AcDbLayerTableRecord
  2
STANDARD
 70
        64
 62
         7
  6
CONTINUOUS
290
         1
370
         0
390
1D
  0
ENDTAB
  0
TABLE
  2
STYLE
  5
3
100
AcDbSymbolTable
 70
         7
  0
STYLE
  5
17
100
AcDbSymbolTableRecord
100
AcDbTextStyleTableRecord
  2
Standard
 70
         0
 40
0.0
 41
1.0
 50
0.0
 71
         0
 42
0.0
  3
txt
  4

  0
STYLE
  5
2D
100
AcDbSymbolTableRecord
100
AcDbTextStyleTableRecord
  2
CADdy
 70
         0
 40
0.0
 41
1.0
 50
0.0
 71
         0
 42
3.5
  3
txt.shx
  4

  0
STYLE
  5
2E
100
AcDbSymbolTableRecord
100
AcDbTextStyleTableRecord
  2
Arial
 70
         0
 40
0.0
 41
1.0
 50
0.0
 71
         0
 42
3.5
  3
arial.ttf
  4

1001
ACAD
1000
Arial
1071
       34
  0
STYLE
  5
2F
100
AcDbSymbolTableRecord
100
AcDbTextStyleTableRecord
  2
Isonorm
 70
         0
 40
0.0
 41
1.0
 50
0.0
 71
         0
 42
3.5
  3
txt.shx
  4

  0
STYLE
  5
30
100
AcDbSymbolTableRecord
100
AcDbTextStyleTableRecord
  2
Tahoma
 70
         0
 40
0.0
 41
1.0
 50
0.0
 71
         0
 42
3.5
  3
tahoma.ttf
  4

1001
ACAD
1000
Tahoma
1071
       34
  0
STYLE
  5
31
100
AcDbSymbolTableRecord
100
AcDbTextStyleTableRecord
  2
Microsoft Sans Serif
 70
         0
 40
0.0
 41
1.0
 50
0.0
 71
         0
 42
3.5
  3
micross.ttf
  4

1001
ACAD
1000
Microsoft Sans Serif
1071
       34
  0
STYLE
  5
32
100
AcDbSymbolTableRecord
100
AcDbTextStyleTableRecord
  2
Default
 70
         0
 40
0.0
 41
1.0
 50
0.0
 71
         0
 42
3.5
  3
txt.shx
  4

  0
ENDTAB
  0
TABLE
  2
VIEW
  5
5
100
AcDbSymbolTable
 70
         0
  0
ENDTAB
  0
TABLE
  2
UCS
  5
6
100
AcDbSymbolTable
 70
         0
  0
ENDTAB
  0
TABLE
  2
APPID
  5
8
100
AcDbSymbolTable
 70
         1
  0
APPID
  5
16
100
AcDbSymbolTableRecord
100
AcDbRegAppTableRecord
  2
ACAD
 70
        64
  0
ENDTAB
  0
TABLE
  2
DIMSTYLE
  5
9
100
AcDbSymbolTable
 70
         1
100
AcDbDimStyleTable
 71
         0
  0
DIMSTYLE
105
18
100
AcDbSymbolTableRecord
100
AcDbDimStyleTableRecord
  2
Standard
 70
         0
  3

  4

 40
1.0
 41
0.18
 42
0.0625
 43
0.38
 44
0.18
 45
0.0
 46
0.0
 47
0.0
 48
0.0
 71
         0
 72
         0
 73
         1
 74
         1
 75
         0
 76
         0
 77
         0
 78
         0
 79
         0
140
0.18
141
0.09
142
0.0
143
25.4
144
1.0
145
0.0
146
1.0
147
0.09
148
0.0
170
         0
171
         2
172
         0
173
         0
174
         0
175
         0
176
         0
177
         0
178
         0
179
         0
271
         4
272
         4
273
         2
274
         2
275
         0
276
         0
277
         2
278
        46
279
         0
280
         0
281
         0
282
         0
283
         1
284
         0
285
         0
286
         0
288
         0
289
         3
340
17
341
0
342
0
343
0
344
0
371
        -2
372
        -2
  0
ENDTAB
  0
TABLE
  2
BLOCK_RECORD
  5
1
100
AcDbSymbolTable
 70
         9
  0
BLOCK_RECORD
  5
A
100
AcDbSymbolTableRecord
100
AcDbBlockTableRecord
  2
*MODEL_SPACE
340
20
  0
BLOCK_RECORD
  5
B
100
AcDbSymbolTableRecord
100
AcDbBlockTableRecord
  2
*PAPER_SPACE
340
21
  0
BLOCK_RECORD
  5
57
100
AcDbSymbolTableRecord
100
AcDbBlockTableRecord
  2
D594164224
340
0
102
{BLKREFS
331
DD
102
}
  0
BLOCK_RECORD
  5
62
100
AcDbSymbolTableRecord
100
AcDbBlockTableRecord
  2
D490817792
340
0
102
{BLKREFS
331
DE
102
}
  0
BLOCK_RECORD
  5
6D
100
AcDbSymbolTableRecord
100
AcDbBlockTableRecord
  2
D492398656
340
0
102
{BLKREFS
331
DF
102
}
  0
BLOCK_RECORD
  5
76
100
AcDbSymbolTableRecord
100
AcDbBlockTableRecord
  2
D594153984
340
0
102
{BLKREFS
331
E0
102
}
  0
BLOCK_RECORD
  5
7F
100
AcDbSymbolTableRecord
100
AcDbBlockTableRecord
  2
D490813696
340
0
102
{BLKREFS
331
E1
102
}
  0
BLOCK_RECORD
  5
88
100
AcDbSymbolTableRecord
100
AcDbBlockTableRecord
  2
D492490240
340
0
102
{BLKREFS
331
E2
102
}
  0
BLOCK_RECORD
  5
91
100
AcDbSymbolTableRecord
100
AcDbBlockTableRecord
  2
D490819328
340
0
102
{BLKREFS
331
E3
102
}
  0
BLOCK_RECORD
  5
9A
100
AcDbSymbolTableRecord
100
AcDbBlockTableRecord
  2
D543849504
340
0
102
{BLKREFS
331
E4
102
}
  0
BLOCK_RECORD
  5
EC
100
AcDbSymbolTableRecord
100
AcDbBlockTableRecord
  2
DIN_A3
340
0
102
{BLKREFS
331
194
102
}
  0
ENDTAB
  0
ENDSEC
  0
SECTION
  2
BLOCKS
  0
BLOCK
  5
D
100
AcDbEntity
  8
0
390
0
100
AcDbBlockBegin
  2
*MODEL_SPACE
 70
         0
 10
0.0
 20
0.0
 30
0.0
  3
*MODEL_SPACE
  1

  0
ENDBLK
  5
E
100
AcDbEntity
  8
0
390
0
100
AcDbBlockEnd
  0
BLOCK
  5
F
100
AcDbEntity
 67
         1
  8
0
390
0
100
AcDbBlockBegin
  2
*PAPER_SPACE
 70
         0
 10
0.0
 20
0.0
 30
0.0
  3
*PAPER_SPACE
  1

  0
ENDBLK
  5
10
100
AcDbEntity
 67
         1
  8
0
390
0
100
AcDbBlockEnd
  0
BLOCK
  5
58
100
AcDbEntity
  8
BEMASSUNG
390
0
100
AcDbBlockBegin
  2
D594164224
 70
         0
 10
0.0
 20
0.0
 30
0.0
  3
D594164224
  1

  0
LINE
  5
59
100
AcDbEntity
  8
MASSLINIEN
390
0
 62
       172
100
AcDbLine
 10
41.9333185923
 20
76.3817567565
 30
0.0
 11
41.9333185923
 21
73.3817567565
 31
0.0
  0
LINE
  5
5A
100
AcDbEntity
  8
MASSLINIEN
390
0
 62
       172
100
AcDbLine
 10
124.3046442835
 20
76.3817567565
 30
0.0
 11
39.9333185923
 21
76.3817567565
 31
0.0
  0
LINE
  5
5B
100
AcDbEntity
  8
MASSLINIEN
390
0
 62
       172
100
AcDbLine
 10
124.4105752962
 20
73.3817567565
 30
0.0
 11
39.9333185923
 21
73.3817567565
 31
0.0
  0
LINE
  5
5C
100
AcDbEntity
  8
MASSLINIEN
390
0
 62
       172
100
AcDbLine
 10
41.9333185923
 20
76.3817567565
 30
0.0
 11
41.9333185923
 21
85.156259258
 31
0.0
  0
LINE
  5
5D
100
AcDbEntity
  8
MASSLINIEN
390
0
 62
       172
100
AcDbLine
 10
41.9333185923
 20
73.3817567565
 30
0.0
 11
41.9333185923
 21
67.3430875882
 31
0.0
  0
SOLID
  5
5E
100
AcDbEntity
  8
MASSGRENZEN
390
0
100
AcDbTrace
 10
41.9333185923
 20
76.3817567565
 30
0.0
 11
41.5417400156
 21
79.3560913406
 31
0.0
 12
42.3248971689
 22
79.3560913406
 32
0.0
 13
42.3248971689
 23
79.3560913406
 33
0.0
  0
SOLID
  5
5F
100
AcDbEntity
  8
MASSGRENZEN
390
0
100
AcDbTrace
 10
41.9333185923
 20
73.3817567565
 30
0.0
 11
42.3248971689
 21
70.4074221723
 31
0.0
 12
41.5417400156
 22
70.4074221723
 32
0.0
 13
41.5417400156
 23
70.4074221723
 33
0.0
  0
MTEXT
  5
60
100
AcDbEntity
  8
MASSTEXTE
390
0
 62
       212
100
AcDbMText
 10
38.7493185923
 20
83.7433425914
 30
0.0
 40
3.0
 41
0.0
 71
         5
 72
         1
  1
\W1.135146;\A1;3
  7
Arial
 11
0.0
 21
1.0
 31
0.0
 73
         0
 44
0.0
  0
ENDBLK
  5
61
100
AcDbEntity
  8
0
390
0
100
AcDbBlockEnd
  0
BLOCK
  5
63
100
AcDbEntity
  8
BEMASSUNG
390
0
100
AcDbBlockBegin
  2
D490817792
 70
         0
 10
0.0
 20
0.0
 30
0.0
  3
D490817792
  1

  0
LINE
  5
64
100
AcDbEntity
  8
MASSLINIEN
390
0
 62
       172
100
AcDbLine
 10
34.7767481687
 20
73.3817567565
 30
0.0
 11
34.7767481687
 21
70.3817567565
 31
0.0
  0
LINE
  5
65
100
AcDbEntity
  8
MASSLINIEN
390
0
 62
       172
100
AcDbLine
 10
124.4105752962
 20
73.3817567565
 30
0.0
 11
32.7767481687
 21
73.3817567565
 31
0.0
  0
LINE
  5
66
100
AcDbEntity
  8
MASSLINIEN
390
0
 62
       172
100
AcDbLine
 10
124.4105752961
 20
70.3817567565
 30
0.0
 11
32.7767481687
 21
70.3817567565
 31
0.0
  0
LINE
  5
67
100
AcDbEntity
  8
MASSLINIEN
390
0
 62
       172
100
AcDbLine
 10
34.7767481687
 20
73.3817567565
 30
0.0
 11
34.7767481687
 21
82.156259258
 31
0.0
  0
LINE
  5
68
100
AcDbEntity
  8
MASSLINIEN
390
0
 62
       172
100
AcDbLine
 10
34.7767481687
 20
70.3817567565
 30
0.0
 11
34.7767481687
 21
64.3430875882
 31
0.0
  0
SOLID
  5
69
100
AcDbEntity
  8
MASSGRENZEN
390
0
100
AcDbTrace
 10
34.7767481687
 20
73.3817567565
 30
0.0
 11
34.3851695921
 21
76.3560913406
 31
0.0
 12
35.1683267454
 22
76.3560913406
 32
0.0
 13
35.1683267454
 23
76.3560913406
 33
0.0
  0
SOLID
  5
6A
100
AcDbEntity
  8
MASSGRENZEN
390
0
100
AcDbTrace
 10
34.7767481687
 20
70.3817567565
 30
0.0
 11
35.1683267454
 21
67.4074221723
 31
0.0
 12
34.3851695921
 22
67.4074221723
 32
0.0
 13
34.3851695921
 23
67.4074221723
 33
0.0
  0
MTEXT
  5
6B
100
AcDbEntity
  8
MASSTEXTE
390
0
 62
       212
100
AcDbMText
 10
31.5927481687
 20
80.7433425914
 30
0.0
 40
3.0
 41
0.0
 71
         5
 72
         1
  1
\W1.135146;\A1;3
  7
Arial
 11
0.0
 21
1.0
 31
0.0
 73
         0
 44
0.0
  0
ENDBLK
  5
6C
100
AcDbEntity
  8
0
390
0
100
AcDbBlockEnd
  0
BLOCK
  5
6E
100
AcDbEntity
  8
BEMASSUNG
390
0
100
AcDbBlockBegin
  2
D492398656
 70
         0
 10
0.0
 20
0.0
 30
0.0
  3
D492398656
  1

  0
LINE
  5
6F
100
AcDbEntity
  8
MASSLINIEN
390
0
 62
       172
100
AcDbLine
 10
152.7064057184
 20
50.8346163551
 30
0.0
 11
162.7064057184
 21
68.1551244307
 31
0.0
  0
LINE
  5
70
100
AcDbEntity
  8
MASSLINIEN
390
0
 62
       172
100
AcDbLine
 10
141.2516891892
 20
80.5420107943
 30
0.0
 11
164.438456526
 21
67.1551244307
 31
0.0
  0
LINE
  5
71
100
AcDbEntity
  8
MASSLINIEN
390
0
 62
       172
100
AcDbLine
 10
131.2516891892
 20
63.2215027186
 30
0.0
 11
154.438456526
 21
49.8346163551
 31
0.0
  0
SOLID
  5
72
100
AcDbEntity
  8
MASSGRENZEN
390
0
100
AcDbTrace
 10
152.7064057184
 20
50.8346163551
 30
0.0
 11
153.8544560155
 21
53.6062549526
 31
0.0
 12
154.5326900055
 22
53.2146763759
 32
0.0
 13
154.5326900055
 23
53.2146763759
 33
0.0
  0
SOLID
  5
73
100
AcDbEntity
  8
MASSGRENZEN
390
0
100
AcDbTrace
 10
162.7064057184
 20
68.1551244307
 30
0.0
 11
161.5583554214
 21
65.3834858332
 31
0.0
 12
160.8801214314
 22
65.7750644099
 32
0.0
 13
160.8801214314
 23
65.7750644099
 33
0.0
  0
MTEXT
  5
74
100
AcDbEntity
  8
MASSTEXTE
390
0
 62
       212
100
AcDbMText
 10
154.9489808328
 20
61.0868703929
 30
0.0
 40
3.0
 41
0.0
 71
         5
 72
         1
  1
\W1.135145;\A1;Ø20
  7
Arial
 11
0.5
 21
0.8660254038
 31
0.0
 73
         0
 44
0.0
  0
ENDBLK
  5
75
100
AcDbEntity
  8
0
390
0
100
AcDbBlockEnd
  0
BLOCK
  5
77
100
AcDbEntity
  8
BEMASSUNG
390
0
100
AcDbBlockBegin
  2
D594153984
 70
         0
 10
0.0
 20
0.0
 30
0.0
  3
D594153984
  1

  0
LINE
  5
78
100
AcDbEntity
  8
MASSLINIEN
390
0
 62
       172
100
AcDbLine
 10
46.2516891891
 20
51.844662985
 30
0.0
 11
136.2516891892
 21
51.844662985
 31
0.0
  0
LINE
  5
79
100
AcDbEntity
  8
MASSLINIEN
390
0
 62
       172
100
AcDbLine
 10
46.2516891891
 20
67.3817567565
 30
0.0
 11
46.2516891891
 21
49.844662985
 31
0.0
  0
LINE
  5
7A
100
AcDbEntity
  8
MASSLINIEN
390
0
 62
       172
100
AcDbLine
 10
136.2516891892
 20
71.8817567565
 30
0.0
 11
136.2516891892
 21
49.844662985
 31
0.0
  0
SOLID
  5
7B
100
AcDbEntity
  8
MASSGRENZEN
390
0
100
AcDbTrace
 10
46.2516891891
 20
51.844662985
 30
0.0
 11
49.2260237732
 21
52.2362415616
 31
0.0
 12
49.2260237732
 22
51.4530844083
 32
0.0
 13
49.2260237732
 23
51.4530844083
 33
0.0
  0
SOLID
  5
7C
100
AcDbEntity
  8
MASSGRENZEN
390
0
100
AcDbTrace
 10
136.2516891892
 20
51.844662985
 30
0.0
 11
133.2773546051
 21
51.4530844083
 31
0.0
 12
133.2773546051
 22
52.2362415616
 32
0.0
 13
133.2773546051
 23
52.2362415616
 33
0.0
  0
MTEXT
  5
7D
100
AcDbEntity
  8
MASSTEXTE
390
0
 62
       212
100
AcDbMText
 10
91.2516891892
 20
55.028662985
 30
0.0
 40
3.0
 41
0.0
 71
         5
 72
         1
  1
\W1.135145;\A1;90
  7
Arial
 73
         0
 44
0.0
  0
ENDBLK
  5
7E
100
AcDbEntity
  8
0
390
0
100
AcDbBlockEnd
  0
BLOCK
  5
80
100
AcDbEntity
  8
BEMASSUNG
390
0
100
AcDbBlockBegin
  2
D490813696
 70
         0
 10
0.0
 20
0.0
 30
0.0
  3
D490813696
  1

  0
LINE
  5
81
100
AcDbEntity
  8
MASSLINIEN
390
0
 62
       172
100
AcDbLine
 10
146.2516891892
 20
277.5411486486
 30
0.0
 11
226.2516891892
 21
277.5411486486
 31
0.0
  0
LINE
  5
82
100
AcDbEntity
  8
MASSLINIEN
390
0
 62
       172
100
AcDbLine
 10
146.2516891892
 20
221.8817567565
 30
0.0
 11
146.2516891892
 21
279.5411486486
 31
0.0
  0
LINE
  5
83
100
AcDbEntity
  8
MASSLINIEN
390
0
 62
       172
100
AcDbLine
 10
226.2516891892
 20
113.8817567565
 30
0.0
 11
226.2516891892
 21
279.5411486486
 31
0.0
  0
SOLID
  5
84
100
AcDbEntity
  8
MASSGRENZEN
390
0
100
AcDbTrace
 10
146.2516891892
 20
277.5411486486
 30
0.0
 11
149.2260237733
 21
277.9327272253
 31
0.0
 12
149.2260237733
 22
277.149570072
 32
0.0
 13
149.2260237733
 23
277.149570072
 33
0.0
  0
SOLID
  5
85
100
AcDbEntity
  8
MASSGRENZEN
390
0
100
AcDbTrace
 10
226.2516891892
 20
277.5411486486
 30
0.0
 11
223.2773546051
 21
277.149570072
 31
0.0
 12
223.2773546051
 22
277.9327272253
 32
0.0
 13
223.2773546051
 23
277.9327272253
 33
0.0
  0
MTEXT
  5
86
100
AcDbEntity
  8
MASSTEXTE
390
0
 62
       212
100
AcDbMText
 10
186.2516891892
 20
280.7251486486
 30
0.0
 40
3.0
 41
0.0
 71
         5
 72
         1
  1
\W1.135145;\A1;80
  7
Arial
 11
1.0
 21
0.0
 31
0.0
 73
         0
 44
0.0
  0
ENDBLK
  5
87
100
AcDbEntity
  8
0
390
0
100
AcDbBlockEnd
  0
BLOCK
  5
89
100
AcDbEntity
  8
BEMASSUNG
390
0
100
AcDbBlockBegin
  2
D492490240
 70
         0
 10
0.0
 20
0.0
 30
0.0
  3
D492490240
  1

  0
LINE
  5
8A
100
AcDbEntity
  8
MASSLINIEN
390
0
 62
       172
100
AcDbLine
 10
46.2516891892
 20
277.5411486486
 30
0.0
 11
123.2516891892
 21
277.5411486486
 31
0.0
  0
LINE
  5
8B
100
AcDbEntity
  8
MASSLINIEN
390
0
 62
       172
100
AcDbLine
 10
46.2516891892
 20
113.8817567565
 30
0.0
 11
46.2516891892
 21
279.5411486486
 31
0.0
  0
LINE
  5
8C
100
AcDbEntity
  8
MASSLINIEN
390
0
 62
       172
100
AcDbLine
 10
123.2516891892
 20
221.8817567565
 30
0.0
 11
123.2516891892
 21
279.5411486486
 31
0.0
  0
SOLID
  5
8D
100
AcDbEntity
  8
MASSGRENZEN
390
0
100
AcDbTrace
 10
46.2516891892
 20
277.5411486486
 30
0.0
 11
49.2260237733
 21
277.9327272253
 31
0.0
 12
49.2260237733
 22
277.149570072
 32
0.0
 13
49.2260237733
 23
277.149570072
 33
0.0
  0
SOLID
  5
8E
100
AcDbEntity
  8
MASSGRENZEN
390
0
100
AcDbTrace
 10
123.2516891892
 20
277.5411486486
 30
0.0
 11
120.2773546051
 21
277.149570072
 31
0.0
 12
120.2773546051
 22
277.9327272253
 32
0.0
 13
120.2773546051
 23
277.9327272253
 33
0.0
  0
MTEXT
  5
8F
100
AcDbEntity
  8
MASSTEXTE
390
0
 62
       212
100
AcDbMText
 10
84.7516891892
 20
280.7251486486
 30
0.0
 40
3.0
 41
0.0
 71
         5
 72
         1
  1
\W1.135145;\A1;77
  7
Arial
 11
1.0
 21
0.0
 31
0.0
 73
         0
 44
0.0
  0
ENDBLK
  5
90
100
AcDbEntity
  8
0
390
0
100
AcDbBlockEnd
  0
BLOCK
  5
92
100
AcDbEntity
  8
BEMASSUNG
390
0
100
AcDbBlockBegin
  2
D490819328
 70
         0
 10
0.0
 20
0.0
 30
0.0
  3
D490819328
  1

  0
LINE
  5
93
100
AcDbEntity
  8
MASSLINIEN
390
0
 62
       172
100
AcDbLine
 10
252.3944087838
 20
261.8817567568
 30
0.0
 11
252.3944087838
 21
101.8817567565
 31
0.0
  0
LINE
  5
94
100
AcDbEntity
  8
MASSLINIEN
390
0
 62
       172
100
AcDbLine
 10
146.2516891892
 20
261.8817567568
 30
0.0
 11
254.3944087838
 21
261.8817567568
 31
0.0
  0
LINE
  5
95
100
AcDbEntity
  8
MASSLINIEN
390
0
 62
       172
100
AcDbLine
 10
146.2516891892
 20
101.8817567565
 30
0.0
 11
254.3944087838
 21
101.8817567565
 31
0.0
  0
SOLID
  5
96
100
AcDbEntity
  8
MASSGRENZEN
390
0
100
AcDbTrace
 10
252.3944087838
 20
261.8817567568
 30
0.0
 11
252.7859873604
 21
258.9074221726
 31
0.0
 12
252.0028302071
 22
258.9074221726
 32
0.0
 13
252.0028302071
 23
258.9074221726
 33
0.0
  0
SOLID
  5
97
100
AcDbEntity
  8
MASSGRENZEN
390
0
100
AcDbTrace
 10
252.3944087838
 20
101.8817567565
 30
0.0
 11
252.0028302071
 21
104.8560913406
 31
0.0
 12
252.7859873604
 22
104.8560913406
 32
0.0
 13
252.7859873604
 23
104.8560913406
 33
0.0
  0
MTEXT
  5
98
100
AcDbEntity
  8
MASSTEXTE
390
0
 62
       212
100
AcDbMText
 10
249.2104087838
 20
181.8817567566
 30
0.0
 40
3.0
 41
0.0
 71
         5
 72
         1
  1
\W1.135145;\A1;160
  7
Arial
 11
0.0
 21
1.0
 31
0.0
 73
         0
 44
0.0
  0
ENDBLK
  5
99
100
AcDbEntity
  8
0
390
0
100
AcDbBlockEnd
  0
BLOCK
  5
9B
100
AcDbEntity
  8
BEMASSUNG
390
0
100
AcDbBlockBegin
  2
D543849504
 70
         0
 10
0.0
 20
0.0
 30
0.0
  3
D543849504
  1

  0
LINE
  5
9C
100
AcDbEntity
  8
MASSLINIEN
390
0
 62
       172
100
AcDbLine
 10
224.6439940346
 20
107.8817567565
 30
0.0
 11
234.7995852696
 21
102.0184234231
 31
0.0
  0
SOLID
  5
9D
100
AcDbEntity
  8
MASSGRENZEN
390
0
100
AcDbTrace
 10
224.6439940346
 20
107.8817567565
 30
0.0
 11
227.4156326321
 21
106.7337064594
 31
0.0
 12
227.0240540555
 22
106.0554724694
 32
0.0
 13
227.0240540555
 23
106.0554724694
 33
0.0
  0
MTEXT
  5
9E
100
AcDbEntity
  8
MASSTEXTE
390
0
 62
       212
100
AcDbMText
 10
235.758811541
 20
105.1411803913
 30
0.0
 40
3.0
 41
0.0
 71
         5
 72
         1
  1
\W1.135145;\A1;R12
  7
Arial
 11
0.8660254038
 21
-0.5
 31
0.0
 73
         0
 44
0.0
  0
ENDBLK
  5
9F
100
AcDbEntity
  8
0
390
0
100
AcDbBlockEnd
  0
BLOCK
  5
ED
100
AcDbEntity
  8
GEOMETRIE
390
0
100
AcDbBlockBegin
  2
DIN_A3
 70
        66
 10
0.0
 20
0.0
 30
0.0
  3
DIN_A3
  1

  0
ATTDEF
  5
EE
100
AcDbEntity
  8
050_NB_TEXT
390
0
100
AcDbText
 10
365.8025432192
 20
40.2482882178
 30
0.0
 40
5.0
  1
?
 41
0.84
 72
         1
 11
365.8025432192
 21
40.2482882178
 31
0.0
100
AcDbAttributeDefinition
  3
Benennung
  2
Benennung
 70
         0
 74
         3
  0
ATTDEF
  5
EF
100
AcDbEntity
  8
050_NB_TEXT
390
0
100
AcDbText
 10
359.302917222
 20
15.7497554597
 30
0.0
 40
5.0
  1
?
 41
0.84
 72
         1
 11
359.302917222
 21
15.7497554597
 31
0.0
100
AcDbAttributeDefinition
  3
Zeichnungsnummer
  2
Zeichnungsnummer
 70
         0
  0
ATTDEF
  5
F0
100
AcDbEntity
  8
025_NB_TEXT
390
0
100
AcDbText
 10
338.2241281207
 20
59.8721877864
 30
0.0
 40
2.5
  1
?
 41
0.84
100
AcDbAttributeDefinition
  3
Maßstab
  2
Maßstab
 70
         0
  0
ATTDEF
  5
F1
100
AcDbEntity
  8
025_NB_TEXT
390
0
100
AcDbText
 10
389.9028197193
 20
59.8721877864
 30
0.0
 40
2.5
  1
?
 41
0.84
100
AcDbAttributeDefinition
  3
Gewicht
  2
Gewicht
 70
         0
  0
ATTDEF
  5
F2
100
AcDbEntity
  8
025_NB_TEXT
390
0
100
AcDbText
 10
359.3165781074
 20
52.381176825
 30
0.0
 40
2.5
  1
?
 41
0.84
100
AcDbAttributeDefinition
  3
Werkstoff
  2
Werkstoff
 70
         0
  0
ATTDEF
  5
F3
100
AcDbEntity
  8
025_NB_TEXT
390
0
100
AcDbText
 10
405.2714342688
 20
19.4995109194
 30
0.0
 40
2.5
  1
?
 41
0.84
 72
         2
 11
405.2714342688
 21
19.4995109194
 31
0.0
100
AcDbAttributeDefinition
  3
Blatt
  2
Blatt
 70
         0
  0
ATTDEF
  5
F4
100
AcDbEntity
  8
025_NB_TEXT
390
0
100
AcDbText
 10
405.2714342688
 20
15.2497554597
 30
0.0
 40
2.5
  1
?
 41
0.84
 72
         2
 11
405.2714342688
 21
15.2497554597
 31
0.0
100
AcDbAttributeDefinition
  3
Bl.
  2
Bl.
 70
         0
  0
ATTDEF
  5
F5
100
AcDbEntity
  8
025_NB_TEXT
390
0
100
AcDbText
 10
333.5777227339
 20
11.0039949383
 30
0.0
 40
2.5
  1
?
 41
0.84
100
AcDbAttributeDefinition
  3
Ersatz für
  2
Ersatz für
 70
         0
  0
ATTDEF
  5
F6
100
AcDbEntity
  8
025_NB_TEXT
390
0
100
AcDbText
 10
387.4128856935
 20
11.0
 30
0.0
 40
2.5
  1
?
 41
0.84
100
AcDbAttributeDefinition
  3
Ersetzt durch
  2
Ersetzt durch
 70
         0
  0
ATTDEF
  5
F7
100
AcDbEntity
  8
025_NB_TEXT
390
0
100
AcDbText
 10
290.406881652
 20
55.1665578036
 30
0.0
 40
2.5
  1
?
 41
0.84
 72
         1
 11
290.406881652
 21
55.1665578036
 31
0.0
100
AcDbAttributeDefinition
  3
Zul. Abweichung
  2
Zul. Abweichung
 70
         0
  0
ATTDEF
  5
F8
100
AcDbEntity
  8
025_NB_TEXT
390
0
100
AcDbText
 10
312.5056100424
 20
55.1665578036
 30
0.0
 40
2.5
  1
?
 41
0.84
 72
         1
 11
312.5056100424
 21
55.1665578036
 31
0.0
100
AcDbAttributeDefinition
  3
Oberfläche
  2
Oberfläche
 70
         0
  0
ATTDEF
  5
F9
100
AcDbEntity
  8
025_NB_TEXT
390
0
100
AcDbText
 10
288.3070312531
 20
40.7482882178
 30
0.0
 40
2.5
  1
?
 41
0.728
100
AcDbAttributeDefinition
  3
Bearb. Datum
  2
Bearb. Datum
 70
         0
  0
ATTDEF
  5
FA
100
AcDbEntity
  8
025_NB_TEXT
390
0
100
AcDbText
 10
303.9061336464
 20
40.7482882178
 30
0.0
 40
2.5
  1
?
 41
0.84
100
AcDbAttributeDefinition
  3
Bearb. Name
  2
Bearb. Name
 70
         0
  0
ATTDEF
  5
FB
100
AcDbEntity
  8
025_NB_TEXT
390
0
100
AcDbText
 10
288.3333988082
 20
36.5294794069
 30
0.0
 40
2.5
  1
?
 41
0.728
100
AcDbAttributeDefinition
  3
Gepr. Datum
  2
Gepr. Datum
 70
         0
  0
ATTDEF
  5
FC
100
AcDbEntity
  8
025_NB_TEXT
390
0
100
AcDbText
 10
303.9061336464
 20
36.4710865717
 30
0.0
 40
2.5
  1
?
 41
0.84
100
AcDbAttributeDefinition
  3
Gepr. Name
  2
Gepr. Name
 70
         0
  0
ATTDEF
  5
FD
100
AcDbEntity
  8
025_NB_TEXT
390
0
100
AcDbText
 10
288.3333988082
 20
32.3897732612
 30
0.0
 40
2.5
  1
?
 41
0.728
100
AcDbAttributeDefinition
  3
Norm Datum
  2
Norm Datum
 70
         0
  0
ATTDEF
  5
FE
100
AcDbEntity
  8
025_NB_TEXT
390
0
100
AcDbText
 10
303.9061336464
 20
32.3649729915
 30
0.0
 40
2.5
  1
?
 41
0.84
100
AcDbAttributeDefinition
  3
Norm Name
  2
Norm Name
 70
         0
  0
ATTDEF
  5
FF
100
AcDbEntity
  8
025_NB_TEXT
390
0
100
AcDbText
 10
289.2439051502
 20
11.0039949383
 30
0.0
 40
2.5
  1
?
 41
0.84
100
AcDbAttributeDefinition
  3
Urspr.
  2
Urspr.
 70
         0
  0
ATTDEF
  5
100
100
AcDbEntity
  8
025_NB_TEXT
390
0
100
AcDbText
 10
250.0592004695
 20
55.1665578036
 30
0.0
 40
3.0
  1
?
 41
0.84
 72
         1
 11
250.0592004695
 21
55.1665578036
 31
0.0
100
AcDbAttributeDefinition
  3
Verwendungsbereich
  2
Verwendungsbereich
 70
         0
  0
ATTDEF
  5
101
100
AcDbEntity
  8
025_NB_TEXT
390
0
100
AcDbText
 10
223.2107712814
 20
15.2497554597
 30
0.0
 40
2.5
  1
?
 41
0.84
100
AcDbAttributeDefinition
  3
Zust.
  2
Zust.
 70
         0
  0
ATTDEF
  5
102
100
AcDbEntity
  8
025_NB_TEXT
390
0
100
AcDbText
 10
231.110322478
 20
15.2497554597
 30
0.0
 40
2.5
  1
?
 41
0.84
100
AcDbAttributeDefinition
  3
Änderung
  2
Änderung
 70
         0
  0
ATTDEF
  5
103
100
AcDbEntity
  8
025_NB_TEXT
390
0
100
AcDbText
 10
257.1088264667
 20
15.2497554597
 30
0.0
 40
2.5
  1
?
 41
0.8
100
AcDbAttributeDefinition
  3
Änderung Datum
  2
Änderung Datum
 70
         0
  0
ATTDEF
  5
104
100
AcDbEntity
  8
025_NB_TEXT
390
0
100
AcDbText
 10
270.1080784611
 20
15.2497554597
 30
0.0
 40
2.5
  1
?
 41
0.84
100
AcDbAttributeDefinition
  3
Änderung Name
  2
Änderung Name
 70
         0
  0
ATTDEF
  5
105
100
AcDbEntity
  8
STANDARD
390
0
100
AcDbText
 10
223.2107712814
 20
19.4995109194
 30
0.0
 40
2.5
  1
?
 41
0.84
100
AcDbAttributeDefinition
  3
Zust.1
  2
Zust.1
 70
         0
  0
ATTDEF
  5
106
100
AcDbEntity
  8
STANDARD
390
0
100
AcDbText
 10
231.110322478
 20
19.4995109194
 30
0.0
 40
2.5
  1
?
 41
0.84
100
AcDbAttributeDefinition
  3
Änderung1
  2
Änderung1
 70
         0
  0
ATTDEF
  5
107
100
AcDbEntity
  8
STANDARD
390
0
100
AcDbText
 10
257.1088264667
 20
19.4995109194
 30
0.0
 40
2.5
  1
?
 41
0.8
100
AcDbAttributeDefinition
  3
Änderung Datum1
  2
Änderung Datum1
 70
         0
  0
ATTDEF
  5
108
100
AcDbEntity
  8
STANDARD
390
0
100
AcDbText
 10
270.1080784611
 20
19.4995109194
 30
0.0
 40
2.5
  1
?
 41
0.84
100
AcDbAttributeDefinition
  3
Änderung Name1
  2
Änderung Name1
 70
         0
  0
ATTDEF
  5
109
100
AcDbEntity
  8
STANDARD
390
0
100
AcDbText
 10
223.2107712814
 20
23.7492663791
 30
0.0
 40
2.5
  1
?
 41
0.84
100
AcDbAttributeDefinition
  3
Zust.2
  2
Zust.2
 70
         0
  0
ATTDEF
  5
10A
100
AcDbEntity
  8
STANDARD
390
0
100
AcDbText
 10
231.110322478
 20
23.7492663791
 30
0.0
 40
2.5
  1
?
 41
0.84
100
AcDbAttributeDefinition
  3
Änderung2
  2
Änderung2
 70
         0
  0
ATTDEF
  5
10B
100
AcDbEntity
  8
STANDARD
390
0
100
AcDbText
 10
257.1088264667
 20
23.7492663791
 30
0.0
 40
2.5
  1
?
 41
0.8
100
AcDbAttributeDefinition
  3
Änderung Datum2
  2
Änderung Datum2
 70
         0
  0
ATTDEF
  5
10C
100
AcDbEntity
  8
STANDARD
390
0
100
AcDbText
 10
270.1080784611
 20
23.7492663791
 30
0.0
 40
2.5
  1
?
 41
0.84
100
AcDbAttributeDefinition
  3
Änderung Name2
  2
Änderung Name2
 70
         0
  0
ATTDEF
  5
10D
100
AcDbEntity
  8
STANDARD
390
0
100
AcDbText
 10
223.2107712814
 20
27.9990218388
 30
0.0
 40
2.5
  1
?
 41
0.84
100
AcDbAttributeDefinition
  3
Zust.3
  2
Zust.3
 70
         0
  0
ATTDEF
  5
10E
100
AcDbEntity
  8
STANDARD
390
0
100
AcDbText
 10
231.110322478
 20
27.9990218388
 30
0.0
 40
2.5
  1
?
 41
0.84
100
AcDbAttributeDefinition
  3
Änderung3
  2
Änderung3
 70
         0
  0
ATTDEF
  5
10F
100
AcDbEntity
  8
STANDARD
390
0
100
AcDbText
 10
257.1088264667
 20
27.9990218388
 30
0.0
 40
2.5
  1
?
 41
0.8
100
AcDbAttributeDefinition
  3
Änderung Datum3
  2
Änderung Datum3
 70
         0
  0
ATTDEF
  5
110
100
AcDbEntity
  8
STANDARD
390
0
100
AcDbText
 10
270.1080784611
 20
27.9990218388
 30
0.0
 40
2.5
  1
?
 41
0.84
100
AcDbAttributeDefinition
  3
Änderung Name3
  2
Änderung Name3
 70
         0
  0
ATTDEF
  5
111
100
AcDbEntity
  8
STANDARD
390
0
100
AcDbText
 10
223.2107712814
 20
32.2487772985
 30
0.0
 40
2.5
  1
?
 41
0.84
100
AcDbAttributeDefinition
  3
Zust.4
  2
Zust.4
 70
         0
  0
ATTDEF
  5
112
100
AcDbEntity
  8
STANDARD
390
0
100
AcDbText
 10
231.110322478
 20
32.2487772985
 30
0.0
 40
2.5
  1
?
 41
0.84
100
AcDbAttributeDefinition
  3
Änderung4
  2
Änderung4
 70
         0
  0
ATTDEF
  5
113
100
AcDbEntity
  8
STANDARD
390
0
100
AcDbText
 10
257.1088264667
 20
32.2487772985
 30
0.0
 40
2.5
  1
?
 41
0.8
100
AcDbAttributeDefinition
  3
Änderung Datum4
  2
Änderung Datum4
 70
         0
  0
ATTDEF
  5
114
100
AcDbEntity
  8
STANDARD
390
0
100
AcDbText
 10
270.1080784611
 20
32.2487772985
 30
0.0
 40
2.5
  1
?
 41
0.84
100
AcDbAttributeDefinition
  3
Änderung Name4
  2
Änderung Name4
 70
         0
  0
ATTDEF
  5
115
100
AcDbEntity
  8
STANDARD
390
0
100
AcDbText
 10
223.2107712814
 20
36.4985327581
 30
0.0
 40
2.5
  1
?
 41
0.84
100
AcDbAttributeDefinition
  3
Zust.5
  2
Zust.5
 70
         0
  0
ATTDEF
  5
116
100
AcDbEntity
  8
STANDARD
390
0
100
AcDbText
 10
231.110322478
 20
36.4985327581
 30
0.0
 40
2.5
  1
?
 41
0.84
100
AcDbAttributeDefinition
  3
Änderung5
  2
Änderung5
 70
         0
  0
ATTDEF
  5
117
100
AcDbEntity
  8
STANDARD
390
0
100
AcDbText
 10
257.1088264667
 20
36.4985327581
 30
0.0
 40
2.5
  1
?
 41
0.8
100
AcDbAttributeDefinition
  3
Änderung Datum5
  2
Änderung Datum5
 70
         0
  0
ATTDEF
  5
118
100
AcDbEntity
  8
STANDARD
390
0
100
AcDbText
 10
270.1080784611
 20
36.4985327581
 30
0.0
 40
2.5
  1
?
 41
0.84
100
AcDbAttributeDefinition
  3
Änderung Name5
  2
Änderung Name5
 70
         0
  0
ATTDEF
  5
119
100
AcDbEntity
  8
STANDARD
390
0
100
AcDbText
 10
223.2107712814
 20
40.7482882178
 30
0.0
 40
2.5
  1
?
 41
0.84
100
AcDbAttributeDefinition
  3
Zust.6
  2
Zust.6
 70
         0
  0
ATTDEF
  5
11A
100
AcDbEntity
  8
STANDARD
390
0
100
AcDbText
 10
231.110322478
 20
40.7482882178
 30
0.0
 40
2.5
  1
?
 41
0.84
100
AcDbAttributeDefinition
  3
Änderung6
  2
Änderung6
 70
         0
  0
ATTDEF
  5
11B
100
AcDbEntity
  8
STANDARD
390
0
100
AcDbText
 10
257.1088264667
 20
40.7482882178
 30
0.0
 40
2.5
  1
?
 41
0.8
100
AcDbAttributeDefinition
  3
Änderung Datum6
  2
Änderung Datum6
 70
         0
  0
ATTDEF
  5
11C
100
AcDbEntity
  8
STANDARD
390
0
100
AcDbText
 10
270.1080784611
 20
40.7482882178
 30
0.0
 40
2.5
  1
?
 41
0.84
100
AcDbAttributeDefinition
  3
Änderung Name6
  2
Änderung Name6
 70
         0
  0
ATTDEF
  5
11D
100
AcDbEntity
  8
STANDARD
390
0
100
AcDbText
 10
223.2107712814
 20
44.9980436775
 30
0.0
 40
2.5
  1
?
 41
0.84
100
AcDbAttributeDefinition
  3
Zust.7
  2
Zust.7
 70
         0
  0
ATTDEF
  5
11E
100
AcDbEntity
  8
STANDARD
390
0
100
AcDbText
 10
231.110322478
 20
44.9980436775
 30
0.0
 40
2.5
  1
?
 41
0.84
100
AcDbAttributeDefinition
  3
Änderung7
  2
Änderung7
 70
         0
  0
ATTDEF
  5
11F
100
AcDbEntity
  8
STANDARD
390
0
100
AcDbText
 10
257.1088264667
 20
44.9980436775
 30
0.0
 40
2.5
  1
?
 41
0.8
100
AcDbAttributeDefinition
  3
Änderung Datum7
  2
Änderung Datum7
 70
         0
  0
ATTDEF
  5
120
100
AcDbEntity
  8
STANDARD
390
0
100
AcDbText
 10
270.1080784611
 20
44.9980436775
 30
0.0
 40
2.5
  1
?
 41
0.84
100
AcDbAttributeDefinition
  3
Änderung Name7
  2
Änderung Name7
 70
         0
  0
TEXT
  5
121
100
AcDbEntity
  8
025_NB_TEXT
390
0
100
AcDbText
 10
223.6460904313
 20
60.3887620052
 30
0.0
 40
1.59375
  1
Verwendungsbereich
 41
1.5259869543
  7
Arial
100
AcDbText
  0
TEXT
  5
122
100
AcDbEntity
  8
025_NB_TEXT
390
0
100
AcDbText
 10
277.9076296577
 20
60.3887620052
 30
0.0
 40
1.59375
  1
Zul. Abweichung
 41
1.5260093312
  7
Arial
100
AcDbText
  0
TEXT
  5
123
100
AcDbEntity
  8
025_NB_TEXT
390
0
100
AcDbText
 10
303.9061336464
 20
60.3887620052
 30
0.0
 40
1.59375
  1
Oberfläche
 41
1.5259811146
  7
Arial
100
AcDbText
  0
TEXT
  5
124
100
AcDbEntity
  8
025_NB_TEXT
390
0
100
AcDbText
 10
322.1050864384
 20
60.3887620052
 30
0.0
 40
1.59375
  1
Maßstab
 41
1.5260326369
  7
Arial
100
AcDbText
  0
TEXT
  5
125
100
AcDbEntity
  8
025_NB_TEXT
390
0
100
AcDbText
 10
374.1020944158
 20
60.3887620052
 30
0.0
 40
1.59375
  1
Gewicht
 41
1.5259741741
  7
Arial
100
AcDbText
  0
MTEXT
  5
126
100
AcDbEntity
  8
025_NB_TEXT
390
0
100
AcDbMText
 10
322.1050864384
 20
49.764373356
 30
0.0
 40
1.59375
 41
0.0
 71
         7
 72
         1
  1
\W1.525915;Werkstoff, Halbzeug\PRohteil-Nr.\PModell- oder Gesenk-Nr.
  7
Arial
 73
         1
 44
1.2047058824
  0
TEXT
  5
127
100
AcDbEntity
  8
025_NB_TEXT
390
0
100
AcDbText
 10
322.1050864384
 20
45.5146178963
 30
0.0
 40
1.59375
  1
Benennung
 41
1.5260484675
  7
Arial
100
AcDbText
  0
TEXT
  5
128
100
AcDbEntity
  8
025_NB_TEXT
390
0
100
AcDbText
 10
307.6413815538
 20
45.5146178963
 30
0.0
 40
1.59375
  1
Name
 41
1.526032467
  7
Arial
 72
         1
 11
312.5056100424
 21
45.5146178963
 31
0.0
100
AcDbText
  0
TEXT
  5
129
100
AcDbEntity
  8
025_NB_TEXT
390
0
100
AcDbText
 10
289.5264326865
 20
45.5146178963
 30
0.0
 40
1.59375
  1
Datum
 41
1.5259983719
  7
Arial
 72
         1
 11
295.6065824497
 21
45.5146178963
 31
0.0
100
AcDbText
  0
TEXT
  5
12A
100
AcDbEntity
  8
025_NB_TEXT
390
0
100
AcDbText
 10
277.9076296577
 20
32.7653515172
 30
0.0
 40
1.59375
  1
Norm
 41
1.5260021916
  7
Arial
100
AcDbText
  0
TEXT
  5
12B
100
AcDbEntity
  8
025_NB_TEXT
390
0
100
AcDbText
 10
277.9076296577
 20
37.0151069769
 30
0.0
 40
1.59375
  1
Gepr.
 41
1.5259880427
  7
Arial
100
AcDbText
  0
TEXT
  5
12C
100
AcDbEntity
  8
025_NB_TEXT
390
0
100
AcDbText
 10
277.9076296577
 20
41.2648624366
 30
0.0
 40
1.59375
  1
Bearb.
 41
1.5260214281
  7
Arial
100
AcDbText
  0
TEXT
  5
12D
100
AcDbEntity
  8
025_NB_TEXT
390
0
100
AcDbText
 10
277.9076296577
 20
11.520569157
 30
0.0
 40
1.59375
  1
Urspr.
 41
1.5258533708
  7
Arial
100
AcDbText
  0
TEXT
  5
12E
100
AcDbEntity
  8
025_NB_TEXT
390
0
100
AcDbText
 10
223.2107712814
 20
11.520569157
 30
0.0
 40
1.59375
  1
Zust
 41
1.52598352
  7
Arial
100
AcDbText
  0
TEXT
  5
12F
100
AcDbEntity
  8
025_NB_TEXT
390
0
100
AcDbText
 10
233.8810819779
 20
11.520569157
 30
0.0
 40
1.59375
  1
Änderung
 41
1.5260380383
  7
Arial
 72
         1
 11
243.6095744724
 21
11.520569157
 31
0.0
100
AcDbText
  0
TEXT
  5
130
100
AcDbEntity
  8
025_NB_TEXT
390
0
100
AcDbText
 10
257.1088264667
 20
11.520569157
 30
0.0
 40
1.59375
  1
Datum
 41
1.5259983719
  7
Arial
100
AcDbText
  0
TEXT
  5
131
100
AcDbEntity
  8
025_NB_TEXT
390
0
100
AcDbText
 10
269.6720263501
 20
11.520569157
 30
0.0
 40
1.59375
  1
Nam.
 41
1.5259959061
  7
Arial
100
AcDbText
  0
TEXT
  5
132
100
AcDbEntity
  8
025_NB_TEXT
390
0
100
AcDbText
 10
322.1050864384
 20
24.2655960575
 30
0.0
 40
1.59375
  1
Zeichnungsnummer
 41
1.5260269369
  7
Arial
100
AcDbText
  0
TEXT
  5
133
100
AcDbEntity
  8
025_NB_TEXT
390
0
100
AcDbText
 10
322.1050864384
 20
11.520569157
 30
0.0
 40
1.59375
  1
Ers. f.:
 41
1.5258602714
  7
Arial
100
AcDbText
  0
TEXT
  5
134
100
AcDbEntity
  8
025_NB_TEXT
390
0
100
AcDbText
 10
397.5007480057
 20
24.2655960575
 30
0.0
 40
1.59375
  1
Blatt
 41
1.5260271332
  7
Arial
100
AcDbText
  0
TEXT
  5
135
100
AcDbEntity
  8
025_NB_TEXT
390
0
100
AcDbText
 10
405.7714342688
 20
15.7663296784
 30
0.0
 40
1.59375
  1
Bl.
 41
1.5261230062
  7
Arial
100
AcDbText
  0
TEXT
  5
136
100
AcDbEntity
  8
025_NB_TEXT
390
0
100
AcDbText
 10
374.1020944158
 20
11.5165742187
 30
0.0
 40
1.59375
  1
Ers. d.:
 41
1.5259032548
  7
Arial
100
AcDbText
  0
LINE
  5
137
100
AcDbEntity
  8
035_NB
390
0
100
AcDbLine
 10
321.6050864384
 20
65.246820976
 30
0.0
 11
321.6050864384
 21
10.0
 31
0.0
  0
LINE
  5
138
100
AcDbEntity
  8
018_NB
390
0
100
AcDbLine
 10
373.6020944158
 20
65.246820976
 30
0.0
 11
373.6020944158
 21
58.8721877864
 31
0.0
  0
LINE
  5
139
100
AcDbEntity
  8
035_NB
390
0
100
AcDbLine
 10
277.4076296577
 20
65.246820976
 30
0.0
 11
277.4076296577
 21
10.0
 31
0.0
  0
LINE
  5
13A
100
AcDbEntity
  8
018_NB
390
0
100
AcDbLine
 10
269.6080784611
 20
48.2477991372
 30
0.0
 11
269.6080784611
 21
10.0
 31
0.0
  0
LINE
  5
13B
100
AcDbEntity
  8
018_NB
390
0
100
AcDbLine
 10
256.6088264667
 20
48.2477991372
 30
0.0
 11
256.6088264667
 21
10.0
 31
0.0
  0
LINE
  5
13C
100
AcDbEntity
  8
018_NB
390
0
100
AcDbLine
 10
230.610322478
 20
48.2477991372
 30
0.0
 11
230.610322478
 21
10.0
 31
0.0
  0
LINE
  5
13D
100
AcDbEntity
  8
070_NB
390
0
100
AcDbLine
 10
222.7107712814
 20
10.0
 30
0.0
 11
222.7107712814
 21
65.246820976
 31
0.0
  0
LINE
  5
13E
100
AcDbEntity
  8
018_NB
390
0
100
AcDbLine
 10
373.6020944158
 20
14.2497554597
 30
0.0
 11
373.6020944158
 21
10.0
 31
0.0
  0
LINE
  5
13F
100
AcDbEntity
  8
018_NB
390
0
100
AcDbLine
 10
222.7107712814
 20
14.2497554597
 30
0.0
 11
410.0
 21
14.2497554597
 31
0.0
  0
LINE
  5
140
100
AcDbEntity
  8
018_NB
390
0
100
AcDbLine
 10
397.0007480057
 20
18.4995109194
 30
0.0
 11
410.0
 21
18.4995109194
 31
0.0
  0
LINE
  5
141
100
AcDbEntity
  8
035_NB
390
0
100
AcDbLine
 10
397.0007480057
 20
14.2497554597
 30
0.0
 11
397.0007480057
 21
26.9990218388
 31
0.0
  0
LINE
  5
142
100
AcDbEntity
  8
018_NB
390
0
100
AcDbLine
 10
321.6050864384
 20
58.8721877864
 30
0.0
 11
410.0
 21
58.8721877864
 31
0.0
  0
LINE
  5
143
100
AcDbEntity
  8
035_NB
390
0
100
AcDbLine
 10
277.4076296577
 20
26.9990218388
 30
0.0
 11
410.0
 21
26.9990218388
 31
0.0
  0
LINE
  5
144
100
AcDbEntity
  8
070_NB
390
0
100
AcDbLine
 10
222.7107712814
 20
65.246820976
 30
0.0
 11
410.0
 21
65.246820976
 31
0.0
  0
LINE
  5
145
100
AcDbEntity
  8
018_NB
390
0
100
AcDbLine
 10
303.4061336464
 20
65.246820976
 30
0.0
 11
303.4061336464
 21
26.9990218388
 31
0.0
  0
LINE
  5
146
100
AcDbEntity
  8
018_NB
390
0
100
AcDbLine
 10
277.4076296577
 20
31.2487772985
 30
0.0
 11
321.6050864384
 21
31.2487772985
 31
0.0
  0
LINE
  5
147
100
AcDbEntity
  8
018_NB
390
0
100
AcDbLine
 10
287.8070312531
 20
48.2477991372
 30
0.0
 11
287.8070312531
 21
31.2487772985
 31
0.0
  0
LINE
  5
148
100
AcDbEntity
  8
018_NB
390
0
100
AcDbLine
 10
222.7107712814
 20
43.9980436775
 30
0.0
 11
321.6050864384
 21
43.9980436775
 31
0.0
  0
LINE
  5
149
100
AcDbEntity
  8
018_NB
390
0
100
AcDbLine
 10
222.7107712814
 20
31.2487772985
 30
0.0
 11
277.4076296577
 21
31.2487772985
 31
0.0
  0
LINE
  5
14A
100
AcDbEntity
  8
018_NB
390
0
100
AcDbLine
 10
222.7107712814
 20
26.9990218388
 30
0.0
 11
277.4076296577
 21
26.9990218388
 31
0.0
  0
LINE
  5
14B
100
AcDbEntity
  8
018_NB
390
0
100
AcDbLine
 10
222.7107712814
 20
22.7492663791
 30
0.0
 11
277.4076296577
 21
22.7492663791
 31
0.0
  0
LINE
  5
14C
100
AcDbEntity
  8
018_NB
390
0
100
AcDbLine
 10
222.7107712814
 20
18.4995109194
 30
0.0
 11
277.4076296577
 21
18.4995109194
 31
0.0
  0
LINE
  5
14D
100
AcDbEntity
  8
035_NB
390
0
100
AcDbLine
 10
222.7107712814
 20
48.2477991372
 30
0.0
 11
410.0
 21
48.2477991372
 31
0.0
  0
LINE
  5
14E
100
AcDbEntity
  8
018_NB
390
0
100
AcDbLine
 10
222.7107712814
 20
39.7482882178
 30
0.0
 11
321.6050864384
 21
39.7482882178
 31
0.0
  0
LINE
  5
14F
100
AcDbEntity
  8
018_NB
390
0
100
AcDbLine
 10
222.7107712814
 20
35.4985327581
 30
0.0
 11
321.6050864384
 21
35.4985327581
 31
0.0
  0
LINE
  5
150
100
AcDbEntity
  8
018_NB
390
0
100
AcDbLine
 10
60.0
 20
287.0
 30
0.0
 11
60.0
 21
292.0
 31
0.0
  0
LINE
  5
151
100
AcDbEntity
  8
018_NB
390
0
100
AcDbLine
 10
110.0
 20
287.0
 30
0.0
 11
110.0
 21
292.0
 31
0.0
  0
LINE
  5
152
100
AcDbEntity
  8
018_NB
390
0
100
AcDbLine
 10
160.0
 20
287.0
 30
0.0
 11
160.0
 21
292.0
 31
0.0
  0
LINE
  5
153
100
AcDbEntity
  8
018_NB
390
0
100
AcDbLine
 10
210.0
 20
287.0
 30
0.0
 11
210.0
 21
292.0
 31
0.0
  0
LINE
  5
154
100
AcDbEntity
  8
018_NB
390
0
100
AcDbLine
 10
260.0
 20
287.0
 30
0.0
 11
260.0
 21
292.0
 31
0.0
  0
LINE
  5
155
100
AcDbEntity
  8
018_NB
390
0
100
AcDbLine
 10
310.0
 20
287.0
 30
0.0
 11
310.0
 21
292.0
 31
0.0
  0
LINE
  5
156
100
AcDbEntity
  8
018_NB
390
0
100
AcDbLine
 10
360.0
 20
287.0
 30
0.0
 11
360.0
 21
292.0
 31
0.0
  0
LINE
  5
157
100
AcDbEntity
  8
018_NB
390
0
100
AcDbLine
 10
60.0
 20
5.0
 30
0.0
 11
60.0
 21
10.0
 31
0.0
  0
LINE
  5
158
100
AcDbEntity
  8
018_NB
390
0
100
AcDbLine
 10
110.0
 20
5.0
 30
0.0
 11
110.0
 21
10.0
 31
0.0
  0
LINE
  5
159
100
AcDbEntity
  8
018_NB
390
0
100
AcDbLine
 10
160.0
 20
5.0
 30
0.0
 11
160.0
 21
10.0
 31
0.0
  0
LINE
  5
15A
100
AcDbEntity
  8
018_NB
390
0
100
AcDbLine
 10
210.0
 20
5.0
 30
0.0
 11
210.0
 21
10.0
 31
0.0
  0
LINE
  5
15B
100
AcDbEntity
  8
018_NB
390
0
100
AcDbLine
 10
260.0
 20
5.0
 30
0.0
 11
260.0
 21
10.0
 31
0.0
  0
LINE
  5
15C
100
AcDbEntity
  8
018_NB
390
0
100
AcDbLine
 10
310.0
 20
5.0
 30
0.0
 11
310.0
 21
10.0
 31
0.0
  0
LINE
  5
15D
100
AcDbEntity
  8
018_NB
390
0
100
AcDbLine
 10
360.0
 20
5.0
 30
0.0
 11
360.0
 21
10.0
 31
0.0
  0
LINE
  5
15E
100
AcDbEntity
  8
018_NB
390
0
100
AcDbLine
 10
10.0
 20
240.8333333333
 30
0.0
 11
5.0
 21
240.8333333333
 31
0.0
  0
LINE
  5
15F
100
AcDbEntity
  8
018_NB
390
0
100
AcDbLine
 10
10.0
 20
194.6666666667
 30
0.0
 11
5.0
 21
194.6666666667
 31
0.0
  0
LINE
  5
160
100
AcDbEntity
  8
018_NB
390
0
100
AcDbLine
 10
10.0
 20
148.5
 30
0.0
 11
5.0
 21
148.5
 31
0.0
  0
LINE
  5
161
100
AcDbEntity
  8
018_NB
390
0
100
AcDbLine
 10
10.0
 20
102.3333333333
 30
0.0
 11
5.0
 21
102.3333333333
 31
0.0
  0
LINE
  5
162
100
AcDbEntity
  8
018_NB
390
0
100
AcDbLine
 10
10.0
 20
56.1666666667
 30
0.0
 11
5.0
 21
56.1666666667
 31
0.0
  0
LINE
  5
163
100
AcDbEntity
  8
018_NB
390
0
100
AcDbLine
 10
415.0
 20
194.6666666667
 30
0.0
 11
410.0
 21
194.6666666667
 31
0.0
  0
LINE
  5
164
100
AcDbEntity
  8
018_NB
390
0
100
AcDbLine
 10
415.0
 20
240.8333333333
 30
0.0
 11
410.0
 21
240.8333333333
 31
0.0
  0
LINE
  5
165
100
AcDbEntity
  8
018_NB
390
0
100
AcDbLine
 10
415.0
 20
148.5
 30
0.0
 11
410.0
 21
148.5
 31
0.0
  0
LINE
  5
166
100
AcDbEntity
  8
018_NB
390
0
100
AcDbLine
 10
415.0
 20
102.3333333333
 30
0.0
 11
410.0
 21
102.3333333333
 31
0.0
  0
LINE
  5
167
100
AcDbEntity
  8
018_NB
390
0
100
AcDbLine
 10
415.0
 20
56.1666666667
 30
0.0
 11
410.0
 21
56.1666666667
 31
0.0
  0
TEXT
  5
168
100
AcDbEntity
  8
035_NB_TEXT
390
0
100
AcDbText
 10
33.7048241449
 20
288.4732039062
 30
0.0
 40
2.23125
  1
1
 41
1.5479225906
  7
Arial
 72
         1
 11
35.0
 21
288.4732039062
 31
0.0
100
AcDbText
  0
TEXT
  5
169
100
AcDbEntity
  8
035_NB_TEXT
390
0
100
AcDbText
 10
83.2730999712
 20
288.4732039062
 30
0.0
 40
2.23125
  1
2
 41
1.5479215945
  7
Arial
 72
         1
 11
85.0
 21
288.4732039062
 31
0.0
100
AcDbText
  0
TEXT
  5
16A
100
AcDbEntity
  8
035_NB_TEXT
390
0
100
AcDbText
 10
133.2730986376
 20
288.4732039062
 30
0.0
 40
2.23125
  1
3
 41
1.5479227899
  7
Arial
 72
         1
 11
135.0
 21
288.4732039062
 31
0.0
100
AcDbText
  0
TEXT
  5
16B
100
AcDbEntity
  8
035_NB_TEXT
390
0
100
AcDbText
 10
183.2730988598
 20
288.4732039062
 30
0.0
 40
2.23125
  1
4
 41
1.5479225906
  7
Arial
 72
         1
 11
185.0
 21
288.4732039062
 31
0.0
100
AcDbText
  0
TEXT
  5
16C
100
AcDbEntity
  8
035_NB_TEXT
390
0
100
AcDbText
 10
233.2730997489
 20
288.4732039062
 30
0.0
 40
2.23125
  1
5
 41
1.5479217937
  7
Arial
 72
         1
 11
235.0
 21
288.4732039062
 31
0.0
100
AcDbText
  0
TEXT
  5
16D
100
AcDbEntity
  8
035_NB_TEXT
390
0
100
AcDbText
 10
283.2730988598
 20
288.4732039062
 30
0.0
 40
2.23125
  1
6
 41
1.5479225906
  7
Arial
 72
         1
 11
285.0
 21
288.4732039062
 31
0.0
100
AcDbText
  0
TEXT
  5
16E
100
AcDbEntity
  8
035_NB_TEXT
390
0
100
AcDbText
 10
333.2730995266
 20
288.4732039062
 30
0.0
 40
2.23125
  1
7
 41
1.5479219929
  7
Arial
 72
         1
 11
335.0
 21
288.4732039062
 31
0.0
100
AcDbText
  0
TEXT
  5
16F
100
AcDbEntity
  8
035_NB_TEXT
390
0
100
AcDbText
 10
383.2730990821
 20
288.4732039062
 30
0.0
 40
2.23125
  1
8
 41
1.5479223914
  7
Arial
 72
         1
 11
385.0
 21
288.4732039062
 31
0.0
100
AcDbText
  0
TEXT
  5
170
100
AcDbEntity
  8
035_NB_TEXT
390
0
100
AcDbText
 10
5.773027185
 20
265.3898705729
 30
0.0
 40
2.23125
  1
A
 41
1.547986837
  7
Arial
 72
         1
 11
7.5
 21
265.3898705729
 31
0.0
100
AcDbText
  0
TEXT
  5
171
100
AcDbEntity
  8
035_NB_TEXT
390
0
100
AcDbText
 10
5.7730267401
 20
219.2232039062
 30
0.0
 40
2.23125
  1
B
 41
1.5479872357
  7
Arial
 72
         1
 11
7.5
 21
219.2232039062
 31
0.0
100
AcDbText
  0
TEXT
  5
172
100
AcDbEntity
  8
035_NB_TEXT
390
0
100
AcDbText
 10
5.7728972752
 20
173.0565372396
 30
0.0
 40
2.23125
  1
C
 41
1.5481032827
  7
Arial
 72
         1
 11
7.5
 21
173.0565372396
 31
0.0
100
AcDbText
  0
TEXT
  5
173
100
AcDbEntity
  8
035_NB_TEXT
390
0
100
AcDbText
 10
5.7728964192
 20
126.8898705729
 30
0.0
 40
2.23125
  1
D
 41
1.54810405
  7
Arial
 72
         1
 11
7.5
 21
126.8898705729
 31
0.0
100
AcDbText
  0
TEXT
  5
174
100
AcDbEntity
  8
035_NB_TEXT
390
0
100
AcDbText
 10
5.7730269255
 20
80.7232039062
 30
0.0
 40
2.23125
  1
E
 41
1.5479870696
  7
Arial
 72
         1
 11
7.5
 21
80.7232039062
 31
0.0
100
AcDbText
  0
TEXT
  5
175
100
AcDbEntity
  8
035_NB_TEXT
390
0
100
AcDbText
 10
5.773269977
 20
34.5565372396
 30
0.0
 40
2.23125
  1
F
 41
1.5477692083
  7
Arial
 72
         1
 11
7.5
 21
34.5565372396
 31
0.0
100
AcDbText
  0
LINE
  5
176
100
AcDbEntity
  8
018_NB
390
0
100
AcDbLine
 10
415.0
 20
5.0
 30
0.0
 11
415.0
 21
292.0
 31
0.0
  0
LINE
  5
177
100
AcDbEntity
  8
018_NB
390
0
100
AcDbLine
 10
415.0
 20
292.0
 30
0.0
 11
5.0
 21
292.0
 31
0.0
  0
LINE
  5
178
100
AcDbEntity
  8
018_NB
390
0
100
AcDbLine
 10
5.0
 20
292.0
 30
0.0
 11
5.0
 21
5.0
 31
0.0
  0
LINE
  5
179
100
AcDbEntity
  8
018_NB
390
0
100
AcDbLine
 10
5.0
 20
5.0
 30
0.0
 11
415.0
 21
5.0
 31
0.0
  0
LINE
  5
17A
100
AcDbEntity
  8
070_NB
390
0
100
AcDbLine
 10
410.0
 20
10.0
 30
0.0
 11
410.0
 21
287.0
 31
0.0
  0
LINE
  5
17B
100
AcDbEntity
  8
070_NB
390
0
100
AcDbLine
 10
410.0
 20
287.0
 30
0.0
 11
10.0
 21
287.0
 31
0.0
  0
LINE
  5
17C
100
AcDbEntity
  8
070_NB
390
0
100
AcDbLine
 10
10.0
 20
287.0
 30
0.0
 11
10.0
 21
10.0
 31
0.0
  0
LINE
  5
17D
100
AcDbEntity
  8
070_NB
390
0
100
AcDbLine
 10
10.0
 20
10.0
 30
0.0
 11
410.0
 21
10.0
 31
0.0
  0
TEXT
  5
17E
100
AcDbEntity
  8
035_NB_TEXT
390
0
100
AcDbText
 10
83.2730999712
 20
6.4732039063
 30
0.0
 40
2.23125
  1
2
 41
1.5479215945
  7
Arial
 72
         1
 11
85.0
 21
6.4732039063
 31
0.0
100
AcDbText
  0
TEXT
  5
17F
100
AcDbEntity
  8
035_NB_TEXT
390
0
100
AcDbText
 10
133.2730986376
 20
6.4732039063
 30
0.0
 40
2.23125
  1
3
 41
1.5479227899
  7
Arial
 72
         1
 11
135.0
 21
6.4732039063
 31
0.0
100
AcDbText
  0
TEXT
  5
180
100
AcDbEntity
  8
035_NB_TEXT
390
0
100
AcDbText
 10
33.7048241449
 20
6.4732039063
 30
0.0
 40
2.23125
  1
1
 41
1.5479225906
  7
Arial
 72
         1
 11
35.0
 21
6.4732039063
 31
0.0
100
AcDbText
  0
TEXT
  5
181
100
AcDbEntity
  8
035_NB_TEXT
390
0
100
AcDbText
 10
183.2730988598
 20
6.4732039063
 30
0.0
 40
2.23125
  1
4
 41
1.5479225906
  7
Arial
 72
         1
 11
185.0
 21
6.4732039063
 31
0.0
100
AcDbText
  0
TEXT
  5
182
100
AcDbEntity
  8
035_NB_TEXT
390
0
100
AcDbText
 10
233.2730997489
 20
6.4732039063
 30
0.0
 40
2.23125
  1
5
 41
1.5479217937
  7
Arial
 72
         1
 11
235.0
 21
6.4732039063
 31
0.0
100
AcDbText
  0
TEXT
  5
183
100
AcDbEntity
  8
035_NB_TEXT
390
0
100
AcDbText
 10
283.2730988598
 20
6.4732039063
 30
0.0
 40
2.23125
  1
6
 41
1.5479225906
  7
Arial
 72
         1
 11
285.0
 21
6.4732039063
 31
0.0
100
AcDbText
  0
TEXT
  5
184
100
AcDbEntity
  8
035_NB_TEXT
390
0
100
AcDbText
 10
333.2730995266
 20
6.4732039063
 30
0.0
 40
2.23125
  1
7
 41
1.5479219929
  7
Arial
 72
         1
 11
335.0
 21
6.4732039063
 31
0.0
100
AcDbText
  0
TEXT
  5
185
100
AcDbEntity
  8
035_NB_TEXT
390
0
100
AcDbText
 10
383.2730990821
 20
6.4732039063
 30
0.0
 40
2.23125
  1
8
 41
1.5479223914
  7
Arial
 72
         1
 11
385.0
 21
6.4732039063
 31
0.0
100
AcDbText
  0
TEXT
  5
186
100
AcDbEntity
  8
035_NB_TEXT
390
0
100
AcDbText
 10
410.773027185
 20
265.3898705729
 30
0.0
 40
2.23125
  1
A
 41
1.547986837
  7
Arial
 72
         1
 11
412.5
 21
265.3898705729
 31
0.0
100
AcDbText
  0
TEXT
  5
187
100
AcDbEntity
  8
035_NB_TEXT
390
0
100
AcDbText
 10
410.7730267401
 20
219.2232039062
 30
0.0
 40
2.23125
  1
B
 41
1.5479872357
  7
Arial
 72
         1
 11
412.5
 21
219.2232039062
 31
0.0
100
AcDbText
  0
TEXT
  5
188
100
AcDbEntity
  8
035_NB_TEXT
390
0
100
AcDbText
 10
410.7728972752
 20
173.0565372396
 30
0.0
 40
2.23125
  1
C
 41
1.5481032827
  7
Arial
 72
         1
 11
412.5
 21
173.0565372396
 31
0.0
100
AcDbText
  0
TEXT
  5
189
100
AcDbEntity
  8
035_NB_TEXT
390
0
100
AcDbText
 10
410.7728964192
 20
126.8898705729
 30
0.0
 40
2.23125
  1
D
 41
1.54810405
  7
Arial
 72
         1
 11
412.5
 21
126.8898705729
 31
0.0
100
AcDbText
  0
TEXT
  5
18A
100
AcDbEntity
  8
035_NB_TEXT
390
0
100
AcDbText
 10
410.7730269255
 20
80.7232039062
 30
0.0
 40
2.23125
  1
E
 41
1.5479870696
  7
Arial
 72
         1
 11
412.5
 21
80.7232039062
 31
0.0
100
AcDbText
  0
TEXT
  5
18B
100
AcDbEntity
  8
035_NB_TEXT
390
0
100
AcDbText
 10
410.773269977
 20
34.5565372396
 30
0.0
 40
2.23125
  1
F
 41
1.5477692083
  7
Arial
 72
         1
 11
412.5
 21
34.5565372396
 31
0.0
100
AcDbText
  0
LINE
  5
18C
100
AcDbEntity
  8
035_NB
390
0
100
AcDbLine
 10
1.0
 20
296.0
 30
0.0
 11
1.0
 21
1.0
 31
0.0
  0
LINE
  5
18D
100
AcDbEntity
  8
035_NB
390
0
100
AcDbLine
 10
419.0
 20
296.0
 30
0.0
 11
1.0
 21
296.0
 31
0.0
  0
LINE
  5
18E
100
AcDbEntity
  8
035_NB
390
0
100
AcDbLine
 10
1.0
 20
1.0
 30
0.0
 11
419.0
 21
1.0
 31
0.0
  0
LINE
  5
18F
100
AcDbEntity
  8
035_NB
390
0
100
AcDbLine
 10
419.0
 20
1.0
 30
0.0
 11
419.0
 21
296.0
 31
0.0
  0
LINE
  5
190
100
AcDbEntity
  8
018_NB
390
0
100
AcDbLine
 10
230.0
 20
1.0
 30
0.0
 11
230.0
 21
5.0
 31
0.0
  0
LINE
  5
191
100
AcDbEntity
  8
018_NB
390
0
100
AcDbLine
 10
125.0
 20
1.0
 30
0.0
 11
125.0
 21
5.0
 31
0.0
  0
MTEXT
  5
192
100
AcDbEntity
  8
BESCHRIFTUNG
390
0
100
AcDbMText
 10
299.5063580481
 20
20.6243886492
 30
0.0
 40
2.5
 41
0.0
 71
         5
 72
         1
  1
\W1.005358;Stoschek Türbandsysteme\PNevigeserstraße  247 - 249\P42553 Velbert
  7
Arial
 73
         1
 44
0.84
  0
ENDBLK
  5
193
100
AcDbEntity
  8
0
390
0
100
AcDbBlockEnd
  0
ENDSEC
  0
SECTION
  2
ENTITIES
  0
LINE
  5
A0
100
AcDbEntity
  8
MITTELLINIEN
390
0
100
AcDbLine
 10
136.2516891892
 20
263.8817567568
 30
0.0
 11
136.2516891892
 21
99.8817567568
 31
0.0
  0
LINE
  5
A1
100
AcDbEntity
  8
GEOMETRIE
390
0
100
AcDbLine
 10
146.2516891892
 20
261.8817567568
 30
0.0
 11
214.2516891892
 21
261.8817567568
 31
0.0
  0
LINE
  5
A2
100
AcDbEntity
  8
GEOMETRIE
390
0
100
AcDbLine
 10
226.2516891892
 20
249.8817567568
 30
0.0
 11
226.2516891892
 21
113.8817567565
 31
0.0
  0
LINE
  5
A3
100
AcDbEntity
  8
GEOMETRIE
390
0
100
AcDbLine
 10
214.2516891892
 20
101.8817567565
 30
0.0
 11
146.2516891892
 21
101.8817567565
 31
0.0
  0
ARC
  5
A4
100
AcDbEntity
  8
GEOMETRIE
390
0
100
AcDbCircle
 10
214.2516891892
 20
249.8817567568
 30
0.0
 40
12.0
100
AcDbArc
 50
0.0
 51
90.0
  0
ARC
  5
A5
100
AcDbEntity
  8
GEOMETRIE
390
0
100
AcDbCircle
 10
214.2516891892
 20
113.8817567565
 30
0.0
 40
12.0
100
AcDbArc
 50
270.0
 51
360.0
  0
LINE
  5
A6
100
AcDbEntity
  8
GEOMETRIE
390
0
100
AcDbLine
 10
146.2516891892
 20
261.8817567568
 30
0.0
 11
126.2516891892
 21
261.8817567568
 31
0.0
  0
LINE
  5
A7
100
AcDbEntity
  8
GEOMETRIE
390
0
100
AcDbLine
 10
126.2516891892
 20
261.8817567568
 30
0.0
 11
126.2516891892
 21
221.8817567565
 31
0.0
  0
LINE
  5
A8
100
AcDbEntity
  8
GEOMETRIE
390
0
100
AcDbLine
 10
126.2516891892
 20
221.8817567565
 30
0.0
 11
146.2516891892
 21
221.8817567565
 31
0.0
  0
LINE
  5
A9
100
AcDbEntity
  8
GEOMETRIE
390
0
100
AcDbLine
 10
146.2516891892
 20
221.8817567565
 30
0.0
 11
146.2516891892
 21
261.8817567568
 31
0.0
  0
LINE
  5
AA
100
AcDbEntity
  8
GEOMETRIE
390
0
100
AcDbLine
 10
146.2516891892
 20
101.8817567565
 30
0.0
 11
126.2516891892
 21
101.8817567565
 31
0.0
  0
LINE
  5
AB
100
AcDbEntity
  8
GEOMETRIE
390
0
100
AcDbLine
 10
126.2516891892
 20
101.8817567565
 30
0.0
 11
126.2516891892
 21
141.8817567565
 31
0.0
  0
LINE
  5
AC
100
AcDbEntity
  8
GEOMETRIE
390
0
100
AcDbLine
 10
126.2516891892
 20
141.8817567565
 30
0.0
 11
146.2516891892
 21
141.8817567565
 31
0.0
  0
LINE
  5
AD
100
AcDbEntity
  8
GEOMETRIE
390
0
100
AcDbLine
 10
146.2516891892
 20
141.8817567565
 30
0.0
 11
146.2516891892
 21
101.8817567565
 31
0.0
  0
LINE
  5
AE
100
AcDbEntity
  8
GEOMETRIE
390
0
100
AcDbLine
 10
126.2516891892
 20
142.8817567565
 30
0.0
 11
146.2516891892
 21
142.8817567565
 31
0.0
  0
LINE
  5
AF
100
AcDbEntity
  8
GEOMETRIE
390
0
100
AcDbLine
 10
146.2516891892
 20
142.8817567565
 30
0.0
 11
146.2516891892
 21
220.8817567565
 31
0.0
  0
LINE
  5
B0
100
AcDbEntity
  8
GEOMETRIE
390
0
100
AcDbLine
 10
146.2516891892
 20
220.8817567565
 30
0.0
 11
126.2516891892
 21
220.8817567565
 31
0.0
  0
LINE
  5
B1
100
AcDbEntity
  8
GEOMETRIE
390
0
100
AcDbLine
 10
126.2516891892
 20
220.8817567565
 30
0.0
 11
126.2516891892
 21
142.8817567565
 31
0.0
  0
LINE
  5
B2
100
AcDbEntity
  8
GEOMETRIE
390
0
100
AcDbLine
 10
146.2516891892
 20
221.8817567565
 30
0.0
 11
148.2516891892
 21
221.8817567565
 31
0.0
  0
LINE
  5
B3
100
AcDbEntity
  8
GEOMETRIE
390
0
100
AcDbLine
 10
149.2516891892
 20
220.8817567565
 30
0.0
 11
149.2516891892
 21
142.8817567565
 31
0.0
  0
LINE
  5
B4
100
AcDbEntity
  8
GEOMETRIE
390
0
100
AcDbLine
 10
148.2516891892
 20
141.8817567565
 30
0.0
 11
146.2516891892
 21
141.8817567565
 31
0.0
  0
ARC
  5
B5
100
AcDbEntity
  8
GEOMETRIE
390
0
100
AcDbCircle
 10
148.2516891892
 20
220.8817567565
 30
0.0
 40
1.0
100
AcDbArc
 50
0.0
 51
90.0
  0
ARC
  5
B6
100
AcDbEntity
  8
GEOMETRIE
390
0
100
AcDbCircle
 10
148.2516891892
 20
142.8817567565
 30
0.0
 40
1.0
100
AcDbArc
 50
270.0
 51
360.0
  0
LINE
  5
B7
100
AcDbEntity
  8
GEOMETRIE
390
0
100
AcDbLine
 10
126.2516891892
 20
220.8817567565
 30
0.0
 11
124.2516891892
 21
220.8817567565
 31
0.0
  0
LINE
  5
B8
100
AcDbEntity
  8
GEOMETRIE
390
0
100
AcDbLine
 10
123.2516891892
 20
221.8817567565
 30
0.0
 11
123.2516891892
 21
260.8817567568
 31
0.0
  0
LINE
  5
B9
100
AcDbEntity
  8
GEOMETRIE
390
0
100
AcDbLine
 10
122.2516891892
 20
261.8817567568
 30
0.0
 11
58.2516891892
 21
261.8817567568
 31
0.0
  0
LINE
  5
BA
100
AcDbEntity
  8
GEOMETRIE
390
0
100
AcDbLine
 10
46.2516891892
 20
249.8817567568
 30
0.0
 11
46.2516891892
 21
113.8817567565
 31
0.0
  0
LINE
  5
BB
100
AcDbEntity
  8
GEOMETRIE
390
0
100
AcDbLine
 10
58.2516891892
 20
101.8817567565
 30
0.0
 11
122.2516891892
 21
101.8817567565
 31
0.0
  0
LINE
  5
BC
100
AcDbEntity
  8
GEOMETRIE
390
0
100
AcDbLine
 10
123.2516891892
 20
102.8817567565
 30
0.0
 11
123.2516891892
 21
141.8817567565
 31
0.0
  0
LINE
  5
BD
100
AcDbEntity
  8
GEOMETRIE
390
0
100
AcDbLine
 10
124.2516891892
 20
142.8817567565
 30
0.0
 11
126.2516891892
 21
142.8817567565
 31
0.0
  0
ARC
  5
BE
100
AcDbEntity
  8
GEOMETRIE
390
0
100
AcDbCircle
 10
58.2516891892
 20
113.8817567565
 30
0.0
 40
12.0
100
AcDbArc
 50
180.0
 51
270.0
  0
ARC
  5
BF
100
AcDbEntity
  8
GEOMETRIE
390
0
100
AcDbCircle
 10
58.2516891892
 20
249.8817567568
 30
0.0
 40
12.0
100
AcDbArc
 50
90.0
 51
180.0
  0
ARC
  5
C0
100
AcDbEntity
  8
GEOMETRIE
390
0
100
AcDbCircle
 10
122.2516891892
 20
260.8817567568
 30
0.0
 40
1.0
100
AcDbArc
 50
0.0
 51
90.0
  0
ARC
  5
C1
100
AcDbEntity
  8
GEOMETRIE
390
0
100
AcDbCircle
 10
124.2516891892
 20
221.8817567565
 30
0.0
 40
1.0
100
AcDbArc
 50
180.0
 51
270.0
  0
ARC
  5
C2
100
AcDbEntity
  8
GEOMETRIE
390
0
100
AcDbCircle
 10
124.2516891892
 20
141.8817567565
 30
0.0
 40
1.0
100
AcDbArc
 50
90.0
 51
180.0
  0
ARC
  5
C3
100
AcDbEntity
  8
GEOMETRIE
390
0
100
AcDbCircle
 10
122.2516891892
 20
102.8817567565
 30
0.0
 40
1.0
100
AcDbArc
 50
270.0
 51
360.0
  0
LINE
  5
C4
100
AcDbEntity
  8
GEOMETRIE
390
0
100
AcDbLine
 10
127.2516891892
 20
221.8817567565
 30
0.0
 11
127.2516891892
 21
220.8817567565
 31
0.0
  0
LINE
  5
C5
100
AcDbEntity
  8
GEOMETRIE
390
0
100
AcDbLine
 10
145.2516891892
 20
221.8817567565
 30
0.0
 11
145.2516891892
 21
220.8817567565
 31
0.0
  0
LINE
  5
C6
100
AcDbEntity
  8
GEOMETRIE
390
0
100
AcDbLine
 10
127.2516891892
 20
142.8817567565
 30
0.0
 11
127.2516891892
 21
141.8817567565
 31
0.0
  0
LINE
  5
C7
100
AcDbEntity
  8
GEOMETRIE
390
0
100
AcDbLine
 10
145.2516891892
 20
142.8817567565
 30
0.0
 11
145.2516891892
 21
141.8817567565
 31
0.0
  0
CIRCLE
  5
C8
100
AcDbEntity
  8
GEOMETRIE
390
0
100
AcDbCircle
 10
136.2516891892
 20
71.8817567565
 30
0.0
 40
10.0
  0
CIRCLE
  5
C9
100
AcDbEntity
  8
GEOMETRIE
390
0
100
AcDbCircle
 10
136.2516891892
 20
71.8817567565
 30
0.0
 40
9.0
  0
CIRCLE
  5
CA
100
AcDbEntity
  8
GEOMETRIE
390
0
  6
DASHED
100
AcDbCircle
 10
136.2516891892
 20
71.8817567565
 30
0.0
 40
7.0
  0
LINE
  5
CB
100
AcDbEntity
  8
MITTELLINIEN
390
0
100
AcDbLine
 10
124.2516891892
 20
71.8817567565
 30
0.0
 11
148.2516891892
 21
71.8817567565
 31
0.0
  0
LINE
  5
CC
100
AcDbEntity
  8
MITTELLINIEN
390
0
100
AcDbLine
 10
136.2516891892
 20
59.8817567565
 30
0.0
 11
136.2516891892
 21
83.8817567565
 31
0.0
  0
LINE
  5
CD
100
AcDbEntity
  8
GEOMETRIE
390
0
100
AcDbLine
 10
124.3046442835
 20
76.3817567565
 30
0.0
 11
46.2516891891
 21
76.3817567565
 31
0.0
  0
LINE
  5
CE
100
AcDbEntity
  8
GEOMETRIE
390
0
100
AcDbLine
 10
46.2516891891
 20
76.3817567565
 30
0.0
 11
46.2516891891
 21
73.3817567565
 31
0.0
  0
LINE
  5
CF
100
AcDbEntity
  8
GEOMETRIE
390
0
100
AcDbLine
 10
46.2516891891
 20
73.3817567565
 30
0.0
 11
124.4105752962
 21
73.3817567565
 31
0.0
  0
LINE
  5
D0
100
AcDbEntity
  8
GEOMETRIE
390
0
100
AcDbLine
 10
124.4105752961
 20
70.3817567565
 30
0.0
 11
46.2516891891
 21
70.3817567565
 31
0.0
  0
LINE
  5
D1
100
AcDbEntity
  8
GEOMETRIE
390
0
100
AcDbLine
 10
46.2516891891
 20
70.3817567565
 30
0.0
 11
46.2516891891
 21
67.3817567565
 31
0.0
  0
LINE
  5
D2
100
AcDbEntity
  8
GEOMETRIE
390
0
100
AcDbLine
 10
46.2516891891
 20
67.3817567565
 30
0.0
 11
124.3046442835
 21
67.3817567565
 31
0.0
  0
LINE
  5
D3
100
AcDbEntity
  8
GEOMETRIE
390
0
100
AcDbLine
 10
130.5102218124
 20
80.0692809464
 30
0.0
 11
126.0270844965
 21
76.9254994995
 31
0.0
  0
LINE
  5
D4
100
AcDbEntity
  8
GEOMETRIE
390
0
100
AcDbLine
 10
130.5102218124
 20
63.6942325665
 30
0.0
 11
126.0270844965
 21
66.8380140134
 31
0.0
  0
LINE
  5
D5
100
AcDbEntity
  8
GEOMETRIE
390
0
100
AcDbLine
 10
126.5120505993
 20
69.6147234224
 30
0.0
 11
125.970203711
 21
69.9444817139
 31
0.0
  0
LINE
  5
D6
100
AcDbEntity
  8
GEOMETRIE
390
0
100
AcDbLine
 10
126.5120505992
 20
74.1487900904
 30
0.0
 11
125.9702037111
 21
73.819031799
 31
0.0
  0
ARC
  5
D7
100
AcDbEntity
  8
GEOMETRIE
390
0
100
AcDbCircle
 10
124.3046442835
 20
64.3817567565
 30
0.0
 40
3.0
100
AcDbArc
 50
54.9601004105
 51
90.0
  0
ARC
  5
D8
100
AcDbEntity
  8
GEOMETRIE
390
0
100
AcDbCircle
 10
124.4105752961
 20
67.3817567565
 30
0.0
 40
3.0
100
AcDbArc
 50
58.6760565334
 51
90.0
  0
ARC
  5
D9
100
AcDbEntity
  8
GEOMETRIE
390
0
100
AcDbCircle
 10
124.4105752962
 20
76.3817567565
 30
0.0
 40
3.0
100
AcDbArc
 50
270.0
 51
301.3239434669
  0
ARC
  5
DA
100
AcDbEntity
  8
GEOMETRIE
390
0
100
AcDbCircle
 10
124.3046442835
 20
79.3817567565
 30
0.0
 40
3.0
100
AcDbArc
 50
270.0
 51
305.0398995895
  0
LINE
  5
DB
100
AcDbEntity
  8
GEOMETRIE
390
0
  6
DASHED
100
AcDbLine
 10
123.2516891892
 20
76.3817567565
 30
0.0
 11
123.2516891892
 21
73.3817567565
 31
0.0
  0
LINE
  5
DC
100
AcDbEntity
  8
GEOMETRIE
390
0
  6
DASHED
100
AcDbLine
 10
123.2516891892
 20
70.3817567565
 30
0.0
 11
123.2516891892
 21
67.3817567565
 31
0.0
  0
INSERT
  5
DD
100
AcDbEntity
  8
BEMASSUNG
390
0
100
AcDbBlockReference
  2
D594164224
 10
0.0
 20
0.0
 30
0.0
  0
INSERT
  5
DE
100
AcDbEntity
  8
BEMASSUNG
390
0
100
AcDbBlockReference
  2
D490817792
 10
0.0
 20
0.0
 30
0.0
  0
INSERT
  5
DF
100
AcDbEntity
  8
BEMASSUNG
390
0
100
AcDbBlockReference
  2
D492398656
 10
0.0
 20
0.0
 30
0.0
  0
INSERT
  5
E0
100
AcDbEntity
  8
BEMASSUNG
390
0
100
AcDbBlockReference
  2
D594153984
 10
0.0
 20
0.0
 30
0.0
  0
INSERT
  5
E1
100
AcDbEntity
  8
BEMASSUNG
390
0
100
AcDbBlockReference
  2
D490813696
 10
0.0
 20
0.0
 30
0.0
  0
INSERT
  5
E2
100
AcDbEntity
  8
BEMASSUNG
390
0
100
AcDbBlockReference
  2
D492490240
 10
0.0
 20
0.0
 30
0.0
  0
INSERT
  5
E3
100
AcDbEntity
  8
BEMASSUNG
390
0
100
AcDbBlockReference
  2
D490819328
 10
0.0
 20
0.0
 30
0.0
  0
INSERT
  5
E4
100
AcDbEntity
  8
BEMASSUNG
390
0
100
AcDbBlockReference
  2
D543849504
 10
0.0
 20
0.0
 30
0.0
  0
TEXT
  5
E5
100
AcDbEntity
  8
BESCHRIFTUNG
390
0
100
AcDbText
 10
241.9961658155
 20
54.4925959437
 30
0.0
 40
3.0
  1
010720
 41
1.1351448873
  7
Arial
100
AcDbText
  0
TEXT
  5
E6
100
AcDbEntity
  8
BESCHRIFTUNG
390
0
100
AcDbText
 10
354.067013893
 20
19.333114194
 30
0.0
 40
3.0
  1
010720
 41
1.1351448873
  7
Arial
100
AcDbText
  0
TEXT
  5
E7
100
AcDbEntity
  8
BESCHRIFTUNG
390
0
100
AcDbText
 10
351.0599529538
 20
60.7380302019
 30
0.0
 40
3.0
  1
1:1
 41
1.1351302147
  7
Arial
100
AcDbText
  0
TEXT
  5
E8
100
AcDbEntity
  8
BESCHRIFTUNG
390
0
100
AcDbText
 10
372.5720042876
 20
52.7577530942
 30
0.0
 40
3.0
  1
1.4301
 41
1.1351384178
  7
Arial
100
AcDbText
  0
TEXT
  5
E9
100
AcDbEntity
  8
BESCHRIFTUNG
390
0
100
AcDbText
 10
349.3251101043
 20
40.7295093377
 30
0.0
 40
3.0
  1
STN 16146 - 80
 41
1.135084651
  7
Arial
100
AcDbText
  0
TEXT
  5
EA
100
AcDbEntity
  8
BESCHRIFTUNG
390
0
100
AcDbText
 10
355.2235757926
 20
33.7901379398
 30
0.0
 40
3.0
  1
ungelocht
 41
1.1351054373
  7
Arial
100
AcDbText
  0
TEXT
  5
EB
100
AcDbEntity
  8
BESCHRIFTUNG
390
0
100
AcDbText
 10
288.605610372
 20
41.0764779076
 30
0.0
 40
2.0
  1
07.07.20 
 41
1.1351297081
  7
Arial
100
AcDbText
  0
INSERT
  5
194
100
AcDbEntity
  8
GEOMETRIE
390
0
100
AcDbBlockReference
 66
         1
  2
DIN_A3
 10
0.0
 20
0.0
 30
0.0
  0
ATTRIB
  5
195
100
AcDbEntity
  8
050_NB_TEXT
390
0
100
AcDbText
 10
365.8025432192
 20
36.2814366553
 30
0.0
 40
3.1875
  1

  7
Arial
 72
         1
 11
365.8025432192
 21
39.4689366553
 31
0.0
100
AcDbAttribute
  2
Benennung
 70
         0
 74
         3
  0
ATTRIB
  5
196
100
AcDbEntity
  8
050_NB_TEXT
390
0
100
AcDbText
 10
359.302917222
 20
16.7829038972
 30
0.0
 40
3.1875
  1

  7
Arial
 72
         1
 11
359.302917222
 21
16.7829038972
 31
0.0
100
AcDbAttribute
  2
Zeichnungsnummer
 70
         0
  0
ATTRIB
  5
197
100
AcDbEntity
  8
025_NB_TEXT
390
0
100
AcDbText
 10
338.2241281207
 20
60.3887620052
 30
0.0
 40
1.59375
  1

  7
Arial
100
AcDbAttribute
  2
Maßstab
 70
         0
  0
ATTRIB
  5
198
100
AcDbEntity
  8
025_NB_TEXT
390
0
100
AcDbText
 10
389.9028197193
 20
60.3887620052
 30
0.0
 40
1.59375
  1

  7
Arial
100
AcDbAttribute
  2
Gewicht
 70
         0
  0
ATTRIB
  5
199
100
AcDbEntity
  8
025_NB_TEXT
390
0
100
AcDbText
 10
359.3165781074
 20
52.8977510438
 30
0.0
 40
1.59375
  1

  7
Arial
100
AcDbAttribute
  2
Werkstoff
 70
         0
  0
ATTRIB
  5
19A
100
AcDbEntity
  8
025_NB_TEXT
390
0
100
AcDbText
 10
405.2714342688
 20
20.0160851381
 30
0.0
 40
1.59375
  1

  7
Arial
 72
         2
 11
405.2714342688
 21
20.0160851381
 31
0.0
100
AcDbAttribute
  2
Blatt
 70
         0
  0
ATTRIB
  5
19B
100
AcDbEntity
  8
025_NB_TEXT
390
0
100
AcDbText
 10
405.2714342688
 20
15.7663296784
 30
0.0
 40
1.59375
  1

  7
Arial
 72
         2
 11
405.2714342688
 21
15.7663296784
 31
0.0
100
AcDbAttribute
  2
Bl.
 70
         0
  0
ATTRIB
  5
19C
100
AcDbEntity
  8
025_NB_TEXT
390
0
100
AcDbText
 10
333.5777227339
 20
11.520569157
 30
0.0
 40
1.59375
  1

  7
Arial
100
AcDbAttribute
  2
Ersatz für
 70
         0
  0
ATTRIB
  5
19D
100
AcDbEntity
  8
025_NB_TEXT
390
0
100
AcDbText
 10
387.4128856935
 20
11.5165742187
 30
0.0
 40
1.59375
  1

  7
Arial
100
AcDbAttribute
  2
Ersetzt durch
 70
         0
  0
ATTRIB
  5
19E
100
AcDbEntity
  8
025_NB_TEXT
390
0
100
AcDbText
 10
290.406881652
 20
55.6831320224
 30
0.0
 40
1.59375
  1

  7
Arial
 72
         1
 11
290.406881652
 21
55.6831320224
 31
0.0
100
AcDbAttribute
  2
Zul. Abweichung
 70
         0
  0
ATTRIB
  5
19F
100
AcDbEntity
  8
025_NB_TEXT
390
0
100
AcDbText
 10
312.5056100424
 20
55.6831320224
 30
0.0
 40
1.59375
  1

  7
Arial
 72
         1
 11
312.5056100424
 21
55.6831320224
 31
0.0
100
AcDbAttribute
  2
Oberfläche
 70
         0
  0
ATTRIB
  5
1A0
100
AcDbEntity
  8
025_NB_TEXT
390
0
100
AcDbText
 10
288.3070312531
 20
41.2648624366
 30
0.0
 40
1.59375
  1

  7
Arial
100
AcDbAttribute
  2
Bearb. Datum
 70
         0
  0
ATTRIB
  5
1A1
100
AcDbEntity
  8
025_NB_TEXT
390
0
100
AcDbText
 10
303.9061336464
 20
41.2648624366
 30
0.0
 40
1.59375
  1
Stoschek
 41
1.5259740654
  7
Arial
100
AcDbAttribute
  2
Bearb. Name
 70
         0
  0
ATTRIB
  5
1A2
100
AcDbEntity
  8
025_NB_TEXT
390
0
100
AcDbText
 10
288.3333988082
 20
37.0460536257
 30
0.0
 40
1.59375
  1

  7
Arial
100
AcDbAttribute
  2
Gepr. Datum
 70
         0
  0
ATTRIB
  5
1A3
100
AcDbEntity
  8
025_NB_TEXT
390
0
100
AcDbText
 10
303.9061336464
 20
36.9876607905
 30
0.0
 40
1.59375
  1

  7
Arial
100
AcDbAttribute
  2
Gepr. Name
 70
         0
  0
ATTRIB
  5
1A4
100
AcDbEntity
  8
025_NB_TEXT
390
0
100
AcDbText
 10
288.3333988082
 20
32.90634748
 30
0.0
 40
1.59375
  1

  7
Arial
100
AcDbAttribute
  2
Norm Datum
 70
         0
  0
ATTRIB
  5
1A5
100
AcDbEntity
  8
025_NB_TEXT
390
0
100
AcDbText
 10
303.9061336464
 20
32.8815472102
 30
0.0
 40
1.59375
  1

  7
Arial
100
AcDbAttribute
  2
Norm Name
 70
         0
  0
ATTRIB
  5
1A6
100
AcDbEntity
  8
025_NB_TEXT
390
0
100
AcDbText
 10
289.2439051502
 20
11.520569157
 30
0.0
 40
1.59375
  1

  7
Arial
100
AcDbAttribute
  2
Urspr.
 70
         0
  0
ATTRIB
  5
1A7
100
AcDbEntity
  8
025_NB_TEXT
390
0
100
AcDbText
 10
250.0592004695
 20
55.7864468661
 30
0.0
 40
1.9125
  1

  7
Arial
 72
         1
 11
250.0592004695
 21
55.7864468661
 31
0.0
100
AcDbAttribute
  2
Verwendungsbereich
 70
         0
  0
ATTRIB
  5
1A8
100
AcDbEntity
  8
025_NB_TEXT
390
0
100
AcDbText
 10
223.2107712814
 20
15.7663296784
 30
0.0
 40
1.59375
  1

  7
Arial
100
AcDbAttribute
  2
Zust.
 70
         0
  0
ATTRIB
  5
1A9
100
AcDbEntity
  8
025_NB_TEXT
390
0
100
AcDbText
 10
231.110322478
 20
15.7663296784
 30
0.0
 40
1.59375
  1

  7
Arial
100
AcDbAttribute
  2
Änderung
 70
         0
  0
ATTRIB
  5
1AA
100
AcDbEntity
  8
025_NB_TEXT
390
0
100
AcDbText
 10
257.1088264667
 20
15.7663296784
 30
0.0
 40
1.59375
  1

  7
Arial
100
AcDbAttribute
  2
Änderung Datum
 70
         0
  0
ATTRIB
  5
1AB
100
AcDbEntity
  8
025_NB_TEXT
390
0
100
AcDbText
 10
270.1080784611
 20
15.7663296784
 30
0.0
 40
1.59375
  1

  7
Arial
100
AcDbAttribute
  2
Änderung Name
 70
         0
  0
ATTRIB
  5
1AC
100
AcDbEntity
  8
STANDARD
390
0
100
AcDbText
 10
223.2107712814
 20
20.0160851381
 30
0.0
 40
1.59375
  1

  7
Arial
100
AcDbAttribute
  2
Zust.1
 70
         0
  0
ATTRIB
  5
1AD
100
AcDbEntity
  8
STANDARD
390
0
100
AcDbText
 10
231.110322478
 20
20.0160851381
 30
0.0
 40
1.59375
  1

  7
Arial
100
AcDbAttribute
  2
Änderung1
 70
         0
  0
ATTRIB
  5
1AE
100
AcDbEntity
  8
STANDARD
390
0
100
AcDbText
 10
257.1088264667
 20
20.0160851381
 30
0.0
 40
1.59375
  1

  7
Arial
100
AcDbAttribute
  2
Änderung Datum1
 70
         0
  0
ATTRIB
  5
1AF
100
AcDbEntity
  8
STANDARD
390
0
100
AcDbText
 10
270.1080784611
 20
20.0160851381
 30
0.0
 40
1.59375
  1

  7
Arial
100
AcDbAttribute
  2
Änderung Name1
 70
         0
  0
ATTRIB
  5
1B0
100
AcDbEntity
  8
STANDARD
390
0
100
AcDbText
 10
223.2107712814
 20
24.2658405978
 30
0.0
 40
1.59375
  1

  7
Arial
100
AcDbAttribute
  2
Zust.2
 70
         0
  0
ATTRIB
  5
1B1
100
AcDbEntity
  8
STANDARD
390
0
100
AcDbText
 10
231.110322478
 20
24.2658405978
 30
0.0
 40
1.59375
  1

  7
Arial
100
AcDbAttribute
  2
Änderung2
 70
         0
  0
ATTRIB
  5
1B2
100
AcDbEntity
  8
STANDARD
390
0
100
AcDbText
 10
257.1088264667
 20
24.2658405978
 30
0.0
 40
1.59375
  1

  7
Arial
100
AcDbAttribute
  2
Änderung Datum2
 70
         0
  0
ATTRIB
  5
1B3
100
AcDbEntity
  8
STANDARD
390
0
100
AcDbText
 10
270.1080784611
 20
24.2658405978
 30
0.0
 40
1.59375
  1

  7
Arial
100
AcDbAttribute
  2
Änderung Name2
 70
         0
  0
ATTRIB
  5
1B4
100
AcDbEntity
  8
STANDARD
390
0
100
AcDbText
 10
223.2107712814
 20
28.5155960575
 30
0.0
 40
1.59375
  1

  7
Arial
100
AcDbAttribute
  2
Zust.3
 70
         0
  0
ATTRIB
  5
1B5
100
AcDbEntity
  8
STANDARD
390
0
100
AcDbText
 10
231.110322478
 20
28.5155960575
 30
0.0
 40
1.59375
  1

  7
Arial
100
AcDbAttribute
  2
Änderung3
 70
         0
  0
ATTRIB
  5
1B6
100
AcDbEntity
  8
STANDARD
390
0
100
AcDbText
 10
257.1088264667
 20
28.5155960575
 30
0.0
 40
1.59375
  1

  7
Arial
100
AcDbAttribute
  2
Änderung Datum3
 70
         0
  0
ATTRIB
  5
1B7
100
AcDbEntity
  8
STANDARD
390
0
100
AcDbText
 10
270.1080784611
 20
28.5155960575
 30
0.0
 40
1.59375
  1

  7
Arial
100
AcDbAttribute
  2
Änderung Name3
 70
         0
  0
ATTRIB
  5
1B8
100
AcDbEntity
  8
STANDARD
390
0
100
AcDbText
 10
223.2107712814
 20
32.7653515172
 30
0.0
 40
1.59375
  1

  7
Arial
100
AcDbAttribute
  2
Zust.4
 70
         0
  0
ATTRIB
  5
1B9
100
AcDbEntity
  8
STANDARD
390
0
100
AcDbText
 10
231.110322478
 20
32.7653515172
 30
0.0
 40
1.59375
  1

  7
Arial
100
AcDbAttribute
  2
Änderung4
 70
         0
  0
ATTRIB
  5
1BA
100
AcDbEntity
  8
STANDARD
390
0
100
AcDbText
 10
257.1088264667
 20
32.7653515172
 30
0.0
 40
1.59375
  1

  7
Arial
100
AcDbAttribute
  2
Änderung Datum4
 70
         0
  0
ATTRIB
  5
1BB
100
AcDbEntity
  8
STANDARD
390
0
100
AcDbText
 10
270.1080784611
 20
32.7653515172
 30
0.0
 40
1.59375
  1

  7
Arial
100
AcDbAttribute
  2
Änderung Name4
 70
         0
  0
ATTRIB
  5
1BC
100
AcDbEntity
  8
STANDARD
390
0
100
AcDbText
 10
223.2107712814
 20
37.0151069769
 30
0.0
 40
1.59375
  1

  7
Arial
100
AcDbAttribute
  2
Zust.5
 70
         0
  0
ATTRIB
  5
1BD
100
AcDbEntity
  8
STANDARD
390
0
100
AcDbText
 10
231.110322478
 20
37.0151069769
 30
0.0
 40
1.59375
  1

  7
Arial
100
AcDbAttribute
  2
Änderung5
 70
         0
  0
ATTRIB
  5
1BE
100
AcDbEntity
  8
STANDARD
390
0
100
AcDbText
 10
257.1088264667
 20
37.0151069769
 30
0.0
 40
1.59375
  1

  7
Arial
100
AcDbAttribute
  2
Änderung Datum5
 70
         0
  0
ATTRIB
  5
1BF
100
AcDbEntity
  8
STANDARD
390
0
100
AcDbText
 10
270.1080784611
 20
37.0151069769
 30
0.0
 40
1.59375
  1

  7
Arial
100
AcDbAttribute
  2
Änderung Name5
 70
         0
  0
ATTRIB
  5
1C0
100
AcDbEntity
  8
STANDARD
390
0
100
AcDbText
 10
223.2107712814
 20
41.2648624366
 30
0.0
 40
1.59375
  1

  7
Arial
100
AcDbAttribute
  2
Zust.6
 70
         0
  0
ATTRIB
  5
1C1
100
AcDbEntity
  8
STANDARD
390
0
100
AcDbText
 10
231.110322478
 20
41.2648624366
 30
0.0
 40
1.59375
  1

  7
Arial
100
AcDbAttribute
  2
Änderung6
 70
         0
  0
ATTRIB
  5
1C2
100
AcDbEntity
  8
STANDARD
390
0
100
AcDbText
 10
257.1088264667
 20
41.2648624366
 30
0.0
 40
1.59375
  1

  7
Arial
100
AcDbAttribute
  2
Änderung Datum6
 70
         0
  0
ATTRIB
  5
1C3
100
AcDbEntity
  8
STANDARD
390
0
100
AcDbText
 10
270.1080784611
 20
41.2648624366
 30
0.0
 40
1.59375
  1

  7
Arial
100
AcDbAttribute
  2
Änderung Name6
 70
         0
  0
ATTRIB
  5
1C4
100
AcDbEntity
  8
STANDARD
390
0
100
AcDbText
 10
223.2107712814
 20
45.5146178963
 30
0.0
 40
1.59375
  1

  7
Arial
100
AcDbAttribute
  2
Zust.7
 70
         0
  0
ATTRIB
  5
1C5
100
AcDbEntity
  8
STANDARD
390
0
100
AcDbText
 10
231.110322478
 20
45.5146178963
 30
0.0
 40
1.59375
  1

  7
Arial
100
AcDbAttribute
  2
Änderung7
 70
         0
  0
ATTRIB
  5
1C6
100
AcDbEntity
  8
STANDARD
390
0
100
AcDbText
 10
257.1088264667
 20
45.5146178963
 30
0.0
 40
1.59375
  1

  7
Arial
100
AcDbAttribute
  2
Änderung Datum7
 70
         0
  0
ATTRIB
  5
1C7
100
AcDbEntity
  8
STANDARD
390
0
100
AcDbText
 10
270.1080784611
 20
45.5146178963
 30
0.0
 40
1.59375
  1

  7
Arial
100
AcDbAttribute
  2
Änderung Name7
 70
         0
  0
SEQEND
  5
1C8
100
AcDbEntity
  8
STANDARD
390
0
  0
ENDSEC
  0
SECTION
  2
OBJECTS
  0
DICTIONARY
  5
19
100
AcDbDictionary
280
         0
281
         1
  3
ACAD_GROUP
350
1A
  3
ACAD_MLINESTYLE
350
1B
  3
ACAD_LAYOUT
350
1E
  3
ACAD_PLOTSETTINGS
350
22
  3
ACAD_PLOTSTYLENAME
350
1F
  3
ACAD_WIPEOUT_VARS
350
23
  0
DICTIONARY
  5
1A
102
{ACAD_REACTORS
330
19
102
}
100
AcDbDictionary
280
         0
281
         1
  0
DICTIONARY
  5
1B
102
{ACAD_REACTORS
330
19
102
}
100
AcDbDictionary
280
         0
281
         1
  3
Standard
350
1C
  0
MLINESTYLE
  5
1C
102
{ACAD_REACTORS
330
1B
102
}
100
AcDbMlineStyle
  2
Standard
 70
         0
  3

 62
         0
 51
90.0
 52
90.0
 71
         2
 49
0.5
 62
       256
  6
ByLayer
 49
-0.5
 62
       256
  6
ByLayer
  0
ACDBDICTIONARYWDFLT
  5
1F
102
{ACAD_REACTORS
330
19
102
}
100
AcDbDictionary
281
         1
  3
Normal
350
1D
100
AcDbDictionaryWithDefault
340
1D
  0
ACDBPLACEHOLDER
  5
1D
102
{ACAD_REACTORS
330
1F
102
}
  0
LAYOUT
  5
20
102
{ACAD_REACTORS
330
1E
102
}
100
AcDbPlotSettings
  1

  2

  4

  6

 40
0.0
 41
0.0
 42
0.0
 43
0.0
 44
0.0
 45
0.0
 46
0.0
 47
0.0
 48
0.0
 49
0.0
140
0.0
141
0.0
142
1.0
143
1.0
 70
      1024
 72
         0
 73
         0
 74
         0
  7

 75
         0
147
1.0
148
0.0
149
0.0
100
AcDbLayout
  1
Model
 70
         0
 71
         0
 10
0.0
 20
0.0
 11
0.0
 21
0.0
 12
0.0
 22
0.0
 32
0.0
 14
0.0
 24
0.0
 34
0.0
 15
0.0
 25
0.0
 35
0.0
146
0.0
 13
0.0
 23
0.0
 33
0.0
 16
0.0
 26
0.0
 36
0.0
 17
0.0
 27
0.0
 37
0.0
 76
         0
330
A
331
0
345
0
346
0
  0
LAYOUT
  5
21
102
{ACAD_REACTORS
330
1E
102
}
100
AcDbPlotSettings
  1

  2

  4

  6

 40
0.0
 41
0.0
 42
0.0
 43
0.0
 44
0.0
 45
0.0
 46
0.0
 47
0.0
 48
0.0
 49
0.0
140
0.0
141
0.0
142
1.0
143
1.0
 70
         0
 72
         0
 73
         0
 74
         0
  7

 75
         0
147
1.0
148
0.0
149
0.0
100
AcDbLayout
  1
Layout1
 70
         0
 71
         0
 10
0.0
 20
0.0
 11
0.0
 21
0.0
 12
0.0
 22
0.0
 32
0.0
 14
0.0
 24
0.0
 34
0.0
 15
0.0
 25
0.0
 35
0.0
146
0.0
 13
0.0
 23
0.0
 33
0.0
 16
0.0
 26
0.0
 36
0.0
 17
0.0
 27
0.0
 37
0.0
 76
         0
330
B
331
0
345
0
346
0
  0
DICTIONARY
  5
1E
102
{ACAD_REACTORS
330
19
102
}
100
AcDbDictionary
280
         0
281
         1
  3
Layout1
350
21
  3
Model
350
20
  0
DICTIONARY
  5
22
102
{ACAD_REACTORS
330
19
102
}
100
AcDbDictionary
280
         0
281
         1
  0
WIPEOUTVARIABLES
  5
23
100
AcDbWipeoutVariables
 70
         1
  0
ENDSEC
  0
EOF
