  0
SECTION
  2
HEADER
  0
ENDSEC
  0
SECTION
  2
TABLES
  0
TABLE
  2
LTYPE
 70
     4
  0
LTYPE
  2
CONTINUOUS
 70
    64
  3
Style 1 Solid Line
 72
    65
 73
     0
 40
             .000000
  0
LTYPE
  2
DASHED
 70
    64
  3
Style 1 Dashed Line
 72
    65
 73
     2
 40
             .300000
 49
             .170000
 49
            -.130000
  0
LTYPE
  2
DSH1
 70
64
  3
Style 2 Dashed Line
 72
65
 73
2
 40
.075
 49
.04
 49
-.035
  0
LTYPE
  2
DSH2
 70
64
  3
Style 2 Dashed Line
 72
65
 73
2
 40
.15
 49
.11
 49
-.04
  0
LTYPE
  2
DSH3
 70
64
  3
Style 2 Dashed Line
 72
65
 73
2
 40
.2
 49
.15
 49
-.05
  0
LTYPE
  2
DSH4
 70
64
  3
Style 2 Dashed Line
 72
65
 73
2
 40
.36
 49
.28
 49
-.08
  0
LTYPE
  2
DSH5
 70
64
  3
Style 2 Dashed Line
 72
65
 73
2
 40
.47
 49
.39
 49
-.08
  0
LTYPE
  2
DSH6
 70
64
  3
Style 2 Dashed Line
 72
65
 73
2
 40
.9
 49
.81
 49
-.09
  0
LTYPE
  2
STCH
 70
64
  3
Style 2 Dashed Line
 72
65
 73
2
 40
.12
 49
.06
 49
-.06
  0
LTYPE
  2
CENTER
 70
    64
  3
Style 1 Center Line
 72
    65
 73
     4
 40
             .700000
 49
             .400000
 49
            -.100000
 49
             .100000
 49
            -.100000
  0
LTYPE
  2
CL1
 70
64
  3
Style 2 Center Line
 72
65
 73
4
 40
.7
 49
.45
 49
-.06
 49
.13
 49
-.06
  0
LTYPE
  2
CL2
 70
64
  3
Style 2 Center Line
 72
65
 73
4
 40
1.2
 49
1.01
 49
-.06
 49
.11
 49
-.06
  0
LTYPE
  2
CL3
 70
64
  3
Style 2 Center Line
 72
65
 73
4
 40
1.2
 49
.98
 49
-.06
 49
.1
 49
-.06
  0
LTYPE
  2
CL4
 70
64
  3
Style 2 Center Line
 72
65
 73
4
 40
2.2
 49
1.93
 49
-.07
 49
.13
 49
-.07
  0
LTYPE
  2
CL5
 70
64
  3
Style 2 Center Line
 72
65
 73
4
 40
3.0
 49
2.65
 49
-.1
 49
.15
 49
-.1
  0
LTYPE
  2
PHANTOM
 70
    64
  3
Style 1 Phantom Line
 72
    65
 73
     6
 40
            1.000000
 49
             .500000
 49
            -.100000
 49
             .100000
 49
            -.100000
 49
             .100000
 49
            -.100000
  0
LTYPE
  2
PL1
 70
64
  3
Style 2 Phantom Line
 72
65
 73
6
 40
1.0
 49
.6
 49
-.08
 49
.08
 49
-.08
 49
.08
 49
-.08
  0
LTYPE
  2
PL2
 70
64
  3
Style 2 Phantom Line
 72
65
 73
6
 40
1.08
 49
.6
 49
-.08
 49
.12
 49
-.08
 49
.12
 49
-.08
  0
LTYPE
  2
PL3
 70
64
  3
Style 2 Phantom Line
 72
65
 73
6
 40
2.0
 49
1.44
 49
-.08
 49
.16
 49
-.08
 49
.16
 49
-.08
  0
LTYPE
  2
SBK1
 70
64
  3
Style 2 Line
 72
65
 73
8
 40
2.7
 49
2.08
 49
-.08
 49
.1
 49
-.08
 49
.1
 49
-.08
 49
.1
 49
-.08
  0
LTYPE
  2
SBK2
 70
64
  3
Style 2 Line
 72
65
 73
8
 40
3.71
 49
3.0
 49
-.08
 49
.13
 49
-.08
 49
.13
 49
-.08
 49
.13
 49
-.08
  0
LTYPE
  2
MTCH
 70
64
  3
Style 2 Line
 72
65
 73
6
 40
2.0
 49
1.44
 49
-.08
 49
.16
 49
-.08
 49
.16
 49
-.08
  0
LTYPE
  2
DOT
 70
    64
  3
Style 1 Dot Line
 72
    65
 73
     2
 40
           .250000
 49
           .000000
 49
          -.250000
  0
ENDTAB
  0
TABLE
  2
LAYER
 70
    10
  0
LAYER
  2
0
 70
     0
 62
     7
  6
CONTINUOUS
  0
LAYER
  2
DASHED
 70
     0
 62
     7
  6
DASHED
  0
LAYER
  2
CENTER
 70
     0
 62
     7
  6
CENTER
  0
LAYER
  2
PHANTOM
 70
     0
 62
     7
  6
PHANTOM
  0
LAYER
  2
DIMENSIONS
 70
     0
 62
     7
  6
CONTINUOUS
  0
LAYER
  2
99NC
 70
     0
 62
     7
  6
DOT
  0
LAYER
  2
NC
 70
     0
 62
     7
  6
DOT
  0
LAYER
  2
999
 70
     1
 62
     7
  6
CONTINUOUS
  0
ENDTAB
  0
TABLE
  2
STYLE
 70
     1
  0
STYLE
  2
STANDARD
 70
     0
 40
             .000000
 50
             .000000
 71
     0
 41
            1.000000
 42
            1.000000
  3
MONOTXT
  0
ENDTAB
  0
TABLE
  2
VIEW
 70
     1
  0
ENDTAB
  0
ENDSEC
  0
SECTION
  2
BLOCKS
  0
BLOCK
  8
0
  2
ELLIPSE
 70
     0
 10
             .000000
 20
             .000000
  0
CIRCLE
  8
0
 10
             .000000
 20
             .000000
 40
            1.000000
  0
ENDBLK
  8
0
  0
BLOCK
  8
0
  2
*d1
 70
    65
 10
             .000000
 20
             .000000
  0
TEXT
  8
0
 10
          -21.674990
 20
           14.950000
 40
            3.000000
  1
15
 50
             .000000
 41
            1.000000
 72
     1
 11
          -18.674990
 21
           14.950000
  0
LINE
  8
0
 10
          -14.910000
 20
           14.200000
 11
          -11.910060
 21
           15.200150
  0
LINE
  8
0
 10
          -14.910000
 20
           14.200000
 11
          -11.910060
 21
           13.199850
  0
LINE
  8
0
 10
          -25.560000
 20
           14.200000
 11
          -28.559940
 21
           13.199860
  0
LINE
  8
0
 10
          -25.560000
 20
           14.200000
 11
          -28.559940
 21
           15.200150
  0
LINE
  8
0
 10
           -7.004325
 20
           14.200000
 11
          -14.910000
 21
           14.200000
  0
LINE
  8
0
 10
          -33.465670
 20
           14.200000
 11
          -25.560000
 21
           14.200000
  0
LINE
  8
0
 10
          -14.910000
 20
           14.200000
 11
          -25.560000
 21
           14.200000
  0
LINE
  8
0
 10
          -14.910000
 20
             .000001
 11
          -14.910000
 21
           15.724000
  0
LINE
  8
0
 10
          -25.560000
 20
             .000001
 11
          -25.560000
 21
           15.724000
  0
ENDBLK
  8
0
  0
BLOCK
  8
0
  2
*d2
 70
    65
 10
             .000000
 20
             .000000
  0
TEXT
  8
0
 10
          -21.673680
 20
           22.052500
 40
            3.000000
  1
37
 50
            -.099999
 41
            1.000000
 72
     1
 11
          -18.673680
 21
           22.047260
  0
LINE
  8
0
 10
          -33.370000
 20
           21.300000
 11
          -30.370040
 21
           22.300140
  0
LINE
  8
0
 10
          -33.370000
 20
           21.300000
 11
          -30.370040
 21
           20.299850
  0
LINE
  8
0
 10
           -7.099998
 20
           21.299990
 11
          -10.099940
 21
           20.299850
  0
LINE
  8
0
 10
           -7.099998
 20
           21.299990
 11
          -10.099940
 21
           22.300140
  0
LINE
  8
0
 10
          -33.370000
 20
           21.300000
 11
           -7.099998
 21
           21.299990
  0
LINE
  8
0
 10
          -33.370000
 20
            8.875001
 11
          -33.370000
 21
           22.824010
  0
LINE
  8
0
 10
           -7.099999
 20
            8.875001
 11
           -7.099998
 21
           22.823990
  0
ENDBLK
  8
0
  0
BLOCK
  8
0
  2
*d3
 70
    65
 10
             .000000
 20
             .000000
  0
TEXT
  8
0
 10
          -21.673680
 20
           29.152510
 40
            3.000000
  1
52
 50
            -.099999
 41
            1.000000
 72
     1
 11
          -18.673680
 21
           29.147270
  0
LINE
  8
0
 10
           -1.774996
 20
           28.399990
 11
           -4.774940
 21
           27.399840
  0
LINE
  8
0
 10
           -1.774996
 20
           28.399990
 11
           -4.774940
 21
           29.400150
  0
LINE
  8
0
 10
          -38.694990
 20
           28.399990
 11
          -35.695040
 21
           29.400150
  0
LINE
  8
0
 10
          -38.694990
 20
           28.399990
 11
          -35.695040
 21
           27.399840
  0
LINE
  8
0
 10
           -1.774996
 20
           28.399990
 11
          -38.694990
 21
           28.399990
  0
LINE
  8
0
 10
           -1.775000
 20
             .000000
 11
           -1.774996
 21
           29.924000
  0
LINE
  8
0
 10
          -38.694990
 20
             .000003
 11
          -38.694990
 21
           29.924000
  0
ENDBLK
  8
0
  0
BLOCK
  8
0
  2
*d4
 70
    65
 10
             .000000
 20
             .000000
  0
TEXT
  8
0
 10
          -50.821770
 20
           22.055030
 40
            3.000000
  1
7.5
 50
            -.099999
 41
            1.000000
 72
     1
 11
          -46.321780
 21
           22.047170
  0
LINE
  8
0
 10
          -38.694990
 20
           21.300000
 11
          -53.508090
 21
           21.300000
  0
LINE
  8
0
 10
          -38.694990
 20
           21.300000
 11
          -41.694930
 21
           20.299850
  0
LINE
  8
0
 10
          -38.694990
 20
           21.300000
 11
          -41.694930
 21
           22.300140
  0
LINE
  8
0
 10
          -46.600660
 20
           21.300000
 11
          -38.694990
 21
           21.300000
  0
LINE
  8
0
 10
          -38.694990
 20
           21.300000
 11
          -33.370000
 21
           21.300000
  0
LINE
  8
0
 10
          -38.694990
 20
             .000003
 11
          -38.694990
 21
           22.823990
  0
LINE
  8
0
 10
          -33.370000
 20
            8.875001
 11
          -33.370000
 21
           22.824010
  0
ENDBLK
  8
0
  0
BLOCK
  8
0
  2
*d5
 70
    65
 10
             .000000
 20
             .000000
  0
TEXT
  8
0
 10
          -46.545030
 20
          -24.735860
 40
            3.000000
  1
11.5
 50
           90.000000
 41
            1.000000
 72
     1
 11
          -46.544980
 21
          -18.735860
  0
LINE
  8
0
 10
          -45.795000
 20
           -4.082499
 11
          -45.795000
 21
          -27.480870
  0
LINE
  8
0
 10
          -45.795000
 20
            4.082501
 11
          -46.795140
 21
            7.082444
  0
LINE
  8
0
 10
          -45.795000
 20
            4.082501
 11
          -44.794850
 21
            7.082444
  0
LINE
  8
0
 10
          -45.795000
 20
           -4.082499
 11
          -44.794850
 21
           -7.082441
  0
LINE
  8
0
 10
          -45.795000
 20
           -4.082499
 11
          -46.795140
 21
           -7.082441
  0
LINE
  8
0
 10
          -45.795000
 20
           11.988180
 11
          -45.795000
 21
            4.082501
  0
LINE
  8
0
 10
          -45.795000
 20
          -11.988170
 11
          -45.795000
 21
           -4.082499
  0
LINE
  8
0
 10
          -45.795000
 20
            4.082501
 11
          -45.795000
 21
           -4.082499
  0
LINE
  8
0
 10
          -23.653880
 20
            4.082501
 11
          -47.318980
 21
            4.082501
  0
LINE
  8
0
 10
          -23.653880
 20
           -4.082499
 11
          -47.318980
 21
           -4.082499
  0
ENDBLK
  8
0
  0
BLOCK
  8
0
  2
*d6
 70
    65
 10
             .000000
 20
             .000000
  0
TEXT
  8
0
 10
          -53.647510
 20
           -1.438679
 40
            3.000000
  1
20
 50
           89.899990
 41
            1.000000
 72
     1
 11
          -53.642250
 21
            1.561316
  0
LINE
  8
0
 10
          -52.894990
 20
           -7.099998
 11
          -53.895140
 21
           -4.100055
  0
LINE
  8
0
 10
          -52.894990
 20
           -7.099998
 11
          -51.894850
 21
           -4.100055
  0
LINE
  8
0
 10
          -52.894990
 20
            7.100001
 11
          -51.894850
 21
            4.100059
  0
LINE
  8
0
 10
          -52.894990
 20
            7.100001
 11
          -53.895140
 21
            4.100059
  0
LINE
  8
0
 10
          -52.894990
 20
           -7.099998
 11
          -52.894990
 21
            7.100001
  0
LINE
  8
0
 10
          -31.594990
 20
           -7.099998
 11
          -44.543080
 21
           -7.099998
  0
LINE
  8
0
 10
          -31.594990
 20
            7.100001
 11
          -44.830550
 21
            7.100001
  0
ENDBLK
  8
0
  0
BLOCK
  8
0
  2
*d7
 70
    65
 10
             .000000
 20
             .000000
  0
TEXT
  8
0
 10
           26.183990
 20
           -4.317348
 40
            3.000000
  1
%%C5.5
 50
           89.800000
 41
            1.000000
 72
     1
 11
           26.204980
 21
            1.682615
  0
LINE
  8
0
 10
           26.949100
 20
            1.952499
 11
           25.948960
 21
            4.952443
  0
LINE
  8
0
 10
           26.949100
 20
            1.952499
 11
           27.949250
 21
            4.952443
  0
LINE
  8
0
 10
           26.949100
 20
           -1.952497
 11
           27.949250
 21
           -4.952440
  0
LINE
  8
0
 10
           26.949100
 20
           -1.952497
 11
           25.948960
 21
           -4.952440
  0
LINE
  8
0
 10
           26.949100
 20
            9.858175
 11
           26.949100
 21
            1.952499
  0
LINE
  8
0
 10
           26.949100
 20
           -9.858172
 11
           26.949100
 21
           -1.952497
  0
LINE
  8
0
 10
           26.949100
 20
            1.952499
 11
           26.949100
 21
           -1.952497
  0
LINE
  8
0
 10
           34.049100
 20
            1.952499
 11
           25.425110
 21
            1.952499
  0
LINE
  8
0
 10
           34.368610
 20
           -1.952497
 11
           25.425110
 21
           -1.952497
  0
ENDBLK
  8
0
  0
BLOCK
  8
0
  2
*d8
 70
    65
 10
             .000000
 20
             .000000
  0
TEXT
  8
0
 10
           42.396450
 20
          -13.450000
 40
            3.000000
  1
3
 50
          359.899900
 41
            1.000000
 72
     1
 11
           43.896440
 21
          -13.452670
  0
LINE
  8
0
 10
           36.179110
 20
          -14.200000
 11
           44.960110
 21
          -14.200000
  0
LINE
  8
0
 10
           34.049100
 20
          -14.200000
 11
           31.049160
 21
          -15.200150
  0
LINE
  8
0
 10
           34.049100
 20
          -14.200000
 11
           31.049160
 21
          -13.199850
  0
LINE
  8
0
 10
           36.179110
 20
          -14.200000
 11
           39.179050
 21
          -13.199850
  0
LINE
  8
0
 10
           36.179110
 20
          -14.200000
 11
           39.179050
 21
          -15.200150
  0
LINE
  8
0
 10
           26.143430
 20
          -14.200000
 11
           34.049100
 21
          -14.200000
  0
LINE
  8
0
 10
           44.084780
 20
          -14.200000
 11
           36.179110
 21
          -14.200000
  0
LINE
  8
0
 10
           34.049100
 20
          -14.200000
 11
           36.179110
 21
          -14.200000
  0
LINE
  8
0
 10
           34.049100
 20
           -7.099998
 11
           34.049100
 21
          -15.724000
  0
LINE
  8
0
 10
           36.179110
 20
           -7.099998
 11
           36.179110
 21
          -15.724000
  0
ENDBLK
  8
0
  0
ENDSEC
  0
SECTION
  2
ENTITIES
  0
TEXT
  8
999
 10
             .000000
 20
             .000000
 40
            1.000000
  1
AZ  , EINBAU, Z 90000291 01 4A SEB
 50
             .000000
 41
            1.000000
  0
LINE
  8
PV
 10
          -31.594990
 20
            7.100001
 11
           -8.874998
 21
            7.099998
  0
LINE
  8
PV
 10
          -31.594990
 20
           -7.099998
 11
           -8.874998
 21
           -7.099998
  0
LINE
  8
PV
 10
          -41.098940
 20
             .000003
 11
          -28.087520
 21
             .000002
  6
CENTER
  0
LINE
  8
PV
 10
          -12.464570
 20
             .000000
 11
             .402606
 21
            -.000001
  6
CENTER
  0
LINE
  8
PV
 10
          -33.370000
 20
            8.875001
 11
          -33.370000
 21
           -8.874998
  6
CENTER
  0
LINE
  8
PV
 10
           -7.099999
 20
            8.875001
 11
           -7.099999
 21
           -8.875000
  6
CENTER
  0
LINE
  8
PV
 10
          -23.653880
 20
           -4.082499
 11
          -16.816100
 21
           -4.082500
  0
LINE
  8
PV
 10
          -23.653880
 20
            4.082501
 11
          -16.816100
 21
            4.082501
  0
LINE
  8
PV
 10
          -47.071660
 20
            7.100001
 11
          -54.418990
 21
            7.100001
  0
LINE
  8
PV
 10
          -47.389160
 20
           -7.099998
 11
          -54.418990
 21
           -7.099998
  0
CIRCLE
  8
PV
 10
           -7.099999
 20
             .000000
 40
            1.952499
  0
CIRCLE
  8
PV
 10
          -33.370000
 20
             .000002
 40
            1.952499
  0
CIRCLE
  8
PV
 10
          -33.370000
 20
             .000002
 40
            3.549999
  0
CIRCLE
  8
PV
 10
           -7.099999
 20
             .000000
 40
            3.549999
  0
ARC
  8
PV
 10
           -8.875000
 20
             .000000
 40
            7.099999
 50
          270.000000
 51
          450.000000
  0
ARC
  8
PV
 10
          -31.594990
 20
             .000002
 40
            7.099999
 50
           90.000000
 51
          269.999900
  0
ARC
  8
PV
 10
          -20.234990
 20
             .000001
 40
            5.324996
 50
          309.944500
 51
          410.055500
  0
ARC
  8
PV
 10
          -20.234990
 20
             .000001
 40
            5.325005
 50
          129.944600
 51
          230.055400
  0
INSERT
  8
PV
  2
*d1
 10
             .000000
 20
             .000000
 41
            1.000000
 42
            1.000000
 43
            1.000000
 50
             .000000
  0
INSERT
  8
PV
  2
*d1
 10
             .000000
 20
             .000000
 41
            1.000000
 42
            1.000000
 43
            1.000000
 50
             .000000
  0
INSERT
  8
PV
  2
*d2
 10
             .000000
 20
             .000000
 41
            1.000000
 42
            1.000000
 43
            1.000000
 50
             .000000
  0
INSERT
  8
PV
  2
*d2
 10
             .000000
 20
             .000000
 41
            1.000000
 42
            1.000000
 43
            1.000000
 50
             .000000
  0
INSERT
  8
PV
  2
*d3
 10
             .000000
 20
             .000000
 41
            1.000000
 42
            1.000000
 43
            1.000000
 50
             .000000
  0
INSERT
  8
PV
  2
*d3
 10
             .000000
 20
             .000000
 41
            1.000000
 42
            1.000000
 43
            1.000000
 50
             .000000
  0
INSERT
  8
PV
  2
*d4
 10
             .000000
 20
             .000000
 41
            1.000000
 42
            1.000000
 43
            1.000000
 50
             .000000
  0
INSERT
  8
PV
  2
*d4
 10
             .000000
 20
             .000000
 41
            1.000000
 42
            1.000000
 43
            1.000000
 50
             .000000
  0
INSERT
  8
PV
  2
*d5
 10
             .000000
 20
             .000000
 41
            1.000000
 42
            1.000000
 43
            1.000000
 50
             .000000
  0
INSERT
  8
PV
  2
*d5
 10
             .000000
 20
             .000000
 41
            1.000000
 42
            1.000000
 43
            1.000000
 50
             .000000
  0
INSERT
  8
PV
  2
*d6
 10
             .000000
 20
             .000000
 41
            1.000000
 42
            1.000000
 43
            1.000000
 50
             .000000
  0
INSERT
  8
PV
  2
*d6
 10
             .000000
 20
             .000000
 41
            1.000000
 42
            1.000000
 43
            1.000000
 50
             .000000
  0
LINE
  8
SA
 10
           34.049100
 20
            7.099999
 11
           34.049100
 21
           -7.099998
  0
LINE
  8
SA
 10
           36.179110
 20
            7.099999
 11
           36.179110
 21
           -7.099998
  0
LINE
  8
SA
 10
           32.106200
 20
             .000000
 11
           37.954760
 21
             .000000
  6
CENTER
  0
LINE
  8
SA
 10
           35.966090
 20
            3.550004
 11
           36.179110
 21
            3.550004
  0
LINE
  8
SA
 10
           35.966090
 20
           -3.550002
 11
           36.179110
 21
           -3.550002
  0
LINE
  8
SA
 10
           34.049100
 20
           -1.952497
 11
           34.368610
 21
           -1.952497
  0
LINE
  8
SA
 10
           34.049100
 20
            1.952499
 11
           34.368610
 21
            1.952499
  0
LINE
  8
SA
 10
           35.966090
 20
            3.550004
 11
           35.966090
 21
           -3.550002
  0
LINE
  8
SA
 10
           34.368610
 20
           -1.952497
 11
           35.966110
 21
           -3.549987
  0
LINE
  8
SA
 10
           35.966090
 20
            3.549973
 11
           34.368580
 21
            1.952471
  0
LINE
  8
SA
 10
           34.368610
 20
           -1.952497
 11
           34.368610
 21
            1.952499
  0
LINE
  8
SA
 10
           47.989560
 20
            8.648088
 11
           35.263500
 21
            1.300675
  0
LINE
  8
SA
 10
           72.807270
 20
            8.648072
 11
           47.989560
 21
            8.648072
  0
LINE
  8
SA
 10
           34.049100
 20
           -7.099998
 11
           36.179110
 21
           -7.099998
  0
LINE
  8
SA
 10
           34.049100
 20
            7.099999
 11
           36.179110
 21
            7.099999
  0
TEXT
  8
SA
 10
           48.938610
 20
           14.742460
 40
            3.000000
  1
Senkung
 50
             .000000
 41
             .714286
  0
TEXT
  8
SA
 10
           48.938610
 20
           10.456750
 40
            3.000000
  1
DIN 74-Af5
 50
             .000000
 41
             .714286
  0
INSERT
  8
SA
  2
*d7
 10
             .000000
 20
             .000000
 41
            1.000000
 42
            1.000000
 43
            1.000000
 50
             .000000
  0
INSERT
  8
SA
  2
*d7
 10
             .000000
 20
             .000000
 41
            1.000000
 42
            1.000000
 43
            1.000000
 50
             .000000
  0
INSERT
  8
SA
  2
*d8
 10
             .000000
 20
             .000000
 41
            1.000000
 42
            1.000000
 43
            1.000000
 50
             .000000
  0
INSERT
  8
SA
  2
*d8
 10
             .000000
 20
             .000000
 41
            1.000000
 42
            1.000000
 43
            1.000000
 50
             .000000
  0
LINE
  8
RA
 10
          109.907100
 20
           98.663440
 11
          109.907100
 21
         -198.336600
  0
LINE
  8
RA
 10
         -100.092900
 20
           98.663440
 11
          109.907100
 21
           98.663440
  0
LINE
  8
RA
 10
         -100.092900
 20
         -198.336600
 11
          109.907100
 21
         -198.336600
  0
LINE
  8
RA
 10
          115.215200
 20
          105.719200
 11
         -104.784800
 21
          105.719200
  6
DOT
  0
LINE
  8
RA
 10
          115.215200
 20
          105.719200
 11
          115.215200
 21
         -204.280800
  6
DOT
  0
LINE
  8
RA
 10
          -55.092930
 20
         -153.336600
 11
          -55.092930
 21
         -193.336600
  0
LINE
  8
RA
 10
          -55.092930
 20
         -153.336600
 11
          104.907100
 21
         -153.336600
  0
LINE
  8
RA
 10
          -55.092930
 20
         -168.336600
 11
           64.907060
 21
         -168.336600
  0
LINE
  8
RA
 10
           64.907060
 20
         -153.336600
 11
           64.907060
 21
         -193.336600
  0
LINE
  8
RA
 10
          -82.092930
 20
           93.663440
 11
          -82.092930
 21
         -193.336600
  0
LINE
  8
RA
 10
          -82.092930
 20
         -193.336600
 11
          104.907100
 21
         -193.336600
  0
LINE
  8
RA
 10
          104.907100
 20
           93.663440
 11
          104.907100
 21
         -193.336600
  0
LINE
  8
RA
 10
          -82.092930
 20
           93.663440
 11
          104.907100
 21
           93.663440
  0
LINE
  8
RA
 10
         -100.092900
 20
           98.663440
 11
         -100.092900
 21
         -198.336600
  0
TEXT
  8
RA
 10
           34.261950
 20
         -101.148300
 40
            3.000000
  1
DIN R und
 50
             .000000
 41
             .714286
  0
TEXT
  8
RA
 10
           34.261950
 20
         -105.434000
 40
            3.000000
  1
DIN L verwendbar
 50
             .000000
 41
             .714286
  0
TEXT
  8
RA
 10
          -48.927020
 20
         -190.445800
 40
            3.000000
  1
Stangenschlieáblech "BKS 9000"
 50
             .000000
 41
             .714286
  0
TEXT
  8
RA
 10
          -88.961630
 20
         -182.499900
 40
            3.000000
  1
Z 90000291 01 4A
 50
           90.000000
 41
             .714286
  0
TEXT
  8
RA
 10
          -80.322430
 20
         -188.769900
 40
            2.000000
  1
16.2.94 Brammertz
 50
             .000000
 41
             .714285
  0
ENDSEC
  0
EOF
