  0
SECTION
  2
HEADER
  0
ENDSEC
  0
SECTION
  2
TABLES
  0
TABLE
  2
LTYPE
 70
     4
  0
LTYPE
  2
CONTINUOUS
 70
    64
  3
Style 1 Solid Line
 72
    65
 73
     0
 40
             .000000
  0
LTYPE
  2
DASHED
 70
    64
  3
Style 1 Dashed Line
 72
    65
 73
     2
 40
             .300000
 49
             .170000
 49
            -.130000
  0
LTYPE
  2
DSH1
 70
64
  3
Style 2 Dashed Line
 72
65
 73
2
 40
.075
 49
.04
 49
-.035
  0
LTYPE
  2
DSH2
 70
64
  3
Style 2 Dashed Line
 72
65
 73
2
 40
.15
 49
.11
 49
-.04
  0
LTYPE
  2
DSH3
 70
64
  3
Style 2 Dashed Line
 72
65
 73
2
 40
.2
 49
.15
 49
-.05
  0
LTYPE
  2
DSH4
 70
64
  3
Style 2 Dashed Line
 72
65
 73
2
 40
.36
 49
.28
 49
-.08
  0
LTYPE
  2
DSH5
 70
64
  3
Style 2 Dashed Line
 72
65
 73
2
 40
.47
 49
.39
 49
-.08
  0
LTYPE
  2
DSH6
 70
64
  3
Style 2 Dashed Line
 72
65
 73
2
 40
.9
 49
.81
 49
-.09
  0
LTYPE
  2
STCH
 70
64
  3
Style 2 Dashed Line
 72
65
 73
2
 40
.12
 49
.06
 49
-.06
  0
LTYPE
  2
CENTER
 70
    64
  3
Style 1 Center Line
 72
    65
 73
     4
 40
             .700000
 49
             .400000
 49
            -.100000
 49
             .100000
 49
            -.100000
  0
LTYPE
  2
CL1
 70
64
  3
Style 2 Center Line
 72
65
 73
4
 40
.7
 49
.45
 49
-.06
 49
.13
 49
-.06
  0
LTYPE
  2
CL2
 70
64
  3
Style 2 Center Line
 72
65
 73
4
 40
1.2
 49
1.01
 49
-.06
 49
.11
 49
-.06
  0
LTYPE
  2
CL3
 70
64
  3
Style 2 Center Line
 72
65
 73
4
 40
1.2
 49
.98
 49
-.06
 49
.1
 49
-.06
  0
LTYPE
  2
CL4
 70
64
  3
Style 2 Center Line
 72
65
 73
4
 40
2.2
 49
1.93
 49
-.07
 49
.13
 49
-.07
  0
LTYPE
  2
CL5
 70
64
  3
Style 2 Center Line
 72
65
 73
4
 40
3.0
 49
2.65
 49
-.1
 49
.15
 49
-.1
  0
LTYPE
  2
PHANTOM
 70
    64
  3
Style 1 Phantom Line
 72
    65
 73
     6
 40
            1.000000
 49
             .500000
 49
            -.100000
 49
             .100000
 49
            -.100000
 49
             .100000
 49
            -.100000
  0
LTYPE
  2
PL1
 70
64
  3
Style 2 Phantom Line
 72
65
 73
6
 40
1.0
 49
.6
 49
-.08
 49
.08
 49
-.08
 49
.08
 49
-.08
  0
LTYPE
  2
PL2
 70
64
  3
Style 2 Phantom Line
 72
65
 73
6
 40
1.08
 49
.6
 49
-.08
 49
.12
 49
-.08
 49
.12
 49
-.08
  0
LTYPE
  2
PL3
 70
64
  3
Style 2 Phantom Line
 72
65
 73
6
 40
2.0
 49
1.44
 49
-.08
 49
.16
 49
-.08
 49
.16
 49
-.08
  0
LTYPE
  2
SBK1
 70
64
  3
Style 2 Line
 72
65
 73
8
 40
2.7
 49
2.08
 49
-.08
 49
.1
 49
-.08
 49
.1
 49
-.08
 49
.1
 49
-.08
  0
LTYPE
  2
SBK2
 70
64
  3
Style 2 Line
 72
65
 73
8
 40
3.71
 49
3.0
 49
-.08
 49
.13
 49
-.08
 49
.13
 49
-.08
 49
.13
 49
-.08
  0
LTYPE
  2
MTCH
 70
64
  3
Style 2 Line
 72
65
 73
6
 40
2.0
 49
1.44
 49
-.08
 49
.16
 49
-.08
 49
.16
 49
-.08
  0
LTYPE
  2
DOT
 70
    64
  3
Style 1 Dot Line
 72
    65
 73
     2
 40
           .250000
 49
           .000000
 49
          -.250000
  0
ENDTAB
  0
TABLE
  2
LAYER
 70
    10
  0
LAYER
  2
0
 70
     0
 62
     7
  6
CONTINUOUS
  0
LAYER
  2
DASHED
 70
     0
 62
     7
  6
DASHED
  0
LAYER
  2
CENTER
 70
     0
 62
     7
  6
CENTER
  0
LAYER
  2
PHANTOM
 70
     0
 62
     7
  6
PHANTOM
  0
LAYER
  2
DIMENSIONS
 70
     0
 62
     7
  6
CONTINUOUS
  0
LAYER
  2
99NC
 70
     0
 62
     7
  6
DOT
  0
LAYER
  2
NC
 70
     0
 62
     7
  6
DOT
  0
LAYER
  2
999
 70
     1
 62
     7
  6
CONTINUOUS
  0
ENDTAB
  0
TABLE
  2
STYLE
 70
     1
  0
STYLE
  2
STANDARD
 70
     0
 40
             .000000
 50
             .000000
 71
     0
 41
            1.000000
 42
            1.000000
  3
MONOTXT
  0
ENDTAB
  0
TABLE
  2
VIEW
 70
     1
  0
ENDTAB
  0
ENDSEC
  0
SECTION
  2
BLOCKS
  0
BLOCK
  8
0
  2
ELLIPSE
 70
     0
 10
             .000000
 20
             .000000
  0
CIRCLE
  8
0
 10
             .000000
 20
             .000000
 40
            1.000000
  0
ENDBLK
  8
0
  0
BLOCK
  8
0
  2
*d1
 70
    65
 10
             .000000
 20
             .000000
  0
TEXT
  8
0
 10
           -8.539999
 20
           22.049990
 40
            3.000000
  1
20
 50
             .000000
 41
            1.000000
 72
     1
 11
           -5.539999
 21
           22.049990
  0
CIRCLE
  8
0
 10
          -14.200000
 20
           21.299990
 40
             .761999
  0
LINE
  8
0
 10
             .000000
 20
           21.299990
 11
          -14.200000
 21
           21.299990
  0
LINE
  8
0
 10
             .000000
 20
           12.756890
 11
             .000000
 21
           22.823990
  0
LINE
  8
0
 10
          -14.200000
 20
           12.549600
 11
          -14.200000
 21
           22.823990
  0
ENDBLK
  8
0
  0
BLOCK
  8
0
  2
*d2
 70
    65
 10
             .000000
 20
             .000000
  0
TEXT
  8
0
 10
            5.661337
 20
           22.052550
 40
            3.000000
  1
20
 50
          359.899900
 41
            1.000000
 72
     1
 11
            8.661333
 21
           22.047210
  0
CIRCLE
  8
0
 10
             .000000
 20
           21.299990
 40
             .761999
  0
LINE
  8
0
 10
           14.200000
 20
           21.299990
 11
           11.200060
 21
           20.299850
  0
LINE
  8
0
 10
           14.200000
 20
           21.299990
 11
           11.200060
 21
           22.300140
  0
LINE
  8
0
 10
             .000000
 20
           21.299990
 11
           14.200000
 21
           21.299990
  0
LINE
  8
0
 10
             .000000
 20
           12.756890
 11
             .000000
 21
           22.823990
  0
LINE
  8
0
 10
           14.200000
 20
           16.499010
 11
           14.200000
 21
           22.823990
  0
ENDBLK
  8
0
  0
BLOCK
  8
0
  2
*d3
 70
    65
 10
             .000000
 20
             .000000
  0
TEXT
  8
0
 10
          -19.188660
 20
           22.052550
 40
            3.000000
  1
10
 50
          359.899900
 41
            1.000000
 72
     1
 11
          -16.188670
 21
           22.047210
  0
LINE
  8
0
 10
          -21.299990
 20
           21.299990
 11
          -24.299940
 21
           20.299850
  0
LINE
  8
0
 10
          -21.299990
 20
           21.299990
 11
          -24.299940
 21
           22.300140
  0
LINE
  8
0
 10
          -29.205670
 20
           21.299990
 11
          -21.299990
 21
           21.299990
  0
LINE
  8
0
 10
          -21.299990
 20
           21.299990
 11
          -14.200000
 21
           21.299990
  0
LINE
  8
0
 10
          -21.299990
 20
            7.099999
 11
          -21.299990
 21
           22.823990
  0
LINE
  8
0
 10
          -14.200000
 20
           12.549600
 11
          -14.200000
 21
           22.823990
  0
ENDBLK
  8
0
  0
BLOCK
  8
0
  2
*d4
 70
    65
 10
             .000000
 20
             .000000
  0
TEXT
  8
0
 10
           -1.438662
 20
           29.152560
 40
            3.000000
  1
60
 50
          359.899900
 41
            1.000000
 72
     1
 11
            1.561333
 21
           29.147210
  0
LINE
  8
0
 10
          -21.299990
 20
           28.399990
 11
          -18.300050
 21
           29.400150
  0
LINE
  8
0
 10
          -21.299990
 20
           28.399990
 11
          -18.300050
 21
           27.399840
  0
LINE
  8
0
 10
           21.299990
 20
           28.399990
 11
           18.300050
 21
           27.399840
  0
LINE
  8
0
 10
           21.299990
 20
           28.399990
 11
           18.300050
 21
           29.400150
  0
LINE
  8
0
 10
          -21.299990
 20
           28.399990
 11
           21.299990
 21
           28.399990
  0
LINE
  8
0
 10
          -21.299990
 20
            7.099999
 11
          -21.299990
 21
           29.924000
  0
LINE
  8
0
 10
           21.299990
 20
            7.099999
 11
           21.299990
 21
           29.924000
  0
ENDBLK
  8
0
  0
BLOCK
  8
0
  2
*d5
 70
    65
 10
             .000000
 20
             .000000
  0
TEXT
  8
0
 10
          -29.150010
 20
            5.660007
 40
            3.000000
  1
20
 50
           90.000000
 41
            1.000000
 72
     1
 11
          -29.149980
 21
            8.660007
  0
LINE
  8
0
 10
          -28.399990
 20
           14.200000
 11
          -27.399840
 21
           11.200060
  0
LINE
  8
0
 10
          -28.399990
 20
           14.200000
 11
          -29.400130
 21
           11.200060
  0
LINE
  8
0
 10
          -28.399990
 20
             .000000
 11
          -29.400130
 21
            2.999943
  0
LINE
  8
0
 10
          -28.399990
 20
             .000000
 11
          -27.399840
 21
            2.999943
  0
LINE
  8
0
 10
          -28.399990
 20
           14.200000
 11
          -28.399990
 21
             .000000
  0
LINE
  8
0
 10
          -14.200000
 20
           14.200000
 11
          -29.924000
 21
           14.200000
  0
LINE
  8
0
 10
          -14.200000
 20
             .000000
 11
          -29.924000
 21
             .000000
  0
ENDBLK
  8
0
  0
BLOCK
  8
0
  2
*d6
 70
    65
 10
             .000000
 20
             .000000
  0
TEXT
  8
0
 10
           22.922310
 20
           -6.342309
 40
            3.000000
  1
10.5
 50
          359.899900
 41
            1.000000
 72
     1
 11
           28.922300
 21
           -6.352992
  0
LINE
  8
0
 10
           17.927490
 20
           -7.099999
 11
           34.305970
 21
           -7.099999
  0
LINE
  8
0
 10
           10.472500
 20
           -7.099999
 11
            7.472556
 21
           -8.100146
  0
LINE
  8
0
 10
           10.472500
 20
           -7.099999
 11
            7.472556
 21
           -6.099854
  0
LINE
  8
0
 10
           17.927490
 20
           -7.099999
 11
           20.927430
 21
           -6.099854
  0
LINE
  8
0
 10
           17.927490
 20
           -7.099999
 11
           20.927430
 21
           -8.100146
  0
LINE
  8
0
 10
            2.566825
 20
           -7.099999
 11
           10.472500
 21
           -7.099999
  0
LINE
  8
0
 10
           25.833180
 20
           -7.099999
 11
           17.927490
 21
           -7.099999
  0
LINE
  8
0
 10
           10.472500
 20
           -7.099999
 11
           17.927490
 21
           -7.099999
  0
LINE
  8
0
 10
           10.472500
 20
            7.099999
 11
           10.472500
 21
           -8.623999
  0
LINE
  8
0
 10
           17.927490
 20
            7.099999
 11
           17.927490
 21
           -8.623999
  0
ENDBLK
  8
0
  0
BLOCK
  8
0
  2
*d7
 70
    65
 10
             .000000
 20
             .000000
  0
TEXT
  8
0
 10
          -29.150000
 20
          -46.531690
 40
            3.000000
  1
3
 50
           90.000000
 41
            1.000000
 72
     1
 11
          -29.149980
 21
          -45.031690
  0
LINE
  8
0
 10
          -28.399990
 20
          -42.659990
 11
          -28.399990
 21
          -49.096690
  0
LINE
  8
0
 10
          -28.399990
 20
          -40.529980
 11
          -29.400150
 21
          -37.530040
  0
LINE
  8
0
 10
          -28.399990
 20
          -40.529980
 11
          -27.399840
 21
          -37.530040
  0
LINE
  8
0
 10
          -28.399990
 20
          -42.659990
 11
          -27.399840
 21
          -45.659930
  0
LINE
  8
0
 10
          -28.399990
 20
          -42.659990
 11
          -29.400130
 21
          -45.659930
  0
LINE
  8
0
 10
          -28.399990
 20
          -32.624310
 11
          -28.399990
 21
          -40.529980
  0
LINE
  8
0
 10
          -28.399990
 20
          -50.565660
 11
          -28.399990
 21
          -42.659990
  0
LINE
  8
0
 10
          -28.399990
 20
          -40.529980
 11
          -28.399990
 21
          -42.659990
  0
LINE
  8
0
 10
          -21.299990
 20
          -40.529980
 11
          -29.924000
 21
          -40.529980
  0
LINE
  8
0
 10
          -21.299990
 20
          -42.659990
 11
          -29.924000
 21
          -42.659990
  0
ENDBLK
  8
0
  0
BLOCK
  8
0
  2
*d8
 70
    65
 10
             .000000
 20
             .000000
  0
TEXT
  8
0
 10
           27.647470
 20
          -39.483670
 40
            3.000000
  1
13
 50
           89.899990
 41
            1.000000
 72
     1
 11
           27.652730
 21
          -36.483670
  0
LINE
  8
0
 10
           28.399990
 20
          -42.659990
 11
           29.400150
 21
          -45.659930
  0
LINE
  8
0
 10
           28.399990
 20
          -42.659990
 11
           27.399840
 21
          -45.659930
  0
LINE
  8
0
 10
           28.399990
 20
          -33.429980
 11
           27.399840
 21
          -30.430040
  0
LINE
  8
0
 10
           28.399990
 20
          -33.429980
 11
           29.400130
 21
          -30.430040
  0
LINE
  8
0
 10
           28.399990
 20
          -50.565660
 11
           28.399990
 21
          -42.659990
  0
LINE
  8
0
 10
           28.399990
 20
          -25.524310
 11
           28.399990
 21
          -33.429980
  0
LINE
  8
0
 10
           28.399990
 20
          -42.659990
 11
           28.399990
 21
          -33.429980
  0
LINE
  8
0
 10
           21.299990
 20
          -42.659990
 11
           29.924000
 21
          -42.659990
  0
LINE
  8
0
 10
           19.524990
 20
          -33.429980
 11
           29.924000
 21
          -33.429980
  0
ENDBLK
  8
0
  0
BLOCK
  8
0
  2
*d9
 70
    65
 10
             .000000
 20
             .000000
  0
TEXT
  8
0
 10
           11.321340
 20
          -25.574860
 40
            3.000000
  1
%%C15
 50
          359.899900
 41
            1.000000
 72
     1
 11
           15.821330
 21
          -25.582870
  0
LINE
  8
0
 10
            8.875000
 20
          -26.329990
 11
            5.875056
 21
          -27.330120
  0
LINE
  8
0
 10
            8.875000
 20
          -26.329990
 11
            5.875056
 21
          -25.329830
  0
LINE
  8
0
 10
           19.524990
 20
          -26.329990
 11
           22.524930
 21
          -25.329830
  0
LINE
  8
0
 10
           19.524990
 20
          -26.329990
 11
           22.524930
 21
          -27.330120
  0
LINE
  8
0
 10
             .969325
 20
          -26.329990
 11
            8.875000
 21
          -26.329990
  0
LINE
  8
0
 10
           27.430660
 20
          -26.329990
 11
           19.524990
 21
          -26.329990
  0
LINE
  8
0
 10
            8.875000
 20
          -26.329990
 11
           19.524990
 21
          -26.329990
  0
LINE
  8
0
 10
            8.875000
 20
          -33.429980
 11
            8.875000
 21
          -24.805980
  0
LINE
  8
0
 10
           19.524990
 20
          -33.429980
 11
           19.524990
 21
          -24.805980
  0
ENDBLK
  8
0
  0
BLOCK
  8
0
  2
*d10
 70
    65
 10
             .000000
 20
             .000000
  0
TEXT
  8
0
 10
          -30.910000
 20
          -25.572300
 40
            3.000000
  1
%%C5.5
 50
          359.899900
 41
            1.000000
 72
     1
 11
          -24.910010
 21
          -25.582980
  0
LINE
  8
0
 10
          -16.152500
 20
          -26.329990
 11
          -33.656330
 21
          -26.329990
  0
LINE
  8
0
 10
          -16.152500
 20
          -26.329990
 11
          -19.152440
 21
          -27.330120
  0
LINE
  8
0
 10
          -16.152500
 20
          -26.329990
 11
          -19.152440
 21
          -25.329830
  0
LINE
  8
0
 10
          -12.247500
 20
          -26.329990
 11
           -9.247556
 21
          -25.329830
  0
LINE
  8
0
 10
          -12.247500
 20
          -26.329990
 11
           -9.247556
 21
          -27.330120
  0
LINE
  8
0
 10
          -24.058170
 20
          -26.329990
 11
          -16.152500
 21
          -26.329990
  0
LINE
  8
0
 10
           -4.341825
 20
          -26.329990
 11
          -12.247500
 21
          -26.329990
  0
LINE
  8
0
 10
          -16.152500
 20
          -26.329990
 11
          -12.247500
 21
          -26.329990
  0
LINE
  8
0
 10
          -16.152500
 20
          -40.529980
 11
          -16.152500
 21
          -24.805980
  0
LINE
  8
0
 10
          -12.247500
 20
          -40.529980
 11
          -12.247500
 21
          -24.805980
  0
ENDBLK
  8
0
  0
ENDSEC
  0
SECTION
  2
ENTITIES
  0
TEXT
  8
999
 10
             .000000
 20
             .000000
 40
            1.000000
  1
AZ  , EINBAU, Z 9019 M01 01 4A SEB
 50
             .000000
 41
            1.000000
  0
LINE
  8
PV
 10
          -23.803360
 20
            7.099999
 11
           22.733460
 21
            7.099999
  6
CENTER
  0
LINE
  8
PV
 10
             .000000
 20
           12.756890
 11
             .000000
 21
            1.775972
  6
CENTER
  0
LINE
  8
PV
 10
           14.200000
 20
           16.499010
 11
           14.200000
 21
           -1.273372
  6
CENTER
  0
LINE
  8
PV
 10
          -14.200000
 20
           12.549600
 11
          -14.200000
 21
            1.590503
  6
CENTER
  0
LINE
  8
PV
 10
          -14.200000
 20
           14.200000
 11
           14.200000
 21
           14.200000
  0
LINE
  8
PV
 10
          -14.200000
 20
             .000000
 11
           14.200000
 21
             .000000
  0
ARC
  8
PV
 10
           14.200000
 20
            7.099999
 40
            7.099999
 50
          270.000000
 51
          450.000000
  0
ARC
  8
PV
 10
          -14.200000
 20
            7.099999
 40
            7.100000
 50
           90.000000
 51
          270.000000
  0
CIRCLE
  8
PV
 10
           14.200000
 20
            7.099999
 40
            3.727500
  0
CIRCLE
  8
PV
 10
             .000000
 20
            7.099999
 40
            3.549999
  0
CIRCLE
  8
PV
 10
          -14.200000
 20
            7.099999
 40
            3.549999
  0
CIRCLE
  8
PV
 10
           14.200000
 20
            7.099999
 40
            5.325000
  6
DASHED
  0
CIRCLE
  8
PV
 10
          -14.200000
 20
            7.099999
 40
            1.952499
  0
CIRCLE
  8
PV
 10
             .000000
 20
            7.099999
 40
            1.952499
  0
INSERT
  8
PV
  2
*d1
 10
             .000000
 20
             .000000
 41
            1.000000
 42
            1.000000
 43
            1.000000
 50
             .000000
  0
INSERT
  8
PV
  2
*d1
 10
             .000000
 20
             .000000
 41
            1.000000
 42
            1.000000
 43
            1.000000
 50
             .000000
  0
INSERT
  8
PV
  2
*d2
 10
             .000000
 20
             .000000
 41
            1.000000
 42
            1.000000
 43
            1.000000
 50
             .000000
  0
INSERT
  8
PV
  2
*d2
 10
             .000000
 20
             .000000
 41
            1.000000
 42
            1.000000
 43
            1.000000
 50
             .000000
  0
INSERT
  8
PV
  2
*d3
 10
             .000000
 20
             .000000
 41
            1.000000
 42
            1.000000
 43
            1.000000
 50
             .000000
  0
INSERT
  8
PV
  2
*d3
 10
             .000000
 20
             .000000
 41
            1.000000
 42
            1.000000
 43
            1.000000
 50
             .000000
  0
INSERT
  8
PV
  2
*d4
 10
             .000000
 20
             .000000
 41
            1.000000
 42
            1.000000
 43
            1.000000
 50
             .000000
  0
INSERT
  8
PV
  2
*d4
 10
             .000000
 20
             .000000
 41
            1.000000
 42
            1.000000
 43
            1.000000
 50
             .000000
  0
INSERT
  8
PV
  2
*d5
 10
             .000000
 20
             .000000
 41
            1.000000
 42
            1.000000
 43
            1.000000
 50
             .000000
  0
INSERT
  8
PV
  2
*d5
 10
             .000000
 20
             .000000
 41
            1.000000
 42
            1.000000
 43
            1.000000
 50
             .000000
  0
INSERT
  8
PV
  2
*d6
 10
             .000000
 20
             .000000
 41
            1.000000
 42
            1.000000
 43
            1.000000
 50
             .000000
  0
INSERT
  8
PV
  2
*d6
 10
             .000000
 20
             .000000
 41
            1.000000
 42
            1.000000
 43
            1.000000
 50
             .000000
  0
LINE
  8
DR
 10
           21.299990
 20
          -40.529980
 11
          -21.299990
 21
          -40.529980
  0
LINE
  8
DR
 10
           21.299990
 20
          -40.529980
 11
           21.299990
 21
          -42.659990
  0
LINE
  8
DR
 10
          -21.299990
 20
          -40.529980
 11
          -21.299990
 21
          -42.659990
  0
LINE
  8
DR
 10
           21.299990
 20
          -42.659990
 11
          -21.299990
 21
          -42.659990
  0
LINE
  8
DR
 10
          -14.200000
 20
          -37.792740
 11
          -14.200000
 21
          -44.511430
  6
CENTER
  0
LINE
  8
DR
 10
             .000000
 20
          -37.672930
 11
             .000000
 21
          -44.898500
  6
CENTER
  0
LINE
  8
DR
 10
           14.200000
 20
          -31.663890
 11
           14.200000
 21
          -44.622010
  6
CENTER
  0
LINE
  8
DR
 10
            8.875000
 20
          -33.429980
 11
            8.875000
 21
          -40.529980
  0
LINE
  8
DR
 10
           19.524990
 20
          -33.429980
 11
           19.524990
 21
          -40.529980
  0
LINE
  8
DR
 10
           19.524990
 20
          -33.429980
 11
            8.875000
 21
          -33.429980
  0
LINE
  8
DR
 10
          -17.750000
 20
          -42.446980
 11
          -17.750000
 21
          -42.659990
  0
LINE
  8
DR
 10
          -10.650000
 20
          -42.446980
 11
          -10.650000
 21
          -42.659990
  0
LINE
  8
DR
 10
          -10.650000
 20
          -42.446980
 11
          -17.750000
 21
          -42.446980
  0
LINE
  8
DR
 10
          -16.152500
 20
          -40.849490
 11
          -17.749980
 21
          -42.446980
  0
LINE
  8
DR
 10
          -10.650000
 20
          -42.446980
 11
          -12.247500
 21
          -40.849490
  0
LINE
  8
DR
 10
          -16.152500
 20
          -40.529980
 11
          -16.152500
 21
          -40.849490
  0
LINE
  8
DR
 10
          -12.247500
 20
          -40.529980
 11
          -12.247500
 21
          -40.849490
  0
LINE
  8
DR
 10
          -16.152500
 20
          -40.849490
 11
          -12.247500
 21
          -40.849490
  0
LINE
  8
DR
 10
          -12.759920
 20
          -41.656740
 11
          -22.531170
 21
          -58.581050
  0
LINE
  8
DR
 10
          -22.531170
 20
          -58.581050
 11
          -69.567080
 21
          -58.581050
  0
POLYLINE
  8
DR
 66
     1
 70
     0
 40
             .000000
 41
             .000000
  6
DASHED
  0
VERTEX
  8
DR
 10
           -7.171292
 20
          -40.530670
 40
             .000000
 41
             .000000
 42
             .000000
 70
     0
 50
             .000000
  6
DASHED
  0
VERTEX
  8
DR
 10
           -7.108795
 20
          -40.774520
 40
             .000000
 41
             .000000
 42
             .000000
 70
     0
 50
             .000000
  6
DASHED
  0
VERTEX
  8
DR
 10
           -6.989868
 20
          -41.218550
 40
             .000000
 41
             .000000
 42
             .000000
 70
     0
 50
             .000000
  6
DASHED
  0
VERTEX
  8
DR
 10
           -6.925351
 20
          -41.439130
 40
             .000000
 41
             .000000
 42
             .000000
 70
     0
 50
             .000000
  6
DASHED
  0
VERTEX
  8
DR
 10
           -6.886204
 20
          -41.564500
 40
             .000000
 41
             .000000
 42
             .000000
 70
     0
 50
             .000000
  6
DASHED
  0
VERTEX
  8
DR
 10
           -6.838922
 20
          -41.715530
 40
             .000000
 41
             .000000
 42
             .000000
 70
     0
 50
             .000000
  6
DASHED
  0
VERTEX
  8
DR
 10
           -6.773304
 20
          -41.916130
 40
             .000000
 41
             .000000
 42
             .000000
 70
     0
 50
             .000000
  6
DASHED
  0
VERTEX
  8
DR
 10
           -6.693129
 20
          -42.167440
 40
             .000000
 41
             .000000
 42
             .000000
 70
     0
 50
             .000000
  6
DASHED
  0
VERTEX
  8
DR
 10
           -6.599289
 20
          -42.469730
 40
             .000000
 41
             .000000
 42
             .000000
 70
     0
 50
             .000000
  6
DASHED
  0
VERTEX
  8
DR
 10
           -6.546236
 20
          -42.659580
 40
             .000000
 41
             .000000
 42
             .000000
 70
     0
 50
             .000000
  6
DASHED
  0
SEQEND
  8
DR
  6
DASHED
  0
TEXT
  8
DR
 10
          -64.924040
 20
          -57.031800
 40
            3.000000
  1
Senkung DIN 74-Af5
 50
             .000000
 41
             .714286
  0
INSERT
  8
DR
  2
*d7
 10
             .000000
 20
             .000000
 41
            1.000000
 42
            1.000000
 43
            1.000000
 50
             .000000
  0
INSERT
  8
DR
  2
*d7
 10
             .000000
 20
             .000000
 41
            1.000000
 42
            1.000000
 43
            1.000000
 50
             .000000
  0
INSERT
  8
DR
  2
*d8
 10
             .000000
 20
             .000000
 41
            1.000000
 42
            1.000000
 43
            1.000000
 50
             .000000
  0
INSERT
  8
DR
  2
*d8
 10
             .000000
 20
             .000000
 41
            1.000000
 42
            1.000000
 43
            1.000000
 50
             .000000
  0
INSERT
  8
DR
  2
*d9
 10
             .000000
 20
             .000000
 41
            1.000000
 42
            1.000000
 43
            1.000000
 50
             .000000
  0
INSERT
  8
DR
  2
*d9
 10
             .000000
 20
             .000000
 41
            1.000000
 42
            1.000000
 43
            1.000000
 50
             .000000
  0
INSERT
  8
DR
  2
*d10
 10
             .000000
 20
             .000000
 41
            1.000000
 42
            1.000000
 43
            1.000000
 50
             .000000
  0
INSERT
  8
DR
  2
*d10
 10
             .000000
 20
             .000000
 41
            1.000000
 42
            1.000000
 43
            1.000000
 50
             .000000
  0
LINE
  8
RA
 10
           92.027770
 20
          114.354500
 11
           92.027770
 21
         -182.645500
  0
LINE
  8
RA
 10
         -117.972200
 20
          114.354500
 11
           92.027770
 21
          114.354500
  0
LINE
  8
RA
 10
         -117.972200
 20
         -182.645500
 11
           92.027770
 21
         -182.645500
  0
LINE
  8
RA
 10
           97.335940
 20
          121.410300
 11
         -122.664100
 21
          121.410300
  6
DOT
  0
LINE
  8
RA
 10
           97.335940
 20
          121.410300
 11
           97.335940
 21
         -188.589800
  6
DOT
  0
LINE
  8
RA
 10
          -72.972230
 20
         -137.645500
 11
          -72.972230
 21
         -177.645500
  0
LINE
  8
RA
 10
          -72.972230
 20
         -137.645500
 11
           87.027770
 21
         -137.645500
  0
LINE
  8
RA
 10
          -72.972230
 20
         -152.645500
 11
           47.027770
 21
         -152.645500
  0
LINE
  8
RA
 10
           47.027770
 20
         -137.645500
 11
           47.027770
 21
         -177.645500
  0
LINE
  8
RA
 10
          -99.972230
 20
          109.354500
 11
          -99.972230
 21
         -177.645500
  0
LINE
  8
RA
 10
          -99.972230
 20
         -177.645500
 11
           87.027770
 21
         -177.645500
  0
LINE
  8
RA
 10
           87.027770
 20
          109.354500
 11
           87.027770
 21
         -177.645500
  0
LINE
  8
RA
 10
          -99.972230
 20
          109.354500
 11
           87.027770
 21
          109.354500
  0
LINE
  8
RA
 10
         -117.972200
 20
          114.354500
 11
         -117.972200
 21
         -182.645500
  0
TEXT
  8
RA
 10
         -106.840900
 20
         -166.808800
 40
            3.000000
  1
Z 9019 M01 01 4A
 50
           90.000000
 41
             .714286
  0
TEXT
  8
RA
 10
          -98.943380
 20
         -174.965200
 40
            2.000000
  1
17.02.94 Brammertz
 50
             .000000
 41
             .714285
  0
TEXT
  8
RA
 10
          -69.210310
 20
         -174.861100
 40
            3.000000
  1
Stangenführungsplatte "BKS 9019"
 50
             .000000
 41
             .714286
  0
ENDSEC
  0
EOF
