  0
SECTION
  2
HEADER
  9
$ACADVER
  1
AC1006
  9
$EXTMIN
 10
2.100000
 20
2.100010
  9
$EXTMAX
 10
422.100037
 20
299.100006
  0
ENDSEC
  0
SECTION
  2
TABLES
  0
TABLE
  2
LTYPE
 70
   5
  0
LTYPE
  2
CONTINUOUS
 70
64
  3
durchgezogen
 72
65
 73
0
 40
0.000000
  0
LTYPE
  2
DASHDOT
 70
64
  3
strichpunktiert
 72
65
 73
4
 40
10.000000
 49
5.000000
 49
-2.500000
 49
0
 49
-2.500000
  0
LTYPE
  2
DASHED
 70
64
  3
strichliert
 72
65
 73
2
 40
10.000000
 49
6.667000
 49
-3.333000
  0
LTYPE
  2
DIVIDE
 70
64
  3
strichpunktpunkt
 72
65
 73
6
 40
10.000000
 49
4.000000
 49
-2.000000
 49
0
 49
-2.000000
 49
0
 49
-2.000000
  0
LTYPE
  2
DOT
 70
64
  3
punktiert
 72
65
 73
2
 40
10.000000
 49
0.000000
 49
-10.000000
  0
ENDTAB
  0
TABLE
  2
LAYER
 70
1
  0
LAYER
  2
Nr0001-Geometrie
 70
0
 62
2
  6
CONTINUOUS
  0
ENDTAB
  0
ENDSEC
  0
SECTION
  2
ENTITIES
999
Zeichnungsname aus PRISMA:
999
F:\S~ID1~EZ\RITZDAT.ISY
999
Geometrie-Elemente
  0
LINE
  8
Nr0001-Geometrie
 62
253
 10
71.402992
 20
224.285004
 11
286.402985
 21
224.285004
  0
LINE
  8
Nr0001-Geometrie
 62
253
 10
352.402985
 20
224.285004
 11
352.402985
 21
261.785004
  0
LINE
  8
Nr0001-Geometrie
 62
253
 10
352.402985
 20
261.785004
 11
71.402992
 21
261.785004
  0
LINE
  8
Nr0001-Geometrie
 62
253
 10
71.402992
 20
261.785004
 11
71.402992
 21
224.285004
  0
CIRCLE
  8
Nr0001-Geometrie
 62
253
 10
345.903015
 20
255.285019
 40
4.000000
  0
CIRCLE
  8
Nr0001-Geometrie
 62
253
 10
77.902992
 20
255.285019
 40
4.000000
  0
CIRCLE
  8
Nr0001-Geometrie
 62
253
 10
345.903015
 20
233.285004
 40
4.000000
  0
CIRCLE
  8
Nr0001-Geometrie
 62
253
 10
77.902992
 20
233.285004
 40
4.000000
  0
LINE
  8
Nr0001-Geometrie
 62
253
 10
286.402985
 20
224.285004
 11
294.403015
 21
224.285004
  0
LINE
  8
Nr0001-Geometrie
 62
253
 10
294.403015
 20
224.285004
 11
312.102997
 21
224.285004
  0
LINE
  8
Nr0001-Geometrie
 62
253
 10
312.102997
 20
224.285004
 11
317.303009
 21
224.285004
  0
LINE
  8
Nr0001-Geometrie
 62
253
 10
317.303009
 20
224.285004
 11
352.402985
 21
224.285004
  0
ARC
  8
Nr0001-Geometrie
 62
10
 10
314.703003
 20
247.285004
 40
7.499993
 50
339.000025
 51
20.999975
  0
ARC
  8
Nr0001-Geometrie
 62
10
 10
314.703003
 20
247.285004
 40
7.500002
 50
38.999951
 51
81.000085
  0
ARC
  8
Nr0001-Geometrie
 62
10
 10
314.703003
 20
247.285004
 40
7.500001
 50
99.000146
 51
141.000049
  0
ARC
  8
Nr0001-Geometrie
 62
10
 10
314.703003
 20
247.285004
 40
7.499995
 50
159.000025
 51
200.999975
  0
ARC
  8
Nr0001-Geometrie
 62
10
 10
314.703003
 20
247.285004
 40
7.500000
 50
218.999951
 51
260.999836
  0
ARC
  8
Nr0001-Geometrie
 62
10
 10
314.703003
 20
247.285004
 40
7.499999
 50
278.999934
 51
321.000230
  0
LINE
  8
Nr0001-Geometrie
 62
10
 10
71.402992
 20
226.785004
 11
75.750816
 21
226.785004
  0
LINE
  8
Nr0001-Geometrie
 62
10
 10
79.087776
 20
226.785004
 11
83.435600
 21
226.785004
  0
LINE
  8
Nr0001-Geometrie
 62
10
 10
86.772552
 20
226.785004
 11
91.120384
 21
226.785004
  0
LINE
  8
Nr0001-Geometrie
 62
10
 10
94.457336
 20
226.785004
 11
98.805161
 21
226.785004
  0
LINE
  8
Nr0001-Geometrie
 62
10
 10
102.142120
 20
226.785004
 11
106.489944
 21
226.785004
  0
LINE
  8
Nr0001-Geometrie
 62
10
 10
109.826897
 20
226.785004
 11
114.174728
 21
226.785004
  0
LINE
  8
Nr0001-Geometrie
 62
10
 10
117.511688
 20
226.785004
 11
121.859512
 21
226.785004
  0
LINE
  8
Nr0001-Geometrie
 62
10
 10
125.196472
 20
226.785004
 11
129.544296
 21
226.785004
  0
LINE
  8
Nr0001-Geometrie
 62
10
 10
132.881256
 20
226.785004
 11
137.229080
 21
226.785004
  0
LINE
  8
Nr0001-Geometrie
 62
10
 10
140.566040
 20
226.785004
 11
144.913864
 21
226.785004
  0
LINE
  8
Nr0001-Geometrie
 62
10
 10
148.250824
 20
226.785004
 11
152.598648
 21
226.785004
  0
LINE
  8
Nr0001-Geometrie
 62
10
 10
155.935608
 20
226.785004
 11
160.283432
 21
226.785004
  0
LINE
  8
Nr0001-Geometrie
 62
10
 10
163.620392
 20
226.785004
 11
167.968216
 21
226.785004
  0
LINE
  8
Nr0001-Geometrie
 62
10
 10
171.305176
 20
226.785004
 11
175.653000
 21
226.785004
  0
LINE
  8
Nr0001-Geometrie
 62
10
 10
178.989960
 20
226.785004
 11
183.337784
 21
226.785004
  0
LINE
  8
Nr0001-Geometrie
 62
10
 10
186.674744
 20
226.785004
 11
191.022568
 21
226.785004
  0
LINE
  8
Nr0001-Geometrie
 62
10
 10
194.359528
 20
226.785004
 11
198.707352
 21
226.785004
  0
LINE
  8
Nr0001-Geometrie
 62
10
 10
202.044312
 20
226.785004
 11
206.392136
 21
226.785004
  0
LINE
  8
Nr0001-Geometrie
 62
10
 10
209.729095
 20
226.785004
 11
214.076920
 21
226.785004
  0
LINE
  8
Nr0001-Geometrie
 62
10
 10
217.413879
 20
226.785004
 11
221.761703
 21
226.785004
  0
LINE
  8
Nr0001-Geometrie
 62
10
 10
225.098663
 20
226.785004
 11
229.446487
 21
226.785004
  0
LINE
  8
Nr0001-Geometrie
 62
10
 10
232.783432
 20
226.785004
 11
237.131271
 21
226.785004
  0
LINE
  8
Nr0001-Geometrie
 62
10
 10
240.468216
 20
226.785004
 11
244.816055
 21
226.785004
  0
LINE
  8
Nr0001-Geometrie
 62
10
 10
248.153000
 20
226.785004
 11
252.500839
 21
226.785004
  0
LINE
  8
Nr0001-Geometrie
 62
10
 10
255.837784
 20
226.785004
 11
260.185608
 21
226.785004
  0
LINE
  8
Nr0001-Geometrie
 62
10
 10
263.522583
 20
226.785004
 11
267.870422
 21
226.785004
  0
LINE
  8
Nr0001-Geometrie
 62
10
 10
271.207336
 20
226.785004
 11
275.555176
 21
226.785004
  0
LINE
  8
Nr0001-Geometrie
 62
10
 10
278.892151
 20
226.785004
 11
283.239990
 21
226.785004
  0
LINE
  8
Nr0001-Geometrie
 62
10
 10
286.576904
 20
226.785004
 11
290.924744
 21
226.785004
  0
LINE
  8
Nr0001-Geometrie
 62
10
 10
294.261719
 20
226.785004
 11
298.609558
 21
226.785004
  0
LINE
  8
Nr0001-Geometrie
 62
10
 10
301.946472
 20
226.785004
 11
306.294312
 21
226.785004
  0
LINE
  8
Nr0001-Geometrie
 62
10
 10
309.631287
 20
226.785004
 11
313.979126
 21
226.785004
  0
LINE
  8
Nr0001-Geometrie
 62
10
 10
317.316040
 20
226.785004
 11
321.663879
 21
226.785004
  0
LINE
  8
Nr0001-Geometrie
 62
10
 10
325.000854
 20
226.785004
 11
329.348694
 21
226.785004
  0
LINE
  8
Nr0001-Geometrie
 62
10
 10
332.685608
 20
226.785004
 11
337.033447
 21
226.785004
  0
LINE
  8
Nr0001-Geometrie
 62
10
 10
340.370422
 20
226.785004
 11
344.718262
 21
226.785004
  0
LINE
  8
Nr0001-Geometrie
 62
10
 10
348.055176
 20
226.785004
 11
352.403015
 21
226.785004
  0
LINE
  8
Nr0001-Geometrie
 62
10
 10
352.402985
 20
226.785004
 11
352.402985
 21
230.060883
  0
LINE
  8
Nr0001-Geometrie
 62
10
 10
352.402985
 20
233.129852
 11
352.402985
 21
236.405701
  0
LINE
  8
Nr0001-Geometrie
 62
10
 10
352.402985
 20
239.474655
 11
352.402985
 21
242.750534
  0
LINE
  8
Nr0001-Geometrie
 62
10
 10
352.402985
 20
245.819489
 11
352.402985
 21
249.095367
  0
LINE
  8
Nr0001-Geometrie
 62
10
 10
352.402985
 20
252.164322
 11
352.402985
 21
255.440186
  0
LINE
  8
Nr0001-Geometrie
 62
10
 10
352.402985
 20
258.509155
 11
352.402985
 21
261.785004
  0
LINE
  8
Nr0001-Geometrie
 62
10
 10
71.402992
 20
261.785004
 11
74.508255
 21
261.785004
  0
LINE
  8
Nr0001-Geometrie
 62
10
 10
77.534569
 20
261.785004
 11
80.639839
 21
261.785004
  0
LINE
  8
Nr0001-Geometrie
 62
10
 10
83.666153
 20
261.785004
 11
86.771408
 21
261.785004
  0
LINE
  8
Nr0001-Geometrie
 62
10
 10
89.797729
 20
261.785004
 11
92.902992
 21
261.785004
  0
LINE
  8
Nr0001-Geometrie
 62
10
 10
92.902992
 20
261.785004
 11
96.709198
 21
261.785004
  0
LINE
  8
Nr0001-Geometrie
 62
10
 10
99.910744
 20
261.785004
 11
103.716949
 21
261.785004
  0
LINE
  8
Nr0001-Geometrie
 62
10
 10
106.918495
 20
261.785004
 11
110.724701
 21
261.785004
  0
LINE
  8
Nr0001-Geometrie
 62
10
 10
113.926247
 20
261.785004
 11
117.732452
 21
261.785004
  0
LINE
  8
Nr0001-Geometrie
 62
10
 10
120.933998
 20
261.785004
 11
124.740204
 21
261.785004
  0
LINE
  8
Nr0001-Geometrie
 62
10
 10
127.941750
 20
261.785004
 11
131.747955
 21
261.785004
  0
LINE
  8
Nr0001-Geometrie
 62
10
 10
134.949509
 20
261.785004
 11
138.755707
 21
261.785004
  0
LINE
  8
Nr0001-Geometrie
 62
10
 10
141.957260
 20
261.785004
 11
145.763458
 21
261.785004
  0
LINE
  8
Nr0001-Geometrie
 62
10
 10
148.965012
 20
261.785004
 11
152.771210
 21
261.785004
  0
LINE
  8
Nr0001-Geometrie
 62
10
 10
155.972763
 20
261.785004
 11
159.778961
 21
261.785004
  0
LINE
  8
Nr0001-Geometrie
 62
10
 10
162.980515
 20
261.785004
 11
166.786713
 21
261.785004
  0
LINE
  8
Nr0001-Geometrie
 62
10
 10
169.988266
 20
261.785004
 11
173.794464
 21
261.785004
  0
LINE
  8
Nr0001-Geometrie
 62
10
 10
176.996017
 20
261.785004
 11
180.802216
 21
261.785004
  0
LINE
  8
Nr0001-Geometrie
 62
10
 10
184.003769
 20
261.785004
 11
187.809967
 21
261.785004
  0
LINE
  8
Nr0001-Geometrie
 62
10
 10
191.011520
 20
261.785004
 11
194.817719
 21
261.785004
  0
LINE
  8
Nr0001-Geometrie
 62
10
 10
198.019272
 20
261.785004
 11
201.825470
 21
261.785004
  0
LINE
  8
Nr0001-Geometrie
 62
10
 10
205.027023
 20
261.785004
 11
208.833221
 21
261.785004
  0
LINE
  8
Nr0001-Geometrie
 62
10
 10
212.034775
 20
261.785004
 11
215.840973
 21
261.785004
  0
LINE
  8
Nr0001-Geometrie
 62
10
 10
219.042526
 20
261.785004
 11
222.848724
 21
261.785004
  0
LINE
  8
Nr0001-Geometrie
 62
10
 10
226.050278
 20
261.785004
 11
229.856476
 21
261.785004
  0
LINE
  8
Nr0001-Geometrie
 62
10
 10
233.058014
 20
261.785004
 11
236.864227
 21
261.785004
  0
LINE
  8
Nr0001-Geometrie
 62
10
 10
240.065765
 20
261.785004
 11
243.871979
 21
261.785004
  0
LINE
  8
Nr0001-Geometrie
 62
10
 10
247.073517
 20
261.785004
 11
250.879730
 21
261.785004
  0
LINE
  8
Nr0001-Geometrie
 62
10
 10
254.081268
 20
261.785004
 11
257.887482
 21
261.785004
  0
LINE
  8
Nr0001-Geometrie
 62
10
 10
261.089020
 20
261.785004
 11
264.895233
 21
261.785004
  0
LINE
  8
Nr0001-Geometrie
 62
10
 10
268.096771
 20
261.785004
 11
271.902985
 21
261.785004
  0
LINE
  8
Nr0001-Geometrie
 62
10
 10
271.903015
 20
261.785004
 11
275.682648
 21
261.785004
  0
LINE
  8
Nr0001-Geometrie
 62
10
 10
278.877563
 20
261.785004
 11
282.657227
 21
261.785004
  0
LINE
  8
Nr0001-Geometrie
 62
10
 10
285.852142
 20
261.785004
 11
289.631805
 21
261.785004
  0
LINE
  8
Nr0001-Geometrie
 62
10
 10
292.826721
 20
261.785004
 11
296.606384
 21
261.785004
  0
LINE
  8
Nr0001-Geometrie
 62
10
 10
299.801300
 20
261.785004
 11
303.580963
 21
261.785004
  0
LINE
  8
Nr0001-Geometrie
 62
10
 10
306.775879
 20
261.785004
 11
310.555542
 21
261.785004
  0
LINE
  8
Nr0001-Geometrie
 62
10
 10
313.750458
 20
261.785004
 11
317.530151
 21
261.785004
  0
LINE
  8
Nr0001-Geometrie
 62
10
 10
320.725067
 20
261.785004
 11
324.504700
 21
261.785004
  0
LINE
  8
Nr0001-Geometrie
 62
10
 10
327.699615
 20
261.785004
 11
331.479309
 21
261.785004
  0
LINE
  8
Nr0001-Geometrie
 62
10
 10
334.674225
 20
261.785004
 11
338.453857
 21
261.785004
  0
LINE
  8
Nr0001-Geometrie
 62
10
 10
341.648804
 20
261.785004
 11
345.428467
 21
261.785004
  0
LINE
  8
Nr0001-Geometrie
 62
10
 10
348.623352
 20
261.785004
 11
352.403015
 21
261.785004
  0
LINE
  8
Nr0001-Geometrie
 62
10
 10
71.402992
 20
226.785004
 11
71.402992
 21
230.060883
  0
LINE
  8
Nr0001-Geometrie
 62
10
 10
71.402992
 20
233.129852
 11
71.402992
 21
236.405701
  0
LINE
  8
Nr0001-Geometrie
 62
10
 10
71.402992
 20
239.474655
 11
71.402992
 21
242.750534
  0
LINE
  8
Nr0001-Geometrie
 62
10
 10
71.402992
 20
245.819489
 11
71.402992
 21
249.095367
  0
LINE
  8
Nr0001-Geometrie
 62
10
 10
71.402992
 20
252.164322
 11
71.402992
 21
255.440186
  0
LINE
  8
Nr0001-Geometrie
 62
10
 10
71.402992
 20
258.509155
 11
71.402992
 21
261.785004
  0
ARC
  8
Nr0001-Geometrie
 62
10
 10
211.903000
 20
235.285019
 40
3.200003
 50
317.999811
 51
41.999783
  0
ARC
  8
Nr0001-Geometrie
 62
10
 10
211.903000
 20
235.285019
 40
3.200000
 50
78.000308
 51
162.000145
  0
ARC
  8
Nr0001-Geometrie
 62
10
 10
211.903000
 20
235.285019
 40
3.199998
 50
198.000375
 51
281.999635
  0
ARC
  8
Nr0001-Geometrie
 62
10
 10
211.903000
 20
253.285004
 40
3.200003
 50
318.000217
 51
42.000189
  0
ARC
  8
Nr0001-Geometrie
 62
10
 10
211.903000
 20
253.285004
 40
3.200000
 50
78.000308
 51
161.999885
  0
ARC
  8
Nr0001-Geometrie
 62
10
 10
211.903000
 20
253.285004
 40
3.199998
 50
197.999855
 51
281.999692
  0
ARC
  8
Nr0001-Geometrie
 62
10
 10
211.903000
 20
235.285019
 40
5.750003
 50
334.799847
 51
25.200015
  0
ARC
  8
Nr0001-Geometrie
 62
10
 10
211.903000
 20
235.285019
 40
5.750000
 50
46.800059
 51
97.200075
  0
ARC
  8
Nr0001-Geometrie
 62
10
 10
211.903000
 20
235.285019
 40
5.749996
 50
118.800002
 51
169.200033
  0
ARC
  8
Nr0001-Geometrie
 62
10
 10
211.903000
 20
235.285019
 40
5.750000
 50
190.799967
 51
241.200071
  0
ARC
  8
Nr0001-Geometrie
 62
10
 10
211.903000
 20
235.285019
 40
5.749997
 50
262.800095
 51
313.199941
  0
ARC
  8
Nr0001-Geometrie
 62
10
 10
211.903000
 20
253.285004
 40
5.750003
 50
334.799985
 51
25.200153
  0
ARC
  8
Nr0001-Geometrie
 62
10
 10
211.903000
 20
253.285004
 40
5.750000
 50
46.799955
 51
97.200037
  0
ARC
  8
Nr0001-Geometrie
 62
10
 10
211.903000
 20
253.285004
 40
5.749996
 50
118.799856
 51
169.199884
  0
ARC
  8
Nr0001-Geometrie
 62
10
 10
211.903000
 20
253.285004
 40
5.750000
 50
190.799967
 51
241.199998
  0
ARC
  8
Nr0001-Geometrie
 62
10
 10
211.903000
 20
253.285004
 40
5.749997
 50
262.800076
 51
313.200045
  0
ARC
  8
Nr0001-Geometrie
 62
10
 10
334.403015
 20
235.285019
 40
3.199992
 50
317.999263
 51
42.000331
  0
ARC
  8
Nr0001-Geometrie
 62
10
 10
334.403015
 20
235.285019
 40
3.200014
 50
78.000041
 51
162.000398
  0
ARC
  8
Nr0001-Geometrie
 62
10
 10
334.403015
 20
235.285019
 40
3.199998
 50
198.000290
 51
281.999902
  0
ARC
  8
Nr0001-Geometrie
 62
10
 10
89.402992
 20
253.285004
 40
3.200000
 50
137.999811
 51
221.999783
  0
ARC
  8
Nr0001-Geometrie
 62
10
 10
89.402992
 20
253.285004
 40
3.200000
 50
258.000041
 51
342.000145
  0
ARC
  8
Nr0001-Geometrie
 62
10
 10
89.402992
 20
253.285004
 40
3.200001
 50
18.000115
 51
101.999959
  0
ARC
  8
Nr0001-Geometrie
 62
10
 10
89.402992
 20
235.285019
 40
3.200000
 50
138.000217
 51
222.000189
  0
ARC
  8
Nr0001-Geometrie
 62
10
 10
89.402992
 20
235.285019
 40
3.200000
 50
258.000098
 51
341.999625
  0
ARC
  8
Nr0001-Geometrie
 62
10
 10
89.402992
 20
235.285019
 40
3.200000
 50
17.999855
 51
101.999959
  0
ARC
  8
Nr0001-Geometrie
 62
10
 10
334.403015
 20
253.285004
 40
3.199992
 50
317.999669
 51
42.000737
  0
ARC
  8
Nr0001-Geometrie
 62
10
 10
334.403015
 20
253.285004
 40
3.200014
 50
78.000041
 51
162.000139
  0
ARC
  8
Nr0001-Geometrie
 62
10
 10
334.403015
 20
253.285004
 40
3.199998
 50
197.999771
 51
281.999959
  0
ARC
  8
Nr0001-Geometrie
 62
10
 10
334.403015
 20
235.285019
 40
5.750003
 50
334.799783
 51
25.200080
  0
ARC
  8
Nr0001-Geometrie
 62
10
 10
334.403015
 20
235.285019
 40
5.750000
 50
46.799948
 51
97.200377
  0
ARC
  8
Nr0001-Geometrie
 62
10
 10
334.403015
 20
235.285019
 40
5.750010
 50
118.800002
 51
169.200062
  0
ARC
  8
Nr0001-Geometrie
 62
10
 10
334.403015
 20
235.285019
 40
5.750000
 50
190.799938
 51
241.200071
  0
ARC
  8
Nr0001-Geometrie
 62
10
 10
334.403015
 20
235.285019
 40
5.750007
 50
262.799642
 51
313.200052
  0
ARC
  8
Nr0001-Geometrie
 62
10
 10
89.402992
 20
253.285004
 40
5.750000
 50
154.799880
 51
205.199983
  0
ARC
  8
Nr0001-Geometrie
 62
10
 10
89.402992
 20
253.285004
 40
5.750000
 50
226.799955
 51
277.200075
  0
ARC
  8
Nr0001-Geometrie
 62
10
 10
89.402992
 20
253.285004
 40
5.749999
 50
298.800069
 51
349.200048
  0
ARC
  8
Nr0001-Geometrie
 62
10
 10
89.402992
 20
253.285004
 40
5.749999
 50
10.800102
 51
61.200144
  0
ARC
  8
Nr0001-Geometrie
 62
10
 10
89.402992
 20
253.285004
 40
5.750001
 50
82.800038
 51
133.200101
  0
ARC
  8
Nr0001-Geometrie
 62
10
 10
89.402992
 20
235.285019
 40
5.750000
 50
154.800017
 51
205.200120
  0
ARC
  8
Nr0001-Geometrie
 62
10
 10
89.402992
 20
235.285019
 40
5.750000
 50
226.800003
 51
277.200056
  0
ARC
  8
Nr0001-Geometrie
 62
10
 10
89.402992
 20
235.285019
 40
5.750000
 50
298.800069
 51
349.200048
  0
ARC
  8
Nr0001-Geometrie
 62
10
 10
89.402992
 20
235.285019
 40
5.750000
 50
10.799952
 51
61.199998
  0
ARC
  8
Nr0001-Geometrie
 62
10
 10
89.402992
 20
235.285019
 40
5.750000
 50
82.800000
 51
133.199997
  0
ARC
  8
Nr0001-Geometrie
 62
10
 10
334.403015
 20
253.285004
 40
5.750003
 50
334.799920
 51
25.200217
  0
ARC
  8
Nr0001-Geometrie
 62
10
 10
334.403015
 20
253.285004
 40
5.750000
 50
46.799844
 51
97.200339
  0
ARC
  8
Nr0001-Geometrie
 62
10
 10
334.403015
 20
253.285004
 40
5.750011
 50
118.799856
 51
169.199913
  0
ARC
  8
Nr0001-Geometrie
 62
10
 10
334.403015
 20
253.285004
 40
5.750000
 50
190.799938
 51
241.199998
  0
ARC
  8
Nr0001-Geometrie
 62
10
 10
334.403015
 20
253.285004
 40
5.750007
 50
262.799623
 51
313.200156
  0
ARC
  8
Nr0001-Geometrie
 62
10
 10
345.903015
 20
244.285004
 40
2.458504
 50
318.000206
 51
41.999794
  0
ARC
  8
Nr0001-Geometrie
 62
10
 10
345.903015
 20
244.285004
 40
2.458493
 50
78.000318
 51
162.000133
  0
ARC
  8
Nr0001-Geometrie
 62
10
 10
345.903015
 20
244.285004
 40
2.458497
 50
197.999528
 51
281.999682
  0
ARC
  8
Nr0001-Geometrie
 62
10
 10
345.903015
 20
244.285004
 40
2.999997
 50
180.000000
 51
247.499618
  0
ARC
  8
Nr0001-Geometrie
 62
10
 10
345.903015
 20
244.285004
 40
3.000000
 50
276.428275
 51
343.928709
  0
ARC
  8
Nr0001-Geometrie
 62
10
 10
345.903015
 20
244.285004
 40
3.000000
 50
12.857355
 51
90.000000
  0
ARC
  8
Nr0001-Geometrie
 62
10
 10
77.902992
 20
244.285004
 40
2.458500
 50
138.000087
 51
221.999913
  0
ARC
  8
Nr0001-Geometrie
 62
10
 10
77.902992
 20
244.285004
 40
2.458500
 50
257.999970
 51
342.000307
  0
ARC
  8
Nr0001-Geometrie
 62
10
 10
77.902992
 20
244.285004
 40
2.458499
 50
18.000031
 51
101.999856
  0
ARC
  8
Nr0001-Geometrie
 62
10
 10
77.902992
 20
244.285004
 40
3.000000
 50
90.000000
 51
157.499887
  0
ARC
  8
Nr0001-Geometrie
 62
10
 10
77.902992
 20
244.285004
 40
2.999999
 50
186.428258
 51
253.928509
  0
ARC
  8
Nr0001-Geometrie
 62
10
 10
77.902992
 20
244.285004
 40
3.000000
 50
282.857213
 51
0.000000
  0
ARC
  8
Nr0001-Geometrie
 62
10
 10
314.703003
 20
247.285004
 40
7.499993
 50
339.000025
 51
20.999975
  0
ARC
  8
Nr0001-Geometrie
 62
10
 10
314.703003
 20
247.285004
 40
7.500002
 50
38.999951
 51
81.000085
  0
ARC
  8
Nr0001-Geometrie
 62
10
 10
314.703003
 20
247.285004
 40
7.500001
 50
99.000146
 51
141.000049
  0
ARC
  8
Nr0001-Geometrie
 62
10
 10
314.703003
 20
247.285004
 40
7.499995
 50
159.000025
 51
200.999975
  0
ARC
  8
Nr0001-Geometrie
 62
10
 10
314.703003
 20
247.285004
 40
7.500000
 50
218.999951
 51
260.999836
  0
ARC
  8
Nr0001-Geometrie
 62
10
 10
314.703003
 20
247.285004
 40
7.499999
 50
278.999934
 51
321.000230
  0
LINE
  8
Nr0001-Geometrie
 62
253
 10
92.902992
 20
263.285004
 11
271.903015
 21
263.285004
  0
LINE
  8
Nr0001-Geometrie
 62
253
 10
92.902992
 20
261.785004
 11
271.903015
 21
261.785004
  0
LINE
  8
Nr0001-Geometrie
 62
253
 10
92.902992
 20
263.285004
 11
92.902992
 21
261.785004
  0
LINE
  8
Nr0001-Geometrie
 62
253
 10
271.903015
 20
263.285004
 11
271.903015
 21
261.785004
  0
LINE
  8
Nr0001-Geometrie
 62
253
 10
71.402992
 20
261.785004
 11
71.402992
 21
224.285004
  0
LINE
  8
Nr0001-Geometrie
 62
253
 10
68.402992
 20
258.785034
 11
68.402992
 21
227.285004
  0
ARC
  8
Nr0001-Geometrie
 62
253
 10
71.402992
 20
227.285004
 40
3.000000
 50
180.000000
 51
270.000000
  0
ARC
  8
Nr0001-Geometrie
 62
253
 10
71.402992
 20
258.785034
 40
3.000000
 50
90.000000
 51
180.000000
  0
LINE
  8
Nr0001-Geometrie
 62
253
 10
352.402954
 20
224.285004
 11
352.402954
 21
261.785004
  0
LINE
  8
Nr0001-Geometrie
 62
253
 10
355.402985
 20
227.285004
 11
355.402985
 21
258.785034
  0
ARC
  8
Nr0001-Geometrie
 62
253
 10
352.402954
 20
258.785034
 40
3.000000
 50
0.000000
 51
90.000000
  0
ARC
  8
Nr0001-Geometrie
 62
253
 10
352.402954
 20
227.285004
 40
3.000000
 50
270.000000
 51
0.000000
  0
LINE
  8
Nr0001-Geometrie
 62
253
 10
80.402992
 20
242.841644
 11
80.402992
 21
245.728378
  0
LINE
  8
Nr0001-Geometrie
 62
253
 10
80.402992
 20
245.728378
 11
77.902992
 21
247.171768
  0
LINE
  8
Nr0001-Geometrie
 62
253
 10
77.902992
 20
247.171768
 11
75.402992
 21
245.728378
  0
LINE
  8
Nr0001-Geometrie
 62
253
 10
75.402992
 20
245.728378
 11
75.402992
 21
242.841644
  0
LINE
  8
Nr0001-Geometrie
 62
253
 10
75.402992
 20
242.841644
 11
77.902992
 21
241.398254
  0
LINE
  8
Nr0001-Geometrie
 62
253
 10
77.902992
 20
241.398254
 11
80.402992
 21
242.841644
  0
CIRCLE
  8
Nr0001-Geometrie
 62
253
 10
77.902992
 20
244.285004
 40
3.175426
  0
CIRCLE
  8
Nr0001-Geometrie
 62
253
 10
77.902992
 20
244.285004
 40
5.000000
  0
LINE
  8
Nr0001-Geometrie
 62
253
 10
348.403015
 20
242.841644
 11
348.403015
 21
245.728378
  0
LINE
  8
Nr0001-Geometrie
 62
253
 10
348.403015
 20
245.728378
 11
345.903015
 21
247.171768
  0
LINE
  8
Nr0001-Geometrie
 62
253
 10
345.903015
 20
247.171768
 11
343.403015
 21
245.728378
  0
LINE
  8
Nr0001-Geometrie
 62
253
 10
343.403015
 20
245.728378
 11
343.403015
 21
242.841644
  0
LINE
  8
Nr0001-Geometrie
 62
253
 10
343.403015
 20
242.841644
 11
345.903015
 21
241.398254
  0
LINE
  8
Nr0001-Geometrie
 62
253
 10
345.903015
 20
241.398254
 11
348.403015
 21
242.841644
  0
CIRCLE
  8
Nr0001-Geometrie
 62
253
 10
345.903015
 20
244.285004
 40
3.175426
  0
CIRCLE
  8
Nr0001-Geometrie
 62
253
 10
345.903015
 20
244.285004
 40
5.000000
  0
LINE
  8
Nr0001-Geometrie
 62
253
 10
80.102989
 20
255.660019
 11
78.764984
 21
256.147003
  0
LINE
  8
Nr0001-Geometrie
 62
253
 10
78.764984
 20
256.147003
 11
78.277992
 21
257.485016
  0
LINE
  8
Nr0001-Geometrie
 62
253
 10
78.277992
 20
257.485016
 11
77.527992
 21
257.485016
  0
LINE
  8
Nr0001-Geometrie
 62
253
 10
77.527992
 20
257.485016
 11
77.041000
 21
256.147003
  0
LINE
  8
Nr0001-Geometrie
 62
253
 10
77.041000
 20
256.147003
 11
75.702995
 21
255.660019
  0
LINE
  8
Nr0001-Geometrie
 62
253
 10
75.702995
 20
255.660019
 11
75.702995
 21
254.910004
  0
LINE
  8
Nr0001-Geometrie
 62
253
 10
75.702995
 20
254.910004
 11
77.041000
 21
254.423035
  0
LINE
  8
Nr0001-Geometrie
 62
253
 10
77.041000
 20
254.423035
 11
77.527992
 21
253.085007
  0
LINE
  8
Nr0001-Geometrie
 62
253
 10
77.527992
 20
253.085007
 11
78.277992
 21
253.085007
  0
LINE
  8
Nr0001-Geometrie
 62
253
 10
78.277992
 20
253.085007
 11
78.764984
 21
254.423035
  0
LINE
  8
Nr0001-Geometrie
 62
253
 10
78.764984
 20
254.423035
 11
80.102989
 21
254.910004
  0
LINE
  8
Nr0001-Geometrie
 62
253
 10
80.102989
 20
254.910004
 11
80.102989
 21
255.660019
  0
CIRCLE
  8
Nr0001-Geometrie
 62
253
 10
77.902992
 20
255.285019
 40
3.750000
  0
LINE
  8
Nr0001-Geometrie
 62
253
 10
80.102989
 20
233.660004
 11
78.764984
 21
234.147003
  0
LINE
  8
Nr0001-Geometrie
 62
253
 10
78.764984
 20
234.147003
 11
78.277992
 21
235.485016
  0
LINE
  8
Nr0001-Geometrie
 62
253
 10
78.277992
 20
235.485016
 11
77.527992
 21
235.485016
  0
LINE
  8
Nr0001-Geometrie
 62
253
 10
77.527992
 20
235.485016
 11
77.041000
 21
234.147003
  0
LINE
  8
Nr0001-Geometrie
 62
253
 10
77.041000
 20
234.147003
 11
75.702995
 21
233.660004
  0
LINE
  8
Nr0001-Geometrie
 62
253
 10
75.702995
 20
233.660004
 11
75.702995
 21
232.910004
  0
LINE
  8
Nr0001-Geometrie
 62
253
 10
75.702995
 20
232.910004
 11
77.041000
 21
232.423019
  0
LINE
  8
Nr0001-Geometrie
 62
253
 10
77.041000
 20
232.423019
 11
77.527992
 21
231.085022
  0
LINE
  8
Nr0001-Geometrie
 62
253
 10
77.527992
 20
231.085022
 11
78.277992
 21
231.085022
  0
LINE
  8
Nr0001-Geometrie
 62
253
 10
78.277992
 20
231.085022
 11
78.764984
 21
232.423019
  0
LINE
  8
Nr0001-Geometrie
 62
253
 10
78.764984
 20
232.423019
 11
80.102989
 21
232.910004
  0
LINE
  8
Nr0001-Geometrie
 62
253
 10
80.102989
 20
232.910004
 11
80.102989
 21
233.660004
  0
CIRCLE
  8
Nr0001-Geometrie
 62
253
 10
77.902992
 20
233.285004
 40
3.750000
  0
LINE
  8
Nr0001-Geometrie
 62
253
 10
348.103027
 20
255.660019
 11
346.764984
 21
256.147003
  0
LINE
  8
Nr0001-Geometrie
 62
253
 10
346.764984
 20
256.147003
 11
346.278015
 21
257.485016
  0
LINE
  8
Nr0001-Geometrie
 62
253
 10
346.278015
 20
257.485016
 11
345.527985
 21
257.485016
  0
LINE
  8
Nr0001-Geometrie
 62
253
 10
345.527985
 20
257.485016
 11
345.041016
 21
256.147003
  0
LINE
  8
Nr0001-Geometrie
 62
253
 10
345.041016
 20
256.147003
 11
343.703003
 21
255.660019
  0
LINE
  8
Nr0001-Geometrie
 62
253
 10
343.703003
 20
255.660019
 11
343.703003
 21
254.910004
  0
LINE
  8
Nr0001-Geometrie
 62
253
 10
343.703003
 20
254.910004
 11
345.041016
 21
254.423035
  0
LINE
  8
Nr0001-Geometrie
 62
253
 10
345.041016
 20
254.423035
 11
345.527985
 21
253.085007
  0
LINE
  8
Nr0001-Geometrie
 62
253
 10
345.527985
 20
253.085007
 11
346.278015
 21
253.085007
  0
LINE
  8
Nr0001-Geometrie
 62
253
 10
346.278015
 20
253.085007
 11
346.764984
 21
254.423035
  0
LINE
  8
Nr0001-Geometrie
 62
253
 10
346.764984
 20
254.423035
 11
348.103027
 21
254.910004
  0
LINE
  8
Nr0001-Geometrie
 62
253
 10
348.103027
 20
254.910004
 11
348.103027
 21
255.660019
  0
CIRCLE
  8
Nr0001-Geometrie
 62
253
 10
345.903015
 20
255.285019
 40
3.750000
  0
LINE
  8
Nr0001-Geometrie
 62
253
 10
348.103027
 20
233.660004
 11
346.764984
 21
234.147003
  0
LINE
  8
Nr0001-Geometrie
 62
253
 10
346.764984
 20
234.147003
 11
346.278015
 21
235.485016
  0
LINE
  8
Nr0001-Geometrie
 62
253
 10
346.278015
 20
235.485016
 11
345.527985
 21
235.485016
  0
LINE
  8
Nr0001-Geometrie
 62
253
 10
345.527985
 20
235.485016
 11
345.041016
 21
234.147003
  0
LINE
  8
Nr0001-Geometrie
 62
253
 10
345.041016
 20
234.147003
 11
343.703003
 21
233.660004
  0
LINE
  8
Nr0001-Geometrie
 62
253
 10
343.703003
 20
233.660004
 11
343.703003
 21
232.910004
  0
LINE
  8
Nr0001-Geometrie
 62
253
 10
343.703003
 20
232.910004
 11
345.041016
 21
232.423019
  0
LINE
  8
Nr0001-Geometrie
 62
253
 10
345.041016
 20
232.423019
 11
345.527985
 21
231.085022
  0
LINE
  8
Nr0001-Geometrie
 62
253
 10
345.527985
 20
231.085022
 11
346.278015
 21
231.085022
  0
LINE
  8
Nr0001-Geometrie
 62
253
 10
346.278015
 20
231.085022
 11
346.764984
 21
232.423019
  0
LINE
  8
Nr0001-Geometrie
 62
253
 10
346.764984
 20
232.423019
 11
348.103027
 21
232.910004
  0
LINE
  8
Nr0001-Geometrie
 62
253
 10
348.103027
 20
232.910004
 11
348.103027
 21
233.660004
  0
CIRCLE
  8
Nr0001-Geometrie
 62
253
 10
345.903015
 20
233.285004
 40
3.750000
  0
LINE
  8
Nr0001-Geometrie
 62
50
 10
59.402992
 20
258.285004
 11
58.785851
 21
258.285004
  0
LINE
  8
Nr0001-Geometrie
 62
50
 10
58.785851
 20
258.285004
 11
59.402992
 21
261.785004
  0
LINE
  8
Nr0001-Geometrie
 62
50
 10
59.402992
 20
261.785004
 11
60.020138
 21
258.285004
  0
LINE
  8
Nr0001-Geometrie
 62
50
 10
60.020138
 20
258.285004
 11
59.402992
 21
258.285004
  0
LINE
  8
Nr0001-Geometrie
 62
50
 10
59.402992
 20
258.457611
 11
58.991562
 21
258.457611
  0
LINE
  8
Nr0001-Geometrie
 62
50
 10
58.991562
 20
258.457611
 11
59.402992
 21
260.790955
  0
LINE
  8
Nr0001-Geometrie
 62
50
 10
59.402992
 20
260.790955
 11
59.814419
 21
258.457611
  0
LINE
  8
Nr0001-Geometrie
 62
50
 10
59.814419
 20
258.457611
 11
59.402992
 21
258.457611
  0
LINE
  8
Nr0001-Geometrie
 62
50
 10
59.402992
 20
258.630249
 11
59.197273
 21
258.630249
  0
LINE
  8
Nr0001-Geometrie
 62
50
 10
59.197273
 20
258.630249
 11
59.402992
 21
259.796906
  0
LINE
  8
Nr0001-Geometrie
 62
50
 10
59.402992
 20
259.796906
 11
59.608707
 21
258.630249
  0
LINE
  8
Nr0001-Geometrie
 62
50
 10
59.608707
 20
258.630249
 11
59.402992
 21
258.630249
  0
LINE
  8
Nr0001-Geometrie
 62
50
 10
59.402992
 20
227.785019
 11
60.020138
 21
227.785019
  0
LINE
  8
Nr0001-Geometrie
 62
50
 10
60.020138
 20
227.785019
 11
59.402992
 21
224.285004
  0
LINE
  8
Nr0001-Geometrie
 62
50
 10
59.402992
 20
224.285004
 11
58.785851
 21
227.785019
  0
LINE
  8
Nr0001-Geometrie
 62
50
 10
58.785851
 20
227.785019
 11
59.402992
 21
227.785019
  0
LINE
  8
Nr0001-Geometrie
 62
50
 10
59.402992
 20
227.612396
 11
59.814419
 21
227.612396
  0
LINE
  8
Nr0001-Geometrie
 62
50
 10
59.814419
 20
227.612396
 11
59.402992
 21
225.279068
  0
LINE
  8
Nr0001-Geometrie
 62
50
 10
59.402992
 20
225.279068
 11
58.991562
 21
227.612396
  0
LINE
  8
Nr0001-Geometrie
 62
50
 10
58.991562
 20
227.612396
 11
59.402992
 21
227.612396
  0
LINE
  8
Nr0001-Geometrie
 62
50
 10
59.402992
 20
227.439789
 11
59.608707
 21
227.439789
  0
LINE
  8
Nr0001-Geometrie
 62
50
 10
59.608707
 20
227.439789
 11
59.402992
 21
226.273117
  0
LINE
  8
Nr0001-Geometrie
 62
50
 10
59.402992
 20
226.273117
 11
59.197277
 21
227.439789
  0
LINE
  8
Nr0001-Geometrie
 62
50
 10
59.197277
 20
227.439789
 11
59.402992
 21
227.439789
  0
LINE
  8
Nr0001-Geometrie
 62
50
 10
59.402992
 20
224.285004
 11
59.402992
 21
261.785004
  0
LINE
  8
Nr0001-Geometrie
 62
10
 10
55.027992
 20
239.910004
 11
55.027992
 21
240.410004
  0
LINE
  8
Nr0001-Geometrie
 62
10
 10
55.027992
 20
240.410004
 11
55.277992
 21
240.910019
  0
LINE
  8
Nr0001-Geometrie
 62
10
 10
55.277992
 20
240.910019
 11
55.777992
 21
241.160004
  0
LINE
  8
Nr0001-Geometrie
 62
10
 10
55.777992
 20
241.160004
 11
56.027992
 21
241.160004
  0
LINE
  8
Nr0001-Geometrie
 62
10
 10
56.027992
 20
241.160004
 11
56.527992
 21
240.910019
  0
LINE
  8
Nr0001-Geometrie
 62
10
 10
56.527992
 20
240.910019
 11
56.777992
 21
240.410004
  0
LINE
  8
Nr0001-Geometrie
 62
10
 10
56.777992
 20
240.410004
 11
56.777992
 21
240.160004
  0
LINE
  8
Nr0001-Geometrie
 62
10
 10
56.777992
 20
240.160004
 11
56.777992
 21
240.660019
  0
LINE
  8
Nr0001-Geometrie
 62
10
 10
56.777992
 20
240.660019
 11
57.027992
 21
241.160004
  0
LINE
  8
Nr0001-Geometrie
 62
10
 10
57.027992
 20
241.160004
 11
57.527992
 21
241.410004
  0
LINE
  8
Nr0001-Geometrie
 62
10
 10
57.527992
 20
241.410004
 11
57.777992
 21
241.410004
  0
LINE
  8
Nr0001-Geometrie
 62
10
 10
57.777992
 20
241.410004
 11
58.277992
 21
241.160004
  0
LINE
  8
Nr0001-Geometrie
 62
10
 10
58.277992
 20
241.160004
 11
58.527992
 21
240.660019
  0
LINE
  8
Nr0001-Geometrie
 62
10
 10
58.527992
 20
240.660019
 11
58.527992
 21
239.910004
  0
LINE
  8
Nr0001-Geometrie
 62
10
 10
55.777992
 20
242.160019
 11
55.027992
 21
242.160019
  0
LINE
  8
Nr0001-Geometrie
 62
10
 10
55.027992
 20
242.160019
 11
55.027992
 21
243.910004
  0
LINE
  8
Nr0001-Geometrie
 62
10
 10
55.027992
 20
243.910004
 11
58.527992
 21
242.660004
  0
LINE
  8
Nr0001-Geometrie
 62
10
 10
58.527992
 20
244.910004
 11
58.277992
 21
244.910004
  0
LINE
  8
Nr0001-Geometrie
 62
10
 10
58.277992
 20
244.910004
 11
58.277992
 21
244.660019
  0
LINE
  8
Nr0001-Geometrie
 62
10
 10
58.277992
 20
244.660019
 11
58.527992
 21
244.660019
  0
LINE
  8
Nr0001-Geometrie
 62
10
 10
58.527992
 20
244.660019
 11
58.527992
 21
244.910004
  0
LINE
  8
Nr0001-Geometrie
 62
10
 10
58.527992
 20
245.660019
 11
58.527992
 21
246.410004
  0
LINE
  8
Nr0001-Geometrie
 62
10
 10
58.527992
 20
246.410004
 11
58.277992
 21
246.910019
  0
LINE
  8
Nr0001-Geometrie
 62
10
 10
58.277992
 20
246.910019
 11
57.527992
 21
247.160019
  0
LINE
  8
Nr0001-Geometrie
 62
10
 10
57.527992
 20
247.160019
 11
56.777992
 21
246.910019
  0
LINE
  8
Nr0001-Geometrie
 62
10
 10
56.777992
 20
246.910019
 11
56.527992
 21
246.410004
  0
LINE
  8
Nr0001-Geometrie
 62
10
 10
56.527992
 20
246.410004
 11
56.527992
 21
245.660019
  0
LINE
  8
Nr0001-Geometrie
 62
10
 10
56.527992
 20
245.660019
 11
55.027992
 21
245.660019
  0
LINE
  8
Nr0001-Geometrie
 62
10
 10
55.027992
 20
245.660019
 11
55.027992
 21
246.910019
  0
LINE
  8
Nr0001-Geometrie
 62
50
 10
71.402992
 20
224.285004
 11
56.952991
 21
224.285004
  0
LINE
  8
Nr0001-Geometrie
 62
50
 10
71.402992
 20
261.785004
 11
56.952991
 21
261.785004
  0
LINE
  8
Nr0001-Geometrie
 62
50
 10
50.402992
 20
259.785004
 11
49.785847
 21
259.785004
  0
LINE
  8
Nr0001-Geometrie
 62
50
 10
49.785847
 20
259.785004
 11
50.402992
 21
263.285004
  0
LINE
  8
Nr0001-Geometrie
 62
50
 10
50.402992
 20
263.285004
 11
51.020134
 21
259.785004
  0
LINE
  8
Nr0001-Geometrie
 62
50
 10
51.020134
 20
259.785004
 11
50.402992
 21
259.785004
  0
LINE
  8
Nr0001-Geometrie
 62
50
 10
50.402992
 20
259.957611
 11
49.991562
 21
259.957611
  0
LINE
  8
Nr0001-Geometrie
 62
50
 10
49.991562
 20
259.957611
 11
50.402992
 21
262.290955
  0
LINE
  8
Nr0001-Geometrie
 62
50
 10
50.402992
 20
262.290955
 11
50.814419
 21
259.957611
  0
LINE
  8
Nr0001-Geometrie
 62
50
 10
50.814419
 20
259.957611
 11
50.402992
 21
259.957611
  0
LINE
  8
Nr0001-Geometrie
 62
50
 10
50.402992
 20
260.130249
 11
50.197277
 21
260.130249
  0
LINE
  8
Nr0001-Geometrie
 62
50
 10
50.197277
 20
260.130249
 11
50.402992
 21
261.296906
  0
LINE
  8
Nr0001-Geometrie
 62
50
 10
50.402992
 20
261.296906
 11
50.608707
 21
260.130249
  0
LINE
  8
Nr0001-Geometrie
 62
50
 10
50.608707
 20
260.130249
 11
50.402992
 21
260.130249
  0
LINE
  8
Nr0001-Geometrie
 62
50
 10
50.402992
 20
227.785019
 11
51.020134
 21
227.785019
  0
LINE
  8
Nr0001-Geometrie
 62
50
 10
51.020134
 20
227.785019
 11
50.402992
 21
224.285004
  0
LINE
  8
Nr0001-Geometrie
 62
50
 10
50.402992
 20
224.285004
 11
49.785851
 21
227.785019
  0
LINE
  8
Nr0001-Geometrie
 62
50
 10
49.785851
 20
227.785019
 11
50.402992
 21
227.785019
  0
LINE
  8
Nr0001-Geometrie
 62
50
 10
50.402992
 20
227.612396
 11
50.814423
 21
227.612396
  0
LINE
  8
Nr0001-Geometrie
 62
50
 10
50.814423
 20
227.612396
 11
50.402992
 21
225.279068
  0
LINE
  8
Nr0001-Geometrie
 62
50
 10
50.402992
 20
225.279068
 11
49.991562
 21
227.612396
  0
LINE
  8
Nr0001-Geometrie
 62
50
 10
49.991562
 20
227.612396
 11
50.402992
 21
227.612396
  0
LINE
  8
Nr0001-Geometrie
 62
50
 10
50.402992
 20
227.439789
 11
50.608711
 21
227.439789
  0
LINE
  8
Nr0001-Geometrie
 62
50
 10
50.608711
 20
227.439789
 11
50.402992
 21
226.273117
  0
LINE
  8
Nr0001-Geometrie
 62
50
 10
50.402992
 20
226.273117
 11
50.197277
 21
227.439789
  0
LINE
  8
Nr0001-Geometrie
 62
50
 10
50.197277
 20
227.439789
 11
50.402992
 21
227.439789
  0
LINE
  8
Nr0001-Geometrie
 62
50
 10
50.402992
 20
224.285004
 11
50.402992
 21
263.285004
  0
LINE
  8
Nr0001-Geometrie
 62
10
 10
46.027992
 20
242.160019
 11
46.027992
 21
242.660004
  0
LINE
  8
Nr0001-Geometrie
 62
10
 10
46.027992
 20
242.660004
 11
46.277992
 21
243.160019
  0
LINE
  8
Nr0001-Geometrie
 62
10
 10
46.277992
 20
243.160019
 11
46.777992
 21
243.410019
  0
LINE
  8
Nr0001-Geometrie
 62
10
 10
46.777992
 20
243.410019
 11
47.027992
 21
243.410019
  0
LINE
  8
Nr0001-Geometrie
 62
10
 10
47.027992
 20
243.410019
 11
47.527992
 21
243.160019
  0
LINE
  8
Nr0001-Geometrie
 62
10
 10
47.527992
 20
243.160019
 11
47.777996
 21
242.660004
  0
LINE
  8
Nr0001-Geometrie
 62
10
 10
47.777996
 20
242.660004
 11
47.777996
 21
242.410004
  0
LINE
  8
Nr0001-Geometrie
 62
10
 10
47.777996
 20
242.410004
 11
47.777996
 21
242.910004
  0
LINE
  8
Nr0001-Geometrie
 62
10
 10
47.777996
 20
242.910004
 11
48.027992
 21
243.410019
  0
LINE
  8
Nr0001-Geometrie
 62
10
 10
48.027992
 20
243.410019
 11
48.527992
 21
243.660004
  0
LINE
  8
Nr0001-Geometrie
 62
10
 10
48.527992
 20
243.660004
 11
48.777992
 21
243.660004
  0
LINE
  8
Nr0001-Geometrie
 62
10
 10
48.777992
 20
243.660004
 11
49.277992
 21
243.410019
  0
LINE
  8
Nr0001-Geometrie
 62
10
 10
49.277992
 20
243.410019
 11
49.527992
 21
242.910004
  0
LINE
  8
Nr0001-Geometrie
 62
10
 10
49.527992
 20
242.910004
 11
49.527992
 21
242.160019
  0
LINE
  8
Nr0001-Geometrie
 62
10
 10
49.527992
 20
244.910004
 11
49.277992
 21
245.410004
  0
LINE
  8
Nr0001-Geometrie
 62
10
 10
49.277992
 20
245.410004
 11
48.777992
 21
245.910019
  0
LINE
  8
Nr0001-Geometrie
 62
10
 10
48.777992
 20
245.910019
 11
48.277992
 21
246.160004
  0
LINE
  8
Nr0001-Geometrie
 62
10
 10
48.277992
 20
246.160004
 11
46.777992
 21
246.160004
  0
LINE
  8
Nr0001-Geometrie
 62
10
 10
46.777992
 20
246.160004
 11
46.277992
 21
245.910019
  0
LINE
  8
Nr0001-Geometrie
 62
10
 10
46.277992
 20
245.910019
 11
46.027992
 21
245.410004
  0
LINE
  8
Nr0001-Geometrie
 62
10
 10
46.027992
 20
245.410004
 11
46.027992
 21
245.160004
  0
LINE
  8
Nr0001-Geometrie
 62
10
 10
46.027992
 20
245.160004
 11
46.277992
 21
244.660019
  0
LINE
  8
Nr0001-Geometrie
 62
10
 10
46.277992
 20
244.660019
 11
46.777992
 21
244.410019
  0
LINE
  8
Nr0001-Geometrie
 62
10
 10
46.777992
 20
244.410019
 11
47.277992
 21
244.410019
  0
LINE
  8
Nr0001-Geometrie
 62
10
 10
47.277992
 20
244.410019
 11
47.777996
 21
244.660019
  0
LINE
  8
Nr0001-Geometrie
 62
10
 10
47.777996
 20
244.660019
 11
48.027992
 21
245.160004
  0
LINE
  8
Nr0001-Geometrie
 62
10
 10
48.027992
 20
245.160004
 11
48.027992
 21
246.160004
  0
LINE
  8
Nr0001-Geometrie
 62
50
 10
71.402992
 20
224.285004
 11
47.952995
 21
224.285004
  0
LINE
  8
Nr0001-Geometrie
 62
50
 10
92.902992
 20
263.285004
 11
47.952991
 21
263.285004
  0
LINE
  8
Nr0001-Geometrie
 62
50
 10
188.403000
 20
249.785019
 11
187.785858
 21
249.785019
  0
LINE
  8
Nr0001-Geometrie
 62
50
 10
187.785858
 20
249.785019
 11
188.403000
 21
253.285034
  0
LINE
  8
Nr0001-Geometrie
 62
50
 10
188.403000
 20
253.285034
 11
189.020142
 21
249.785019
  0
LINE
  8
Nr0001-Geometrie
 62
50
 10
189.020142
 20
249.785019
 11
188.403000
 21
249.785019
  0
LINE
  8
Nr0001-Geometrie
 62
50
 10
188.403000
 20
249.957642
 11
187.991562
 21
249.957642
  0
LINE
  8
Nr0001-Geometrie
 62
50
 10
187.991562
 20
249.957642
 11
188.403000
 21
252.290970
  0
LINE
  8
Nr0001-Geometrie
 62
50
 10
188.403000
 20
252.290970
 11
188.814423
 21
249.957642
  0
LINE
  8
Nr0001-Geometrie
 62
50
 10
188.814423
 20
249.957642
 11
188.403000
 21
249.957642
  0
LINE
  8
Nr0001-Geometrie
 62
50
 10
188.403000
 20
250.130249
 11
188.197296
 21
250.130249
  0
LINE
  8
Nr0001-Geometrie
 62
50
 10
188.197296
 20
250.130249
 11
188.403000
 21
251.296921
  0
LINE
  8
Nr0001-Geometrie
 62
50
 10
188.403000
 20
251.296921
 11
188.608704
 21
250.130249
  0
LINE
  8
Nr0001-Geometrie
 62
50
 10
188.608704
 20
250.130249
 11
188.403000
 21
250.130249
  0
LINE
  8
Nr0001-Geometrie
 62
50
 10
188.403000
 20
253.285034
 11
188.403000
 21
245.410019
  0
LINE
  8
Nr0001-Geometrie
 62
50
 10
188.403000
 20
265.285034
 11
189.020142
 21
265.285034
  0
LINE
  8
Nr0001-Geometrie
 62
50
 10
189.020142
 20
265.285034
 11
188.403000
 21
261.785034
  0
LINE
  8
Nr0001-Geometrie
 62
50
 10
188.403000
 20
261.785034
 11
187.785858
 21
265.285034
  0
LINE
  8
Nr0001-Geometrie
 62
50
 10
187.785858
 20
265.285034
 11
188.403000
 21
265.285034
  0
LINE
  8
Nr0001-Geometrie
 62
50
 10
188.403000
 20
265.112427
 11
188.814423
 21
265.112427
  0
LINE
  8
Nr0001-Geometrie
 62
50
 10
188.814423
 20
265.112427
 11
188.403000
 21
262.779083
  0
LINE
  8
Nr0001-Geometrie
 62
50
 10
188.403000
 20
262.779083
 11
187.991562
 21
265.112427
  0
LINE
  8
Nr0001-Geometrie
 62
50
 10
187.991562
 20
265.112427
 11
188.403000
 21
265.112427
  0
LINE
  8
Nr0001-Geometrie
 62
50
 10
188.403000
 20
264.939819
 11
188.608704
 21
264.939819
  0
LINE
  8
Nr0001-Geometrie
 62
50
 10
188.608704
 20
264.939819
 11
188.403000
 21
263.773132
  0
LINE
  8
Nr0001-Geometrie
 62
50
 10
188.403000
 20
263.773132
 11
188.197296
 21
264.939819
  0
LINE
  8
Nr0001-Geometrie
 62
50
 10
188.197296
 20
264.939819
 11
188.403000
 21
264.939819
  0
LINE
  8
Nr0001-Geometrie
 62
50
 10
188.403000
 20
261.785034
 11
188.403000
 21
269.660034
  0
LINE
  8
Nr0001-Geometrie
 62
50
 10
188.403000
 20
261.785034
 11
188.403000
 21
253.285034
  0
LINE
  8
Nr0001-Geometrie
 62
10
 10
184.527985
 20
255.785034
 11
185.028000
 21
255.785034
  0
LINE
  8
Nr0001-Geometrie
 62
10
 10
185.028000
 20
255.785034
 11
185.527985
 21
256.285034
  0
LINE
  8
Nr0001-Geometrie
 62
10
 10
185.527985
 20
256.285034
 11
185.527985
 21
256.535004
  0
LINE
  8
Nr0001-Geometrie
 62
10
 10
185.527985
 20
256.535004
 11
185.028000
 21
257.035034
  0
LINE
  8
Nr0001-Geometrie
 62
10
 10
185.028000
 20
257.035034
 11
184.527985
 21
257.035034
  0
LINE
  8
Nr0001-Geometrie
 62
10
 10
184.527985
 20
257.035034
 11
184.028000
 21
256.535004
  0
LINE
  8
Nr0001-Geometrie
 62
10
 10
184.028000
 20
256.535004
 11
184.028000
 21
256.285034
  0
LINE
  8
Nr0001-Geometrie
 62
10
 10
184.028000
 20
256.285034
 11
184.527985
 21
255.785034
  0
LINE
  8
Nr0001-Geometrie
 62
10
 10
185.527985
 20
256.285034
 11
185.777985
 21
255.785034
  0
LINE
  8
Nr0001-Geometrie
 62
10
 10
185.777985
 20
255.785034
 11
186.278000
 21
255.535034
  0
LINE
  8
Nr0001-Geometrie
 62
10
 10
186.278000
 20
255.535034
 11
186.777985
 21
255.535034
  0
LINE
  8
Nr0001-Geometrie
 62
10
 10
186.777985
 20
255.535034
 11
187.278000
 21
255.785034
  0
LINE
  8
Nr0001-Geometrie
 62
10
 10
187.278000
 20
255.785034
 11
187.528000
 21
256.285034
  0
LINE
  8
Nr0001-Geometrie
 62
10
 10
187.528000
 20
256.285034
 11
187.528000
 21
256.535004
  0
LINE
  8
Nr0001-Geometrie
 62
10
 10
187.528000
 20
256.535004
 11
187.278000
 21
257.035034
  0
LINE
  8
Nr0001-Geometrie
 62
10
 10
187.278000
 20
257.035034
 11
186.777985
 21
257.285034
  0
LINE
  8
Nr0001-Geometrie
 62
10
 10
186.777985
 20
257.285034
 11
186.278000
 21
257.285034
  0
LINE
  8
Nr0001-Geometrie
 62
10
 10
186.278000
 20
257.285034
 11
185.777985
 21
257.035034
  0
LINE
  8
Nr0001-Geometrie
 62
10
 10
185.777985
 20
257.035034
 11
185.527985
 21
256.535004
  0
LINE
  8
Nr0001-Geometrie
 62
10
 10
187.528000
 20
258.285034
 11
187.278000
 21
258.285034
  0
LINE
  8
Nr0001-Geometrie
 62
10
 10
187.278000
 20
258.285034
 11
187.278000
 21
258.035034
  0
LINE
  8
Nr0001-Geometrie
 62
10
 10
187.278000
 20
258.035034
 11
187.528000
 21
258.035034
  0
LINE
  8
Nr0001-Geometrie
 62
10
 10
187.528000
 20
258.035034
 11
187.528000
 21
258.285034
  0
LINE
  8
Nr0001-Geometrie
 62
10
 10
187.528000
 20
259.035004
 11
187.528000
 21
259.785034
  0
LINE
  8
Nr0001-Geometrie
 62
10
 10
187.528000
 20
259.785034
 11
187.278000
 21
260.285004
  0
LINE
  8
Nr0001-Geometrie
 62
10
 10
187.278000
 20
260.285004
 11
186.528000
 21
260.535034
  0
LINE
  8
Nr0001-Geometrie
 62
10
 10
186.528000
 20
260.535034
 11
185.777985
 21
260.285004
  0
LINE
  8
Nr0001-Geometrie
 62
10
 10
185.777985
 20
260.285004
 11
185.527985
 21
259.785034
  0
LINE
  8
Nr0001-Geometrie
 62
10
 10
185.527985
 20
259.785034
 11
185.527985
 21
259.035004
  0
LINE
  8
Nr0001-Geometrie
 62
10
 10
185.527985
 20
259.035004
 11
184.028000
 21
259.035004
  0
LINE
  8
Nr0001-Geometrie
 62
10
 10
184.028000
 20
259.035004
 11
184.028000
 21
260.285004
  0
LINE
  8
Nr0001-Geometrie
 62
50
 10
206.152985
 20
253.285034
 11
185.953003
 21
253.285004
  0
LINE
  8
Nr0001-Geometrie
 62
50
 10
188.403000
 20
249.785004
 11
187.785858
 21
249.785004
  0
LINE
  8
Nr0001-Geometrie
 62
50
 10
187.785858
 20
249.785004
 11
188.403000
 21
253.285004
  0
LINE
  8
Nr0001-Geometrie
 62
50
 10
188.403000
 20
253.285004
 11
189.020142
 21
249.785004
  0
LINE
  8
Nr0001-Geometrie
 62
50
 10
189.020142
 20
249.785004
 11
188.403000
 21
249.785004
  0
LINE
  8
Nr0001-Geometrie
 62
50
 10
188.403000
 20
249.957611
 11
187.991562
 21
249.957611
  0
LINE
  8
Nr0001-Geometrie
 62
50
 10
187.991562
 20
249.957611
 11
188.403000
 21
252.290955
  0
LINE
  8
Nr0001-Geometrie
 62
50
 10
188.403000
 20
252.290955
 11
188.814423
 21
249.957611
  0
LINE
  8
Nr0001-Geometrie
 62
50
 10
188.814423
 20
249.957611
 11
188.403000
 21
249.957611
  0
LINE
  8
Nr0001-Geometrie
 62
50
 10
188.403000
 20
250.130234
 11
188.197296
 21
250.130234
  0
LINE
  8
Nr0001-Geometrie
 62
50
 10
188.197296
 20
250.130234
 11
188.403000
 21
251.296906
  0
LINE
  8
Nr0001-Geometrie
 62
50
 10
188.403000
 20
251.296906
 11
188.608704
 21
250.130234
  0
LINE
  8
Nr0001-Geometrie
 62
50
 10
188.608704
 20
250.130234
 11
188.403000
 21
250.130234
  0
LINE
  8
Nr0001-Geometrie
 62
50
 10
188.403000
 20
238.785019
 11
189.020142
 21
238.785019
  0
LINE
  8
Nr0001-Geometrie
 62
50
 10
189.020142
 20
238.785019
 11
188.403000
 21
235.285019
  0
LINE
  8
Nr0001-Geometrie
 62
50
 10
188.403000
 20
235.285019
 11
187.785858
 21
238.785019
  0
LINE
  8
Nr0001-Geometrie
 62
50
 10
187.785858
 20
238.785019
 11
188.403000
 21
238.785019
  0
LINE
  8
Nr0001-Geometrie
 62
50
 10
188.403000
 20
238.612396
 11
188.814423
 21
238.612396
  0
LINE
  8
Nr0001-Geometrie
 62
50
 10
188.814423
 20
238.612396
 11
188.403000
 21
236.279068
  0
LINE
  8
Nr0001-Geometrie
 62
50
 10
188.403000
 20
236.279068
 11
187.991562
 21
238.612396
  0
LINE
  8
Nr0001-Geometrie
 62
50
 10
187.991562
 20
238.612396
 11
188.403000
 21
238.612396
  0
LINE
  8
Nr0001-Geometrie
 62
50
 10
188.403000
 20
238.439774
 11
188.608704
 21
238.439774
  0
LINE
  8
Nr0001-Geometrie
 62
50
 10
188.608704
 20
238.439774
 11
188.403000
 21
237.273102
  0
LINE
  8
Nr0001-Geometrie
 62
50
 10
188.403000
 20
237.273102
 11
188.197296
 21
238.439774
  0
LINE
  8
Nr0001-Geometrie
 62
50
 10
188.197296
 20
238.439774
 11
188.403000
 21
238.439774
  0
LINE
  8
Nr0001-Geometrie
 62
50
 10
188.403000
 20
235.285019
 11
188.403000
 21
253.285004
  0
LINE
  8
Nr0001-Geometrie
 62
10
 10
185.028000
 20
242.910004
 11
184.028000
 21
243.910004
  0
LINE
  8
Nr0001-Geometrie
 62
10
 10
184.028000
 20
243.910004
 11
187.528000
 21
243.910004
  0
LINE
  8
Nr0001-Geometrie
 62
10
 10
184.527985
 20
244.910004
 11
185.028000
 21
244.910004
  0
LINE
  8
Nr0001-Geometrie
 62
10
 10
185.028000
 20
244.910004
 11
185.527985
 21
245.410004
  0
LINE
  8
Nr0001-Geometrie
 62
10
 10
185.527985
 20
245.410004
 11
185.527985
 21
245.660019
  0
LINE
  8
Nr0001-Geometrie
 62
10
 10
185.527985
 20
245.660019
 11
185.028000
 21
246.160004
  0
LINE
  8
Nr0001-Geometrie
 62
10
 10
185.028000
 20
246.160004
 11
184.527985
 21
246.160004
  0
LINE
  8
Nr0001-Geometrie
 62
10
 10
184.527985
 20
246.160004
 11
184.028000
 21
245.660019
  0
LINE
  8
Nr0001-Geometrie
 62
10
 10
184.028000
 20
245.660019
 11
184.028000
 21
245.410004
  0
LINE
  8
Nr0001-Geometrie
 62
10
 10
184.028000
 20
245.410004
 11
184.527985
 21
244.910004
  0
LINE
  8
Nr0001-Geometrie
 62
10
 10
185.527985
 20
245.410004
 11
185.777985
 21
244.910004
  0
LINE
  8
Nr0001-Geometrie
 62
10
 10
185.777985
 20
244.910004
 11
186.278000
 21
244.660019
  0
LINE
  8
Nr0001-Geometrie
 62
10
 10
186.278000
 20
244.660019
 11
186.777985
 21
244.660019
  0
LINE
  8
Nr0001-Geometrie
 62
10
 10
186.777985
 20
244.660019
 11
187.278000
 21
244.910004
  0
LINE
  8
Nr0001-Geometrie
 62
10
 10
187.278000
 20
244.910004
 11
187.528000
 21
245.410004
  0
LINE
  8
Nr0001-Geometrie
 62
10
 10
187.528000
 20
245.410004
 11
187.528000
 21
245.660019
  0
LINE
  8
Nr0001-Geometrie
 62
10
 10
187.528000
 20
245.660019
 11
187.278000
 21
246.160004
  0
LINE
  8
Nr0001-Geometrie
 62
10
 10
187.278000
 20
246.160004
 11
186.777985
 21
246.410004
  0
LINE
  8
Nr0001-Geometrie
 62
10
 10
186.777985
 20
246.410004
 11
186.278000
 21
246.410004
  0
LINE
  8
Nr0001-Geometrie
 62
10
 10
186.278000
 20
246.410004
 11
185.777985
 21
246.160004
  0
LINE
  8
Nr0001-Geometrie
 62
10
 10
185.777985
 20
246.160004
 11
185.527985
 21
245.660019
  0
LINE
  8
Nr0001-Geometrie
 62
50
 10
206.152985
 20
253.285004
 11
185.953003
 21
253.285004
  0
LINE
  8
Nr0001-Geometrie
 62
50
 10
211.903000
 20
235.285019
 11
185.953003
 21
235.285019
  0
LINE
  8
Nr0001-Geometrie
 62
253
 10
71.402992
 20
99.285011
 11
72.902992
 21
99.285011
  0
LINE
  8
Nr0001-Geometrie
 62
253
 10
349.103027
 20
159.285004
 11
352.402985
 21
159.285004
  0
LINE
  8
Nr0001-Geometrie
 62
253
 10
340.903015
 20
99.285011
 11
350.903015
 21
99.285011
  0
LINE
  8
Nr0001-Geometrie
 62
253
 10
350.903015
 20
99.285011
 11
352.402985
 21
99.285011
  0
LINE
  8
Nr0001-Geometrie
 62
253
 10
72.902992
 20
99.285011
 11
82.902992
 21
99.285011
  0
LINE
  8
Nr0001-Geometrie
 62
253
 10
82.902992
 20
99.285011
 11
340.903015
 21
99.285011
  0
LINE
  8
Nr0001-Geometrie
 62
253
 10
83.902985
 20
101.785011
 11
92.902992
 21
101.785011
  0
LINE
  8
Nr0001-Geometrie
 62
253
 10
271.903015
 20
101.785011
 11
339.902985
 21
101.785011
  0
LINE
  8
Nr0001-Geometrie
 62
253
 10
342.702972
 20
159.285004
 11
349.103027
 21
159.285004
  0
LINE
  8
Nr0001-Geometrie
 62
253
 10
322.203003
 20
159.285004
 11
342.702972
 21
159.285004
  0
LINE
  8
Nr0001-Geometrie
 62
253
 10
83.902985
 20
156.785004
 11
92.902992
 21
156.785004
  0
LINE
  8
Nr0001-Geometrie
 62
253
 10
74.702980
 20
159.285004
 11
81.102997
 21
159.285004
  0
LINE
  8
Nr0001-Geometrie
 62
253
 10
71.402992
 20
159.285004
 11
74.702980
 21
159.285004
  0
LINE
  8
Nr0001-Geometrie
 62
10
 10
307.203003
 20
159.285004
 11
307.203003
 21
158.535004
  0
LINE
  8
Nr0001-Geometrie
 62
10
 10
307.203003
 20
157.535004
 11
307.203003
 21
156.785004
  0
LINE
  8
Nr0001-Geometrie
 62
10
 10
322.203003
 20
156.785004
 11
322.203003
 21
157.535004
  0
LINE
  8
Nr0001-Geometrie
 62
10
 10
322.203003
 20
158.535004
 11
322.203003
 21
159.285004
  0
LINE
  8
Nr0001-Geometrie
 62
253
 10
322.203003
 20
159.285004
 11
307.203003
 21
159.285004
  0
LINE
  8
Nr0001-Geometrie
 62
253
 10
307.203003
 20
159.285004
 11
116.602997
 21
159.285004
  0
LINE
  8
Nr0001-Geometrie
 62
253
 10
307.203003
 20
156.785004
 11
322.203003
 21
156.785004
  0
LINE
  8
Nr0001-Geometrie
 62
253
 10
322.203003
 20
156.785004
 11
339.902985
 21
156.785004
  0
LINE
  8
Nr0001-Geometrie
 62
253
 10
271.903015
 20
156.785004
 11
307.203003
 21
156.785004
  0
LINE
  8
Nr0001-Geometrie
 62
253
 10
116.602997
 20
159.285004
 11
101.602997
 21
159.285004
  0
LINE
  8
Nr0001-Geometrie
 62
253
 10
81.102997
 20
159.285004
 11
101.602997
 21
159.285004
  0
LINE
  8
Nr0001-Geometrie
 62
253
 10
71.402992
 20
159.285004
 11
75.444496
 21
159.285004
  0
LINE
  8
Nr0001-Geometrie
 62
253
 10
352.402985
 20
159.285004
 11
352.402985
 21
167.285004
  0
LINE
  8
Nr0001-Geometrie
 62
253
 10
352.402985
 20
167.285004
 11
348.361511
 21
167.285004
  0
LINE
  8
Nr0001-Geometrie
 62
253
 10
71.402992
 20
159.285004
 11
71.402992
 21
167.285004
  0
LINE
  8
Nr0001-Geometrie
 62
10
 10
322.203003
 20
159.285004
 11
322.203003
 21
161.840576
  0
LINE
  8
Nr0001-Geometrie
 62
10
 10
322.203003
 20
164.729462
 11
322.203003
 21
167.285004
  0
LINE
  8
Nr0001-Geometrie
 62
10
 10
307.203003
 20
167.285004
 11
307.203003
 21
164.729462
  0
LINE
  8
Nr0001-Geometrie
 62
10
 10
307.203003
 20
161.840546
 11
307.203003
 21
159.285004
  0
LINE
  8
Nr0001-Geometrie
 62
253
 10
307.203003
 20
159.285004
 11
322.203003
 21
159.285004
  0
LINE
  8
Nr0001-Geometrie
 62
253
 10
322.203003
 20
159.285004
 11
343.444519
 21
159.285004
  0
LINE
  8
Nr0001-Geometrie
 62
253
 10
322.203003
 20
167.285004
 11
307.203003
 21
167.285004
  0
LINE
  8
Nr0001-Geometrie
 62
253
 10
307.203003
 20
167.285004
 11
215.102997
 21
167.285004
  0
LINE
  8
Nr0001-Geometrie
 62
10
 10
211.903000
 20
159.785004
 11
213.436310
 21
159.785004
  0
LINE
  8
Nr0001-Geometrie
 62
10
 10
216.069656
 20
159.785004
 11
217.602982
 21
159.785004
  0
LINE
  8
Nr0001-Geometrie
 62
10
 10
217.602997
 20
159.785004
 11
216.852997
 21
160.535004
  0
LINE
  8
Nr0001-Geometrie
 62
10
 10
215.852982
 20
161.535019
 11
215.102997
 21
162.285004
  0
LINE
  8
Nr0001-Geometrie
 62
10
 10
215.102997
 20
162.285004
 11
215.102997
 21
163.785019
  0
LINE
  8
Nr0001-Geometrie
 62
10
 10
215.102997
 20
165.785004
 11
215.102997
 21
167.285004
  0
LINE
  8
Nr0001-Geometrie
 62
10
 10
208.703003
 20
167.285004
 11
208.703003
 21
165.785004
  0
LINE
  8
Nr0001-Geometrie
 62
10
 10
208.703003
 20
163.785019
 11
208.703003
 21
162.285004
  0
LINE
  8
Nr0001-Geometrie
 62
10
 10
208.703003
 20
162.285004
 11
207.953003
 21
161.535019
  0
LINE
  8
Nr0001-Geometrie
 62
10
 10
206.952988
 20
160.535004
 11
206.203003
 21
159.785004
  0
LINE
  8
Nr0001-Geometrie
 62
10
 10
206.203003
 20
159.785004
 11
207.736328
 21
159.785004
  0
LINE
  8
Nr0001-Geometrie
 62
10
 10
210.369659
 20
159.785004
 11
211.902985
 21
159.785004
  0
LINE
  8
Nr0001-Geometrie
 62
10
 10
215.102997
 20
162.285004
 11
213.258545
 21
162.285004
  0
LINE
  8
Nr0001-Geometrie
 62
10
 10
210.547455
 20
162.285004
 11
208.703018
 21
162.285004
  0
LINE
  8
Nr0001-Geometrie
 62
253
 10
215.102997
 20
167.285004
 11
208.703003
 21
167.285004
  0
LINE
  8
Nr0001-Geometrie
 62
253
 10
208.703003
 20
167.285004
 11
92.603004
 21
167.285004
  0
LINE
  8
Nr0001-Geometrie
 62
10
 10
206.052994
 20
159.785004
 11
206.052994
 21
159.635010
  0
LINE
  8
Nr0001-Geometrie
 62
10
 10
206.052994
 20
159.434998
 11
206.052994
 21
159.285004
  0
LINE
  8
Nr0001-Geometrie
 62
10
 10
217.753006
 20
159.785004
 11
217.753006
 21
159.635010
  0
LINE
  8
Nr0001-Geometrie
 62
10
 10
217.753006
 20
159.434998
 11
217.753006
 21
159.285004
  0
LINE
  8
Nr0001-Geometrie
 62
10
 10
334.403015
 20
159.785004
 11
335.958557
 21
159.785004
  0
LINE
  8
Nr0001-Geometrie
 62
10
 10
338.597412
 20
159.785004
 11
340.152954
 21
159.785004
  0
LINE
  8
Nr0001-Geometrie
 62
10
 10
340.153015
 20
159.785004
 11
339.388000
 21
160.550003
  0
LINE
  8
Nr0001-Geometrie
 62
10
 10
338.368042
 20
161.570007
 11
337.603027
 21
162.335022
  0
LINE
  8
Nr0001-Geometrie
 62
10
 10
337.602997
 20
162.335022
 11
337.602997
 21
163.820007
  0
LINE
  8
Nr0001-Geometrie
 62
10
 10
337.602997
 20
165.800018
 11
337.602997
 21
167.285004
  0
LINE
  8
Nr0001-Geometrie
 62
10
 10
331.203003
 20
167.285004
 11
331.203003
 21
165.800018
  0
LINE
  8
Nr0001-Geometrie
 62
10
 10
331.203003
 20
163.820007
 11
331.203003
 21
162.335022
  0
LINE
  8
Nr0001-Geometrie
 62
10
 10
331.203003
 20
162.335022
 11
330.437988
 21
161.570007
  0
LINE
  8
Nr0001-Geometrie
 62
10
 10
329.418030
 20
160.550003
 11
328.653015
 21
159.785004
  0
LINE
  8
Nr0001-Geometrie
 62
10
 10
328.652985
 20
159.785004
 11
330.208557
 21
159.785004
  0
LINE
  8
Nr0001-Geometrie
 62
10
 10
332.847443
 20
159.785004
 11
334.402954
 21
159.785004
  0
LINE
  8
Nr0001-Geometrie
 62
10
 10
337.602997
 20
162.335022
 11
335.758545
 21
162.335022
  0
LINE
  8
Nr0001-Geometrie
 62
10
 10
333.047455
 20
162.335022
 11
331.203003
 21
162.335022
  0
LINE
  8
Nr0001-Geometrie
 62
253
 10
337.602997
 20
167.285004
 11
331.203003
 21
167.285004
  0
LINE
  8
Nr0001-Geometrie
 62
253
 10
331.203003
 20
167.285004
 11
322.203003
 21
167.285004
  0
LINE
  8
Nr0001-Geometrie
 62
10
 10
89.402992
 20
159.785004
 11
87.847443
 21
159.785004
  0
LINE
  8
Nr0001-Geometrie
 62
10
 10
85.208549
 20
159.785004
 11
83.652992
 21
159.785004
  0
LINE
  8
Nr0001-Geometrie
 62
10
 10
83.652992
 20
159.785004
 11
84.417992
 21
160.550003
  0
LINE
  8
Nr0001-Geometrie
 62
10
 10
85.437988
 20
161.570007
 11
86.202988
 21
162.335022
  0
LINE
  8
Nr0001-Geometrie
 62
10
 10
86.202988
 20
162.335022
 11
86.202988
 21
163.820007
  0
LINE
  8
Nr0001-Geometrie
 62
10
 10
86.202988
 20
165.800018
 11
86.202988
 21
167.285004
  0
LINE
  8
Nr0001-Geometrie
 62
10
 10
92.603004
 20
167.285004
 11
92.603004
 21
165.800018
  0
LINE
  8
Nr0001-Geometrie
 62
10
 10
92.603004
 20
163.820007
 11
92.603004
 21
162.335022
  0
LINE
  8
Nr0001-Geometrie
 62
10
 10
92.603004
 20
162.335022
 11
93.367996
 21
161.570007
  0
LINE
  8
Nr0001-Geometrie
 62
10
 10
94.388000
 20
160.550003
 11
95.152985
 21
159.785004
  0
LINE
  8
Nr0001-Geometrie
 62
10
 10
95.152985
 20
159.785004
 11
93.597443
 21
159.785004
  0
LINE
  8
Nr0001-Geometrie
 62
10
 10
90.958549
 20
159.785004
 11
89.402992
 21
159.785004
  0
LINE
  8
Nr0001-Geometrie
 62
10
 10
86.202988
 20
162.335022
 11
88.047440
 21
162.335022
  0
LINE
  8
Nr0001-Geometrie
 62
10
 10
90.758553
 20
162.335022
 11
92.603004
 21
162.335022
  0
LINE
  8
Nr0001-Geometrie
 62
253
 10
92.603004
 20
167.285004
 11
86.202988
 21
167.285004
  0
LINE
  8
Nr0001-Geometrie
 62
253
 10
86.202988
 20
167.285004
 11
80.361488
 21
167.285004
  0
LINE
  8
Nr0001-Geometrie
 62
10
 10
328.652985
 20
159.785004
 11
328.652985
 21
159.635010
  0
LINE
  8
Nr0001-Geometrie
 62
10
 10
328.652985
 20
159.434998
 11
328.652985
 21
159.285004
  0
LINE
  8
Nr0001-Geometrie
 62
10
 10
95.152985
 20
159.785004
 11
95.152985
 21
159.635010
  0
LINE
  8
Nr0001-Geometrie
 62
10
 10
95.152985
 20
159.434998
 11
95.152985
 21
159.285004
  0
LINE
  8
Nr0001-Geometrie
 62
10
 10
340.153015
 20
159.285004
 11
340.153015
 21
159.434998
  0
LINE
  8
Nr0001-Geometrie
 62
10
 10
340.153015
 20
159.635010
 11
340.153015
 21
159.785004
  0
LINE
  8
Nr0001-Geometrie
 62
10
 10
83.652992
 20
159.285004
 11
83.652992
 21
159.434998
  0
LINE
  8
Nr0001-Geometrie
 62
10
 10
83.652992
 20
159.635010
 11
83.652992
 21
159.785004
  0
LINE
  8
Nr0001-Geometrie
 62
253
 10
348.361511
 20
167.285004
 11
343.444519
 21
167.285004
  0
LINE
  8
Nr0001-Geometrie
 62
253
 10
343.444519
 20
167.285004
 11
337.602997
 21
167.285004
  0
LINE
  8
Nr0001-Geometrie
 62
253
 10
343.444519
 20
159.285004
 11
348.361511
 21
159.285004
  0
LINE
  8
Nr0001-Geometrie
 62
253
 10
348.361511
 20
159.285004
 11
352.402985
 21
159.285004
  0
LINE
  8
Nr0001-Geometrie
 62
253
 10
75.444496
 20
159.285004
 11
80.361488
 21
159.285004
  0
LINE
  8
Nr0001-Geometrie
 62
253
 10
80.361488
 20
159.285004
 11
307.203003
 21
159.285004
  0
LINE
  8
Nr0001-Geometrie
 62
253
 10
80.361488
 20
167.285004
 11
75.444496
 21
167.285004
  0
LINE
  8
Nr0001-Geometrie
 62
253
 10
75.444496
 20
167.285004
 11
71.402992
 21
167.285004
  0
LINE
  8
Nr0001-Geometrie
 62
253
 10
92.902992
 20
156.785004
 11
92.902992
 21
147.285004
  0
LINE
  8
Nr0001-Geometrie
 62
253
 10
92.902992
 20
156.785004
 11
271.903015
 21
156.785004
  0
LINE
  8
Nr0001-Geometrie
 62
253
 10
271.903015
 20
156.785004
 11
271.903015
 21
147.285004
  0
LINE
  8
Nr0001-Geometrie
 62
253
 10
271.903015
 20
101.785011
 11
92.902992
 21
101.785011
  0
LINE
  8
Nr0001-Geometrie
 62
253
 10
92.902992
 20
147.285004
 11
271.903015
 21
147.285004
  0
LINE
  8
Nr0001-Geometrie
 62
253
 10
92.902992
 20
138.285004
 11
271.903015
 21
138.285004
  0
LINE
  8
Nr0001-Geometrie
 62
253
 10
92.902992
 20
120.285004
 11
271.903015
 21
120.285004
  0
LINE
  8
Nr0001-Geometrie
 62
253
 10
92.902992
 20
111.285011
 11
271.903015
 21
111.285011
  0
LINE
  8
Nr0001-Geometrie
 62
253
 10
92.902992
 20
138.285004
 11
92.902992
 21
120.285004
  0
LINE
  8
Nr0001-Geometrie
 62
253
 10
92.902992
 20
111.285011
 11
92.902992
 21
101.785011
  0
LINE
  8
Nr0001-Geometrie
 62
253
 10
271.903015
 20
138.285004
 11
271.903015
 21
120.285004
  0
LINE
  8
Nr0001-Geometrie
 62
253
 10
271.903015
 20
111.285011
 11
271.903015
 21
101.785011
  0
LINE
  8
Nr0001-Geometrie
 62
253
 10
83.902985
 20
156.785004
 11
83.902985
 21
101.785011
  0
LINE
  8
Nr0001-Geometrie
 62
253
 10
83.902985
 20
101.785011
 11
80.502998
 21
101.785011
  0
LINE
  8
Nr0001-Geometrie
 62
253
 10
68.402992
 20
101.785011
 11
68.402992
 21
156.785004
  0
LINE
  8
Nr0001-Geometrie
 62
253
 10
71.402992
 20
156.785004
 11
75.302994
 21
156.785004
  0
LINE
  8
Nr0001-Geometrie
 62
253
 10
71.361031
 20
159.285004
 11
71.402992
 21
159.285004
  0
LINE
  8
Nr0001-Geometrie
 62
253
 10
71.402992
 20
159.285004
 11
71.402992
 21
156.785004
  0
LINE
  8
Nr0001-Geometrie
 62
253
 10
71.361031
 20
99.285011
 11
71.402992
 21
99.285011
  0
LINE
  8
Nr0001-Geometrie
 62
253
 10
71.402992
 20
99.285011
 11
71.402992
 21
101.785011
  0
ARC
  8
Nr0001-Geometrie
 62
253
 10
71.361031
 20
156.285004
 40
3.000000
 50
90.000000
 51
170.405927
  0
ARC
  8
Nr0001-Geometrie
 62
253
 10
71.361031
 20
102.285011
 40
3.000000
 50
189.594073
 51
270.000000
  0
LINE
  8
Nr0001-Geometrie
 62
253
 10
80.502998
 20
101.785011
 11
75.302994
 21
101.785011
  0
LINE
  8
Nr0001-Geometrie
 62
253
 10
75.302994
 20
101.785011
 11
71.402992
 21
101.785011
  0
LINE
  8
Nr0001-Geometrie
 62
253
 10
75.302994
 20
156.785004
 11
80.502998
 21
156.785004
  0
LINE
  8
Nr0001-Geometrie
 62
253
 10
80.502998
 20
156.785004
 11
83.902985
 21
156.785004
  0
LINE
  8
Nr0001-Geometrie
 62
253
 10
339.902985
 20
101.785011
 11
339.902985
 21
156.785004
  0
LINE
  8
Nr0001-Geometrie
 62
253
 10
339.902985
 20
156.785004
 11
343.302979
 21
156.785004
  0
LINE
  8
Nr0001-Geometrie
 62
253
 10
355.402985
 20
156.785004
 11
355.402985
 21
101.785011
  0
LINE
  8
Nr0001-Geometrie
 62
253
 10
352.402985
 20
101.785011
 11
348.502991
 21
101.785011
  0
LINE
  8
Nr0001-Geometrie
 62
253
 10
352.444946
 20
99.285011
 11
352.402985
 21
99.285011
  0
LINE
  8
Nr0001-Geometrie
 62
253
 10
352.402985
 20
99.285011
 11
352.402985
 21
101.785011
  0
LINE
  8
Nr0001-Geometrie
 62
253
 10
352.444946
 20
159.285004
 11
352.402985
 21
159.285004
  0
LINE
  8
Nr0001-Geometrie
 62
253
 10
352.402985
 20
159.285004
 11
352.402985
 21
156.785004
  0
ARC
  8
Nr0001-Geometrie
 62
253
 10
352.444946
 20
102.285011
 40
3.000000
 50
270.000000
 51
350.405927
  0
ARC
  8
Nr0001-Geometrie
 62
253
 10
352.444946
 20
156.285004
 40
3.000000
 50
9.594073
 51
90.000000
  0
LINE
  8
Nr0001-Geometrie
 62
253
 10
343.302979
 20
156.785004
 11
348.502991
 21
156.785004
  0
LINE
  8
Nr0001-Geometrie
 62
253
 10
348.502991
 20
156.785004
 11
352.402985
 21
156.785004
  0
LINE
  8
Nr0001-Geometrie
 62
253
 10
348.502991
 20
101.785011
 11
343.302979
 21
101.785011
  0
LINE
  8
Nr0001-Geometrie
 62
253
 10
343.302979
 20
101.785011
 11
339.902985
 21
101.785011
  0
LINE
  8
Nr0001-Geometrie
 62
253
 10
339.902985
 20
156.685013
 11
285.602997
 21
156.685013
  0
LINE
  8
Nr0001-Geometrie
 62
253
 10
285.602997
 20
156.685013
 11
285.602997
 21
101.885002
  0
LINE
  8
Nr0001-Geometrie
 62
253
 10
285.602997
 20
101.885002
 11
339.902985
 21
101.885010
  0
CIRCLE
  8
Nr0001-Geometrie
 62
253
 10
290.403015
 20
129.285004
 40
4.000000
  0
LINE
  8
Nr0001-Geometrie
 62
253
 10
339.902985
 20
156.685013
 11
339.902985
 21
101.885010
  0
LINE
  8
Nr0001-Geometrie
 62
253
 10
292.602997
 20
129.660004
 11
291.265015
 21
130.147003
  0
LINE
  8
Nr0001-Geometrie
 62
253
 10
291.265015
 20
130.147003
 11
290.778015
 21
131.485001
  0
LINE
  8
Nr0001-Geometrie
 62
253
 10
290.778015
 20
131.485001
 11
290.028015
 21
131.485001
  0
LINE
  8
Nr0001-Geometrie
 62
253
 10
290.028015
 20
131.485001
 11
289.541016
 21
130.147003
  0
LINE
  8
Nr0001-Geometrie
 62
253
 10
289.541016
 20
130.147003
 11
288.203003
 21
129.660004
  0
LINE
  8
Nr0001-Geometrie
 62
253
 10
288.203003
 20
129.660004
 11
288.203003
 21
128.910004
  0
LINE
  8
Nr0001-Geometrie
 62
253
 10
288.203003
 20
128.910004
 11
289.541016
 21
128.423019
  0
LINE
  8
Nr0001-Geometrie
 62
253
 10
289.541016
 20
128.423019
 11
290.028015
 21
127.085007
  0
LINE
  8
Nr0001-Geometrie
 62
253
 10
290.028015
 20
127.085007
 11
290.778015
 21
127.085007
  0
LINE
  8
Nr0001-Geometrie
 62
253
 10
290.778015
 20
127.085007
 11
291.265015
 21
128.423019
  0
LINE
  8
Nr0001-Geometrie
 62
253
 10
291.265015
 20
128.423019
 11
292.602997
 21
128.910004
  0
LINE
  8
Nr0001-Geometrie
 62
253
 10
292.602997
 20
128.910004
 11
292.602997
 21
129.660004
  0
CIRCLE
  8
Nr0001-Geometrie
 62
253
 10
290.403015
 20
129.285004
 40
3.750000
  0
LINE
  8
Nr0001-Geometrie
 62
50
 10
59.402985
 20
155.785004
 11
58.785843
 21
155.785004
  0
LINE
  8
Nr0001-Geometrie
 62
50
 10
58.785843
 20
155.785004
 11
59.402992
 21
159.285004
  0
LINE
  8
Nr0001-Geometrie
 62
50
 10
59.402992
 20
159.285004
 11
60.020134
 21
155.785004
  0
LINE
  8
Nr0001-Geometrie
 62
50
 10
60.020134
 20
155.785004
 11
59.402985
 21
155.785004
  0
LINE
  8
Nr0001-Geometrie
 62
50
 10
59.402985
 20
155.957626
 11
58.991554
 21
155.957626
  0
LINE
  8
Nr0001-Geometrie
 62
50
 10
58.991554
 20
155.957626
 11
59.402992
 21
158.290955
  0
LINE
  8
Nr0001-Geometrie
 62
50
 10
59.402992
 20
158.290955
 11
59.814415
 21
155.957626
  0
LINE
  8
Nr0001-Geometrie
 62
50
 10
59.814415
 20
155.957626
 11
59.402985
 21
155.957626
  0
LINE
  8
Nr0001-Geometrie
 62
50
 10
59.402985
 20
156.130234
 11
59.197273
 21
156.130234
  0
LINE
  8
Nr0001-Geometrie
 62
50
 10
59.197273
 20
156.130234
 11
59.402992
 21
157.296906
  0
LINE
  8
Nr0001-Geometrie
 62
50
 10
59.402992
 20
157.296906
 11
59.608704
 21
156.130234
  0
LINE
  8
Nr0001-Geometrie
 62
50
 10
59.608704
 20
156.130234
 11
59.402985
 21
156.130234
  0
LINE
  8
Nr0001-Geometrie
 62
50
 10
59.402992
 20
159.285004
 11
59.402992
 21
151.410004
  0
LINE
  8
Nr0001-Geometrie
 62
50
 10
59.402992
 20
170.785004
 11
60.020138
 21
170.785004
  0
LINE
  8
Nr0001-Geometrie
 62
50
 10
60.020138
 20
170.785004
 11
59.402992
 21
167.285004
  0
LINE
  8
Nr0001-Geometrie
 62
50
 10
59.402992
 20
167.285004
 11
58.785851
 21
170.785004
  0
LINE
  8
Nr0001-Geometrie
 62
50
 10
58.785851
 20
170.785004
 11
59.402992
 21
170.785004
  0
LINE
  8
Nr0001-Geometrie
 62
50
 10
59.402992
 20
170.612396
 11
59.814419
 21
170.612396
  0
LINE
  8
Nr0001-Geometrie
 62
50
 10
59.814419
 20
170.612396
 11
59.402992
 21
168.279053
  0
LINE
  8
Nr0001-Geometrie
 62
50
 10
59.402992
 20
168.279053
 11
58.991562
 21
170.612396
  0
LINE
  8
Nr0001-Geometrie
 62
50
 10
58.991562
 20
170.612396
 11
59.402992
 21
170.612396
  0
LINE
  8
Nr0001-Geometrie
 62
50
 10
59.402992
 20
170.439774
 11
59.608707
 21
170.439774
  0
LINE
  8
Nr0001-Geometrie
 62
50
 10
59.608707
 20
170.439774
 11
59.402992
 21
169.273102
  0
LINE
  8
Nr0001-Geometrie
 62
50
 10
59.402992
 20
169.273102
 11
59.197273
 21
170.439774
  0
LINE
  8
Nr0001-Geometrie
 62
50
 10
59.197273
 20
170.439774
 11
59.402992
 21
170.439774
  0
LINE
  8
Nr0001-Geometrie
 62
50
 10
59.402992
 20
167.285004
 11
59.402992
 21
175.160004
  0
LINE
  8
Nr0001-Geometrie
 62
50
 10
59.402992
 20
167.285004
 11
59.402992
 21
159.285004
  0
LINE
  8
Nr0001-Geometrie
 62
10
 10
55.527988
 20
163.035004
 11
56.027988
 21
163.035004
  0
LINE
  8
Nr0001-Geometrie
 62
10
 10
56.027988
 20
163.035004
 11
56.527985
 21
163.535004
  0
LINE
  8
Nr0001-Geometrie
 62
10
 10
56.527985
 20
163.535004
 11
56.527985
 21
163.785019
  0
LINE
  8
Nr0001-Geometrie
 62
10
 10
56.527985
 20
163.785019
 11
56.027988
 21
164.285004
  0
LINE
  8
Nr0001-Geometrie
 62
10
 10
56.027988
 20
164.285004
 11
55.527988
 21
164.285004
  0
LINE
  8
Nr0001-Geometrie
 62
10
 10
55.527988
 20
164.285004
 11
55.027992
 21
163.785019
  0
LINE
  8
Nr0001-Geometrie
 62
10
 10
55.027992
 20
163.785019
 11
55.027992
 21
163.535004
  0
LINE
  8
Nr0001-Geometrie
 62
10
 10
55.027992
 20
163.535004
 11
55.527988
 21
163.035004
  0
LINE
  8
Nr0001-Geometrie
 62
10
 10
56.527985
 20
163.535004
 11
56.777988
 21
163.035004
  0
LINE
  8
Nr0001-Geometrie
 62
10
 10
56.777988
 20
163.035004
 11
57.277988
 21
162.785019
  0
LINE
  8
Nr0001-Geometrie
 62
10
 10
57.277988
 20
162.785019
 11
57.777985
 21
162.785019
  0
LINE
  8
Nr0001-Geometrie
 62
10
 10
57.777985
 20
162.785019
 11
58.277988
 21
163.035004
  0
LINE
  8
Nr0001-Geometrie
 62
10
 10
58.277988
 20
163.035004
 11
58.527988
 21
163.535004
  0
LINE
  8
Nr0001-Geometrie
 62
10
 10
58.527988
 20
163.535004
 11
58.527988
 21
163.785019
  0
LINE
  8
Nr0001-Geometrie
 62
10
 10
58.527988
 20
163.785019
 11
58.277988
 21
164.285004
  0
LINE
  8
Nr0001-Geometrie
 62
10
 10
58.277988
 20
164.285004
 11
57.777985
 21
164.535004
  0
LINE
  8
Nr0001-Geometrie
 62
10
 10
57.777985
 20
164.535004
 11
57.277988
 21
164.535004
  0
LINE
  8
Nr0001-Geometrie
 62
10
 10
57.277988
 20
164.535004
 11
56.777988
 21
164.285004
  0
LINE
  8
Nr0001-Geometrie
 62
10
 10
56.777988
 20
164.285004
 11
56.527985
 21
163.785019
  0
LINE
  8
Nr0001-Geometrie
 62
50
 10
80.361488
 20
167.285004
 11
56.952988
 21
167.285004
  0
LINE
  8
Nr0001-Geometrie
 62
50
 10
80.361488
 20
159.285004
 11
56.952988
 21
159.285004
  0
LINE
  8
Nr0001-Geometrie
 62
50
 10
50.402992
 20
163.785019
 11
49.785847
 21
163.785019
  0
LINE
  8
Nr0001-Geometrie
 62
50
 10
49.785847
 20
163.785019
 11
50.402992
 21
167.285004
  0
LINE
  8
Nr0001-Geometrie
 62
50
 10
50.402992
 20
167.285004
 11
51.020134
 21
163.785019
  0
LINE
  8
Nr0001-Geometrie
 62
50
 10
51.020134
 20
163.785019
 11
50.402992
 21
163.785019
  0
LINE
  8
Nr0001-Geometrie
 62
50
 10
50.402992
 20
163.957642
 11
49.991562
 21
163.957642
  0
LINE
  8
Nr0001-Geometrie
 62
50
 10
49.991562
 20
163.957642
 11
50.402992
 21
166.290955
  0
LINE
  8
Nr0001-Geometrie
 62
50
 10
50.402992
 20
166.290955
 11
50.814419
 21
163.957642
  0
LINE
  8
Nr0001-Geometrie
 62
50
 10
50.814419
 20
163.957642
 11
50.402992
 21
163.957642
  0
LINE
  8
Nr0001-Geometrie
 62
50
 10
50.402992
 20
164.130249
 11
50.197277
 21
164.130249
  0
LINE
  8
Nr0001-Geometrie
 62
50
 10
50.197277
 20
164.130249
 11
50.402992
 21
165.296906
  0
LINE
  8
Nr0001-Geometrie
 62
50
 10
50.402992
 20
165.296906
 11
50.608707
 21
164.130249
  0
LINE
  8
Nr0001-Geometrie
 62
50
 10
50.608707
 20
164.130249
 11
50.402992
 21
164.130249
  0
LINE
  8
Nr0001-Geometrie
 62
50
 10
50.402992
 20
102.785004
 11
51.020134
 21
102.785004
  0
LINE
  8
Nr0001-Geometrie
 62
50
 10
51.020134
 20
102.785004
 11
50.402992
 21
99.285011
  0
LINE
  8
Nr0001-Geometrie
 62
50
 10
50.402992
 20
99.285011
 11
49.785851
 21
102.785004
  0
LINE
  8
Nr0001-Geometrie
 62
50
 10
49.785851
 20
102.785004
 11
50.402992
 21
102.785004
  0
LINE
  8
Nr0001-Geometrie
 62
50
 10
50.402992
 20
102.612389
 11
50.814430
 21
102.612389
  0
LINE
  8
Nr0001-Geometrie
 62
50
 10
50.814430
 20
102.612389
 11
50.402992
 21
100.279053
  0
LINE
  8
Nr0001-Geometrie
 62
50
 10
50.402992
 20
100.279053
 11
49.991566
 21
102.612389
  0
LINE
  8
Nr0001-Geometrie
 62
50
 10
49.991566
 20
102.612389
 11
50.402992
 21
102.612389
  0
LINE
  8
Nr0001-Geometrie
 62
50
 10
50.402992
 20
102.439774
 11
50.608711
 21
102.439774
  0
LINE
  8
Nr0001-Geometrie
 62
50
 10
50.608711
 20
102.439774
 11
50.402992
 21
101.273117
  0
LINE
  8
Nr0001-Geometrie
 62
50
 10
50.402992
 20
101.273117
 11
50.197277
 21
102.439774
  0
LINE
  8
Nr0001-Geometrie
 62
50
 10
50.197277
 20
102.439774
 11
50.402992
 21
102.439774
  0
LINE
  8
Nr0001-Geometrie
 62
50
 10
50.402992
 20
99.285011
 11
50.402992
 21
167.285004
  0
LINE
  8
Nr0001-Geometrie
 62
10
 10
46.027992
 20
132.285019
 11
46.277992
 21
131.785004
  0
LINE
  8
Nr0001-Geometrie
 62
10
 10
46.277992
 20
131.785004
 11
46.777992
 21
131.285004
  0
LINE
  8
Nr0001-Geometrie
 62
10
 10
46.777992
 20
131.285004
 11
47.277992
 21
131.035019
  0
LINE
  8
Nr0001-Geometrie
 62
10
 10
47.277992
 20
131.035019
 11
48.777992
 21
131.035019
  0
LINE
  8
Nr0001-Geometrie
 62
10
 10
48.777992
 20
131.035019
 11
49.277992
 21
131.285004
  0
LINE
  8
Nr0001-Geometrie
 62
10
 10
49.277992
 20
131.285004
 11
49.527992
 21
131.785004
  0
LINE
  8
Nr0001-Geometrie
 62
10
 10
49.527992
 20
131.785004
 11
49.527992
 21
132.035004
  0
LINE
  8
Nr0001-Geometrie
 62
10
 10
49.527992
 20
132.035004
 11
49.277992
 21
132.535004
  0
LINE
  8
Nr0001-Geometrie
 62
10
 10
49.277992
 20
132.535004
 11
48.777992
 21
132.785004
  0
LINE
  8
Nr0001-Geometrie
 62
10
 10
48.777992
 20
132.785004
 11
48.277992
 21
132.785004
  0
LINE
  8
Nr0001-Geometrie
 62
10
 10
48.277992
 20
132.785004
 11
47.777996
 21
132.535004
  0
LINE
  8
Nr0001-Geometrie
 62
10
 10
47.777996
 20
132.535004
 11
47.527992
 21
132.035004
  0
LINE
  8
Nr0001-Geometrie
 62
10
 10
47.527992
 20
132.035004
 11
47.527992
 21
131.035019
  0
LINE
  8
Nr0001-Geometrie
 62
10
 10
46.527996
 20
133.785004
 11
47.027992
 21
133.785004
  0
LINE
  8
Nr0001-Geometrie
 62
10
 10
47.027992
 20
133.785004
 11
47.527992
 21
134.285004
  0
LINE
  8
Nr0001-Geometrie
 62
10
 10
47.527992
 20
134.285004
 11
47.527992
 21
134.535004
  0
LINE
  8
Nr0001-Geometrie
 62
10
 10
47.527992
 20
134.535004
 11
47.027992
 21
135.035004
  0
LINE
  8
Nr0001-Geometrie
 62
10
 10
47.027992
 20
135.035004
 11
46.527996
 21
135.035004
  0
LINE
  8
Nr0001-Geometrie
 62
10
 10
46.527996
 20
135.035004
 11
46.027992
 21
134.535004
  0
LINE
  8
Nr0001-Geometrie
 62
10
 10
46.027992
 20
134.535004
 11
46.027992
 21
134.285004
  0
LINE
  8
Nr0001-Geometrie
 62
10
 10
46.027992
 20
134.285004
 11
46.527996
 21
133.785004
  0
LINE
  8
Nr0001-Geometrie
 62
10
 10
47.527992
 20
134.285004
 11
47.777996
 21
133.785004
  0
LINE
  8
Nr0001-Geometrie
 62
10
 10
47.777996
 20
133.785004
 11
48.277992
 21
133.535019
  0
LINE
  8
Nr0001-Geometrie
 62
10
 10
48.277992
 20
133.535019
 11
48.777992
 21
133.535019
  0
LINE
  8
Nr0001-Geometrie
 62
10
 10
48.777992
 20
133.535019
 11
49.277992
 21
133.785004
  0
LINE
  8
Nr0001-Geometrie
 62
10
 10
49.277992
 20
133.785004
 11
49.527992
 21
134.285004
  0
LINE
  8
Nr0001-Geometrie
 62
10
 10
49.527992
 20
134.285004
 11
49.527992
 21
134.535004
  0
LINE
  8
Nr0001-Geometrie
 62
10
 10
49.527992
 20
134.535004
 11
49.277992
 21
135.035004
  0
LINE
  8
Nr0001-Geometrie
 62
10
 10
49.277992
 20
135.035004
 11
48.777992
 21
135.285004
  0
LINE
  8
Nr0001-Geometrie
 62
10
 10
48.777992
 20
135.285004
 11
48.277992
 21
135.285004
  0
LINE
  8
Nr0001-Geometrie
 62
10
 10
48.277992
 20
135.285004
 11
47.777996
 21
135.035004
  0
LINE
  8
Nr0001-Geometrie
 62
10
 10
47.777996
 20
135.035004
 11
47.527992
 21
134.535004
  0
LINE
  8
Nr0001-Geometrie
 62
10
 10
49.527992
 20
136.285004
 11
49.277992
 21
136.285004
  0
LINE
  8
Nr0001-Geometrie
 62
10
 10
49.277992
 20
136.285004
 11
49.277992
 21
136.035019
  0
LINE
  8
Nr0001-Geometrie
 62
10
 10
49.277992
 20
136.035019
 11
49.527992
 21
136.035019
  0
LINE
  8
Nr0001-Geometrie
 62
10
 10
49.527992
 20
136.035019
 11
49.527992
 21
136.285004
  0
LINE
  8
Nr0001-Geometrie
 62
50
 10
92.603004
 20
167.285004
 11
47.952995
 21
167.285004
  0
LINE
  8
Nr0001-Geometrie
 62
50
 10
82.903000
 20
99.285011
 11
47.952995
 21
99.285011
  0
LINE
  8
Nr0001-Geometrie
 62
50
 10
341.103027
 20
179.285004
 11
341.103027
 21
178.667877
  0
LINE
  8
Nr0001-Geometrie
 62
50
 10
341.103027
 20
178.667877
 11
337.602997
 21
179.285004
  0
LINE
  8
Nr0001-Geometrie
 62
50
 10
337.602997
 20
179.285004
 11
341.103027
 21
179.902161
  0
LINE
  8
Nr0001-Geometrie
 62
50
 10
341.103027
 20
179.902161
 11
341.103027
 21
179.285004
  0
LINE
  8
Nr0001-Geometrie
 62
50
 10
340.930420
 20
179.285004
 11
340.930420
 21
178.873581
  0
LINE
  8
Nr0001-Geometrie
 62
50
 10
340.930420
 20
178.873581
 11
338.597076
 21
179.285004
  0
LINE
  8
Nr0001-Geometrie
 62
50
 10
338.597076
 20
179.285004
 11
340.930420
 21
179.696442
  0
LINE
  8
Nr0001-Geometrie
 62
50
 10
340.930420
 20
179.696442
 11
340.930420
 21
179.285004
  0
LINE
  8
Nr0001-Geometrie
 62
50
 10
340.757751
 20
179.285004
 11
340.757751
 21
179.079285
  0
LINE
  8
Nr0001-Geometrie
 62
50
 10
340.757751
 20
179.079285
 11
339.591095
 21
179.285004
  0
LINE
  8
Nr0001-Geometrie
 62
50
 10
339.591095
 20
179.285004
 11
340.757751
 21
179.490723
  0
LINE
  8
Nr0001-Geometrie
 62
50
 10
340.757751
 20
179.490723
 11
340.757751
 21
179.285004
  0
LINE
  8
Nr0001-Geometrie
 62
50
 10
327.702972
 20
179.285004
 11
327.702972
 21
179.902161
  0
LINE
  8
Nr0001-Geometrie
 62
50
 10
327.702972
 20
179.902161
 11
331.203003
 21
179.285004
  0
LINE
  8
Nr0001-Geometrie
 62
50
 10
331.203003
 20
179.285004
 11
327.702972
 21
178.667877
  0
LINE
  8
Nr0001-Geometrie
 62
50
 10
327.702972
 20
178.667877
 11
327.702972
 21
179.285004
  0
LINE
  8
Nr0001-Geometrie
 62
50
 10
327.875610
 20
179.285004
 11
327.875610
 21
179.696442
  0
LINE
  8
Nr0001-Geometrie
 62
50
 10
327.875610
 20
179.696442
 11
330.208923
 21
179.285004
  0
LINE
  8
Nr0001-Geometrie
 62
50
 10
330.208923
 20
179.285004
 11
327.875610
 21
178.873581
  0
LINE
  8
Nr0001-Geometrie
 62
50
 10
327.875610
 20
178.873581
 11
327.875610
 21
179.285004
  0
LINE
  8
Nr0001-Geometrie
 62
50
 10
328.048248
 20
179.285004
 11
328.048248
 21
179.490723
  0
LINE
  8
Nr0001-Geometrie
 62
50
 10
328.048248
 20
179.490723
 11
329.214905
 21
179.285004
  0
LINE
  8
Nr0001-Geometrie
 62
50
 10
329.214905
 20
179.285004
 11
328.048248
 21
179.079285
  0
LINE
  8
Nr0001-Geometrie
 62
50
 10
328.048248
 20
179.079285
 11
328.048248
 21
179.285004
  0
LINE
  8
Nr0001-Geometrie
 62
50
 10
323.327972
 20
179.285004
 11
352.102997
 21
179.285004
  0
LINE
  8
Nr0001-Geometrie
 62
10
 10
344.353027
 20
180.160004
 11
345.353027
 21
183.660004
  0
LINE
  8
Nr0001-Geometrie
 62
10
 10
346.103027
 20
181.910019
 11
345.852997
 21
182.660004
  0
LINE
  8
Nr0001-Geometrie
 62
10
 10
345.852997
 20
182.660004
 11
345.603027
 21
182.910004
  0
LINE
  8
Nr0001-Geometrie
 62
10
 10
345.603027
 20
182.910004
 11
344.853027
 21
183.160019
  0
LINE
  8
Nr0001-Geometrie
 62
10
 10
344.853027
 20
183.160019
 11
344.103027
 21
182.910004
  0
LINE
  8
Nr0001-Geometrie
 62
10
 10
344.103027
 20
182.910004
 11
343.852997
 21
182.660004
  0
LINE
  8
Nr0001-Geometrie
 62
10
 10
343.852997
 20
182.660004
 11
343.603027
 21
181.910019
  0
LINE
  8
Nr0001-Geometrie
 62
10
 10
343.603027
 20
181.910019
 11
343.852997
 21
181.160004
  0
LINE
  8
Nr0001-Geometrie
 62
10
 10
343.852997
 20
181.160004
 11
344.103027
 21
180.910019
  0
LINE
  8
Nr0001-Geometrie
 62
10
 10
344.103027
 20
180.910019
 11
344.853027
 21
180.660019
  0
LINE
  8
Nr0001-Geometrie
 62
10
 10
344.853027
 20
180.660019
 11
345.603027
 21
180.910019
  0
LINE
  8
Nr0001-Geometrie
 62
10
 10
345.603027
 20
180.910019
 11
345.852997
 21
181.160004
  0
LINE
  8
Nr0001-Geometrie
 62
10
 10
345.852997
 20
181.160004
 11
346.103027
 21
181.910019
  0
LINE
  8
Nr0001-Geometrie
 62
10
 10
348.103027
 20
183.660004
 11
347.602997
 21
183.410004
  0
LINE
  8
Nr0001-Geometrie
 62
10
 10
347.602997
 20
183.410004
 11
347.102997
 21
182.910004
  0
LINE
  8
Nr0001-Geometrie
 62
10
 10
347.102997
 20
182.910004
 11
346.853027
 21
182.410004
  0
LINE
  8
Nr0001-Geometrie
 62
10
 10
346.853027
 20
182.410004
 11
346.853027
 21
180.910004
  0
LINE
  8
Nr0001-Geometrie
 62
10
 10
346.853027
 20
180.910004
 11
347.102997
 21
180.410004
  0
LINE
  8
Nr0001-Geometrie
 62
10
 10
347.102997
 20
180.410004
 11
347.602997
 21
180.160004
  0
LINE
  8
Nr0001-Geometrie
 62
10
 10
347.602997
 20
180.160004
 11
347.853027
 21
180.160004
  0
LINE
  8
Nr0001-Geometrie
 62
10
 10
347.853027
 20
180.160004
 11
348.352997
 21
180.410004
  0
LINE
  8
Nr0001-Geometrie
 62
10
 10
348.352997
 20
180.410004
 11
348.603027
 21
180.910004
  0
LINE
  8
Nr0001-Geometrie
 62
10
 10
348.603027
 20
180.910004
 11
348.603027
 21
181.410004
  0
LINE
  8
Nr0001-Geometrie
 62
10
 10
348.603027
 20
181.410004
 11
348.352997
 21
181.910004
  0
LINE
  8
Nr0001-Geometrie
 62
10
 10
348.352997
 20
181.910004
 11
347.853027
 21
182.160004
  0
LINE
  8
Nr0001-Geometrie
 62
10
 10
347.853027
 20
182.160004
 11
346.853027
 21
182.160004
  0
LINE
  8
Nr0001-Geometrie
 62
10
 10
349.602997
 20
180.160004
 11
349.602997
 21
180.410004
  0
LINE
  8
Nr0001-Geometrie
 62
10
 10
349.602997
 20
180.410004
 11
349.353027
 21
180.410004
  0
LINE
  8
Nr0001-Geometrie
 62
10
 10
349.353027
 20
180.410004
 11
349.353027
 21
180.160004
  0
LINE
  8
Nr0001-Geometrie
 62
10
 10
349.353027
 20
180.160004
 11
349.602997
 21
180.160004
  0
LINE
  8
Nr0001-Geometrie
 62
10
 10
351.603027
 20
181.910004
 11
351.603027
 21
180.160004
  0
LINE
  8
Nr0001-Geometrie
 62
10
 10
351.352997
 20
183.660004
 11
350.353027
 21
180.910004
  0
LINE
  8
Nr0001-Geometrie
 62
10
 10
350.353027
 20
180.910004
 11
352.102997
 21
180.910004
  0
LINE
  8
Nr0001-Geometrie
 62
50
 10
331.203003
 20
167.285004
 11
331.203003
 21
181.735001
  0
LINE
  8
Nr0001-Geometrie
 62
50
 10
337.602997
 20
167.285004
 11
337.602997
 21
181.735001
  0
LINE
  8
Nr0001-Geometrie
 62
50
 10
343.652985
 20
188.285004
 11
343.652985
 21
187.667862
  0
LINE
  8
Nr0001-Geometrie
 62
50
 10
343.652985
 20
187.667862
 11
340.153015
 21
188.285004
  0
LINE
  8
Nr0001-Geometrie
 62
50
 10
340.153015
 20
188.285004
 11
343.652985
 21
188.902145
  0
LINE
  8
Nr0001-Geometrie
 62
50
 10
343.652985
 20
188.902145
 11
343.652985
 21
188.285004
  0
LINE
  8
Nr0001-Geometrie
 62
50
 10
343.480377
 20
188.285004
 11
343.480377
 21
187.873566
  0
LINE
  8
Nr0001-Geometrie
 62
50
 10
343.480377
 20
187.873566
 11
341.147034
 21
188.285004
  0
LINE
  8
Nr0001-Geometrie
 62
50
 10
341.147034
 20
188.285004
 11
343.480377
 21
188.696442
  0
LINE
  8
Nr0001-Geometrie
 62
50
 10
343.480377
 20
188.696442
 11
343.480377
 21
188.285004
  0
LINE
  8
Nr0001-Geometrie
 62
50
 10
343.307770
 20
188.285004
 11
343.307770
 21
188.079300
  0
LINE
  8
Nr0001-Geometrie
 62
50
 10
343.307770
 20
188.079300
 11
342.141113
 21
188.285004
  0
LINE
  8
Nr0001-Geometrie
 62
50
 10
342.141113
 20
188.285004
 11
343.307770
 21
188.490738
  0
LINE
  8
Nr0001-Geometrie
 62
50
 10
343.307770
 20
188.490738
 11
343.307770
 21
188.285004
  0
LINE
  8
Nr0001-Geometrie
 62
50
 10
325.153015
 20
188.285004
 11
325.153015
 21
188.902145
  0
LINE
  8
Nr0001-Geometrie
 62
50
 10
325.153015
 20
188.902145
 11
328.652985
 21
188.285004
  0
LINE
  8
Nr0001-Geometrie
 62
50
 10
328.652985
 20
188.285004
 11
325.153015
 21
187.667862
  0
LINE
  8
Nr0001-Geometrie
 62
50
 10
325.153015
 20
187.667862
 11
325.153015
 21
188.285004
  0
LINE
  8
Nr0001-Geometrie
 62
50
 10
325.325623
 20
188.285004
 11
325.325623
 21
188.696442
  0
LINE
  8
Nr0001-Geometrie
 62
50
 10
325.325623
 20
188.696442
 11
327.658966
 21
188.285004
  0
LINE
  8
Nr0001-Geometrie
 62
50
 10
327.658966
 20
188.285004
 11
325.325623
 21
187.873566
  0
LINE
  8
Nr0001-Geometrie
 62
50
 10
325.325623
 20
187.873566
 11
325.325623
 21
188.285004
  0
LINE
  8
Nr0001-Geometrie
 62
50
 10
325.498230
 20
188.285004
 11
325.498230
 21
188.490738
  0
LINE
  8
Nr0001-Geometrie
 62
50
 10
325.498230
 20
188.490738
 11
326.664886
 21
188.285004
  0
LINE
  8
Nr0001-Geometrie
 62
50
 10
326.664886
 20
188.285004
 11
325.498230
 21
188.079300
  0
LINE
  8
Nr0001-Geometrie
 62
50
 10
325.498230
 20
188.079300
 11
325.498230
 21
188.285004
  0
LINE
  8
Nr0001-Geometrie
 62
50
 10
320.778015
 20
188.285004
 11
367.902985
 21
188.285004
  0
LINE
  8
Nr0001-Geometrie
 62
10
 10
346.903015
 20
189.160004
 11
347.902985
 21
192.660004
  0
LINE
  8
Nr0001-Geometrie
 62
10
 10
348.652985
 20
190.910019
 11
348.403015
 21
191.660004
  0
LINE
  8
Nr0001-Geometrie
 62
10
 10
348.403015
 20
191.660004
 11
348.153015
 21
191.910019
  0
LINE
  8
Nr0001-Geometrie
 62
10
 10
348.153015
 20
191.910019
 11
347.402985
 21
192.160019
  0
LINE
  8
Nr0001-Geometrie
 62
10
 10
347.402985
 20
192.160019
 11
346.652985
 21
191.910019
  0
LINE
  8
Nr0001-Geometrie
 62
10
 10
346.652985
 20
191.910019
 11
346.403015
 21
191.660004
  0
LINE
  8
Nr0001-Geometrie
 62
10
 10
346.403015
 20
191.660004
 11
346.152985
 21
190.910019
  0
LINE
  8
Nr0001-Geometrie
 62
10
 10
346.152985
 20
190.910019
 11
346.403015
 21
190.160004
  0
LINE
  8
Nr0001-Geometrie
 62
10
 10
346.403015
 20
190.160004
 11
346.652985
 21
189.910004
  0
LINE
  8
Nr0001-Geometrie
 62
10
 10
346.652985
 20
189.910004
 11
347.402985
 21
189.660019
  0
LINE
  8
Nr0001-Geometrie
 62
10
 10
347.402985
 20
189.660019
 11
348.153015
 21
189.910004
  0
LINE
  8
Nr0001-Geometrie
 62
10
 10
348.153015
 20
189.910004
 11
348.403015
 21
190.160004
  0
LINE
  8
Nr0001-Geometrie
 62
10
 10
348.403015
 20
190.160004
 11
348.652985
 21
190.910019
  0
LINE
  8
Nr0001-Geometrie
 62
10
 10
349.403015
 20
191.660004
 11
350.402985
 21
192.660004
  0
LINE
  8
Nr0001-Geometrie
 62
10
 10
350.402985
 20
192.660004
 11
350.402985
 21
189.160004
  0
LINE
  8
Nr0001-Geometrie
 62
10
 10
351.152985
 20
191.660004
 11
352.153015
 21
192.660004
  0
LINE
  8
Nr0001-Geometrie
 62
10
 10
352.153015
 20
192.660004
 11
352.153015
 21
189.160004
  0
LINE
  8
Nr0001-Geometrie
 62
10
 10
353.153015
 20
189.160004
 11
353.153015
 21
189.410004
  0
LINE
  8
Nr0001-Geometrie
 62
10
 10
353.153015
 20
189.410004
 11
352.902985
 21
189.410004
  0
LINE
  8
Nr0001-Geometrie
 62
10
 10
352.902985
 20
189.410004
 11
352.902985
 21
189.160004
  0
LINE
  8
Nr0001-Geometrie
 62
10
 10
352.902985
 20
189.160004
 11
353.153015
 21
189.160004
  0
LINE
  8
Nr0001-Geometrie
 62
10
 10
353.903015
 20
189.160004
 11
354.653015
 21
189.160004
  0
LINE
  8
Nr0001-Geometrie
 62
10
 10
354.653015
 20
189.160004
 11
355.153015
 21
189.410004
  0
LINE
  8
Nr0001-Geometrie
 62
10
 10
355.153015
 20
189.410004
 11
355.402985
 21
190.160004
  0
LINE
  8
Nr0001-Geometrie
 62
10
 10
355.402985
 20
190.160004
 11
355.153015
 21
190.910004
  0
LINE
  8
Nr0001-Geometrie
 62
10
 10
355.153015
 20
190.910004
 11
354.653015
 21
191.160004
  0
LINE
  8
Nr0001-Geometrie
 62
10
 10
354.653015
 20
191.160004
 11
353.903015
 21
191.160004
  0
LINE
  8
Nr0001-Geometrie
 62
10
 10
353.903015
 20
191.160004
 11
353.903015
 21
192.660004
  0
LINE
  8
Nr0001-Geometrie
 62
10
 10
353.903015
 20
192.660004
 11
355.153015
 21
192.660004
  0
LINE
  8
Nr0001-Geometrie
 62
10
 10
359.403015
 20
191.660004
 11
360.653015
 21
189.160004
  0
LINE
  8
Nr0001-Geometrie
 62
10
 10
359.403015
 20
189.160004
 11
360.653015
 21
191.660004
  0
LINE
  8
Nr0001-Geometrie
 62
10
 10
361.903015
 20
189.160004
 11
362.402985
 21
189.410019
  0
LINE
  8
Nr0001-Geometrie
 62
10
 10
362.402985
 20
189.410019
 11
362.902985
 21
189.910004
  0
LINE
  8
Nr0001-Geometrie
 62
10
 10
362.902985
 20
189.910004
 11
363.153015
 21
190.410004
  0
LINE
  8
Nr0001-Geometrie
 62
10
 10
363.153015
 20
190.410004
 11
363.153015
 21
191.910019
  0
LINE
  8
Nr0001-Geometrie
 62
10
 10
363.153015
 20
191.910019
 11
362.902985
 21
192.410004
  0
LINE
  8
Nr0001-Geometrie
 62
10
 10
362.902985
 20
192.410004
 11
362.402985
 21
192.660004
  0
LINE
  8
Nr0001-Geometrie
 62
10
 10
362.402985
 20
192.660004
 11
362.153015
 21
192.660004
  0
LINE
  8
Nr0001-Geometrie
 62
10
 10
362.153015
 20
192.660004
 11
361.652985
 21
192.410004
  0
LINE
  8
Nr0001-Geometrie
 62
10
 10
361.652985
 20
192.410004
 11
361.403015
 21
191.910019
  0
LINE
  8
Nr0001-Geometrie
 62
10
 10
361.403015
 20
191.910019
 11
361.403015
 21
191.410004
  0
LINE
  8
Nr0001-Geometrie
 62
10
 10
361.403015
 20
191.410004
 11
361.652985
 21
190.910019
  0
LINE
  8
Nr0001-Geometrie
 62
10
 10
361.652985
 20
190.910019
 11
362.153015
 21
190.660019
  0
LINE
  8
Nr0001-Geometrie
 62
10
 10
362.153015
 20
190.660019
 11
363.153015
 21
190.660019
  0
LINE
  8
Nr0001-Geometrie
 62
10
 10
365.653015
 20
190.410004
 11
365.653015
 21
191.410004
  0
LINE
  8
Nr0001-Geometrie
 62
10
 10
365.653015
 20
191.410004
 11
365.402985
 21
192.160019
  0
LINE
  8
Nr0001-Geometrie
 62
10
 10
365.402985
 20
192.160019
 11
364.902985
 21
192.660004
  0
LINE
  8
Nr0001-Geometrie
 62
10
 10
364.902985
 20
192.660004
 11
364.653015
 21
192.660004
  0
LINE
  8
Nr0001-Geometrie
 62
10
 10
364.653015
 20
192.660004
 11
364.152985
 21
192.160019
  0
LINE
  8
Nr0001-Geometrie
 62
10
 10
364.152985
 20
192.160019
 11
363.903015
 21
191.410004
  0
LINE
  8
Nr0001-Geometrie
 62
10
 10
363.903015
 20
191.410004
 11
363.903015
 21
190.410004
  0
LINE
  8
Nr0001-Geometrie
 62
10
 10
363.903015
 20
190.410004
 11
364.152985
 21
189.660019
  0
LINE
  8
Nr0001-Geometrie
 62
10
 10
364.152985
 20
189.660019
 11
364.653015
 21
189.160004
  0
LINE
  8
Nr0001-Geometrie
 62
10
 10
364.653015
 20
189.160004
 11
364.902985
 21
189.160004
  0
LINE
  8
Nr0001-Geometrie
 62
10
 10
364.902985
 20
189.160004
 11
365.402985
 21
189.660019
  0
LINE
  8
Nr0001-Geometrie
 62
10
 10
365.402985
 20
189.660019
 11
365.653015
 21
190.410004
  0
LINE
  8
Nr0001-Geometrie
 62
10
 10
367.902985
 20
191.910019
 11
367.653015
 21
191.410004
  0
LINE
  8
Nr0001-Geometrie
 62
10
 10
367.653015
 20
191.410004
 11
367.153015
 21
191.160004
  0
LINE
  8
Nr0001-Geometrie
 62
10
 10
367.153015
 20
191.160004
 11
366.652985
 21
191.410004
  0
LINE
  8
Nr0001-Geometrie
 62
10
 10
366.652985
 20
191.410004
 11
366.403015
 21
191.910019
  0
LINE
  8
Nr0001-Geometrie
 62
10
 10
366.403015
 20
191.910019
 11
366.652985
 21
192.410004
  0
LINE
  8
Nr0001-Geometrie
 62
10
 10
366.652985
 20
192.410004
 11
367.153015
 21
192.660004
  0
LINE
  8
Nr0001-Geometrie
 62
10
 10
367.153015
 20
192.660004
 11
367.653015
 21
192.410004
  0
LINE
  8
Nr0001-Geometrie
 62
10
 10
367.653015
 20
192.410004
 11
367.902985
 21
191.910019
  0
LINE
  8
Nr0001-Geometrie
 62
50
 10
328.652985
 20
159.785004
 11
328.652985
 21
190.735016
  0
LINE
  8
Nr0001-Geometrie
 62
50
 10
340.153015
 20
159.785004
 11
340.153015
 21
190.735016
  0
LINE
  8
Nr0001-Geometrie
 62
50
 10
85.903000
 20
179.285004
 11
85.903000
 21
179.902161
  0
LINE
  8
Nr0001-Geometrie
 62
50
 10
85.903000
 20
179.902161
 11
89.402992
 21
179.285004
  0
LINE
  8
Nr0001-Geometrie
 62
50
 10
89.402992
 20
179.285004
 11
85.903000
 21
178.667877
  0
LINE
  8
Nr0001-Geometrie
 62
50
 10
85.903000
 20
178.667877
 11
85.903000
 21
179.285004
  0
LINE
  8
Nr0001-Geometrie
 62
50
 10
86.075607
 20
179.285004
 11
86.075607
 21
179.696442
  0
LINE
  8
Nr0001-Geometrie
 62
50
 10
86.075607
 20
179.696442
 11
88.408951
 21
179.285004
  0
LINE
  8
Nr0001-Geometrie
 62
50
 10
88.408951
 20
179.285004
 11
86.075607
 21
178.873581
  0
LINE
  8
Nr0001-Geometrie
 62
50
 10
86.075607
 20
178.873581
 11
86.075607
 21
179.285004
  0
LINE
  8
Nr0001-Geometrie
 62
50
 10
86.248230
 20
179.285004
 11
86.248230
 21
179.490723
  0
LINE
  8
Nr0001-Geometrie
 62
50
 10
86.248230
 20
179.490723
 11
87.414894
 21
179.285004
  0
LINE
  8
Nr0001-Geometrie
 62
50
 10
87.414894
 20
179.285004
 11
86.248230
 21
179.079285
  0
LINE
  8
Nr0001-Geometrie
 62
50
 10
86.248230
 20
179.079285
 11
86.248230
 21
179.285004
  0
LINE
  8
Nr0001-Geometrie
 62
50
 10
74.902992
 20
179.285004
 11
74.902992
 21
178.667877
  0
LINE
  8
Nr0001-Geometrie
 62
50
 10
74.902992
 20
178.667877
 11
71.402992
 21
179.285004
  0
LINE
  8
Nr0001-Geometrie
 62
50
 10
71.402992
 20
179.285004
 11
74.902992
 21
179.902161
  0
LINE
  8
Nr0001-Geometrie
 62
50
 10
74.902992
 20
179.902161
 11
74.902992
 21
179.285004
  0
LINE
  8
Nr0001-Geometrie
 62
50
 10
74.730377
 20
179.285004
 11
74.730377
 21
178.873581
  0
LINE
  8
Nr0001-Geometrie
 62
50
 10
74.730377
 20
178.873581
 11
72.397049
 21
179.285004
  0
LINE
  8
Nr0001-Geometrie
 62
50
 10
72.397049
 20
179.285004
 11
74.730377
 21
179.696442
  0
LINE
  8
Nr0001-Geometrie
 62
50
 10
74.730377
 20
179.696442
 11
74.730377
 21
179.285004
  0
LINE
  8
Nr0001-Geometrie
 62
50
 10
74.557762
 20
179.285004
 11
74.557762
 21
179.079285
  0
LINE
  8
Nr0001-Geometrie
 62
50
 10
74.557762
 20
179.079285
 11
73.391098
 21
179.285004
  0
LINE
  8
Nr0001-Geometrie
 62
50
 10
73.391098
 20
179.285004
 11
74.557762
 21
179.490723
  0
LINE
  8
Nr0001-Geometrie
 62
50
 10
74.557762
 20
179.490723
 11
74.557762
 21
179.285004
  0
LINE
  8
Nr0001-Geometrie
 62
50
 10
71.402992
 20
179.285004
 11
89.402992
 21
179.285004
  0
LINE
  8
Nr0001-Geometrie
 62
10
 10
79.027992
 20
182.660004
 11
80.027992
 21
183.660004
  0
LINE
  8
Nr0001-Geometrie
 62
10
 10
80.027992
 20
183.660004
 11
80.027992
 21
180.160004
  0
LINE
  8
Nr0001-Geometrie
 62
10
 10
81.027992
 20
183.160019
 11
81.027992
 21
182.660004
  0
LINE
  8
Nr0001-Geometrie
 62
10
 10
81.027992
 20
182.660004
 11
81.528000
 21
182.160019
  0
LINE
  8
Nr0001-Geometrie
 62
10
 10
81.528000
 20
182.160019
 11
81.777992
 21
182.160019
  0
LINE
  8
Nr0001-Geometrie
 62
10
 10
81.777992
 20
182.160019
 11
82.277992
 21
182.660004
  0
LINE
  8
Nr0001-Geometrie
 62
10
 10
82.277992
 20
182.660004
 11
82.277992
 21
183.160019
  0
LINE
  8
Nr0001-Geometrie
 62
10
 10
82.277992
 20
183.160019
 11
81.777992
 21
183.660004
  0
LINE
  8
Nr0001-Geometrie
 62
10
 10
81.777992
 20
183.660004
 11
81.528000
 21
183.660004
  0
LINE
  8
Nr0001-Geometrie
 62
10
 10
81.528000
 20
183.660004
 11
81.027992
 21
183.160019
  0
LINE
  8
Nr0001-Geometrie
 62
10
 10
81.528000
 20
182.160019
 11
81.027992
 21
181.910019
  0
LINE
  8
Nr0001-Geometrie
 62
10
 10
81.027992
 20
181.910019
 11
80.777985
 21
181.410004
  0
LINE
  8
Nr0001-Geometrie
 62
10
 10
80.777985
 20
181.410004
 11
80.777985
 21
180.910019
  0
LINE
  8
Nr0001-Geometrie
 62
10
 10
80.777985
 20
180.910019
 11
81.027992
 21
180.410004
  0
LINE
  8
Nr0001-Geometrie
 62
10
 10
81.027992
 20
180.410004
 11
81.528000
 21
180.160004
  0
LINE
  8
Nr0001-Geometrie
 62
10
 10
81.528000
 20
180.160004
 11
81.777992
 21
180.160004
  0
LINE
  8
Nr0001-Geometrie
 62
10
 10
81.777992
 20
180.160004
 11
82.277992
 21
180.410004
  0
LINE
  8
Nr0001-Geometrie
 62
10
 10
82.277992
 20
180.410004
 11
82.527992
 21
180.910019
  0
LINE
  8
Nr0001-Geometrie
 62
10
 10
82.527992
 20
180.910019
 11
82.527992
 21
181.410004
  0
LINE
  8
Nr0001-Geometrie
 62
10
 10
82.527992
 20
181.410004
 11
82.277992
 21
181.910019
  0
LINE
  8
Nr0001-Geometrie
 62
10
 10
82.277992
 20
181.910019
 11
81.777992
 21
182.160019
  0
LINE
  8
Nr0001-Geometrie
 62
50
 10
71.402992
 20
167.285004
 11
71.402992
 21
181.735001
  0
LINE
  8
Nr0001-Geometrie
 62
50
 10
89.402992
 20
169.732529
 11
89.402992
 21
181.735001
  0
LINE
  8
Nr0001-Geometrie
 62
50
 10
208.403000
 20
188.285004
 11
208.403000
 21
188.902145
  0
LINE
  8
Nr0001-Geometrie
 62
50
 10
208.403000
 20
188.902145
 11
211.903000
 21
188.285004
  0
LINE
  8
Nr0001-Geometrie
 62
50
 10
211.903000
 20
188.285004
 11
208.403000
 21
187.667862
  0
LINE
  8
Nr0001-Geometrie
 62
50
 10
208.403000
 20
187.667862
 11
208.403000
 21
188.285004
  0
LINE
  8
Nr0001-Geometrie
 62
50
 10
208.575607
 20
188.285004
 11
208.575607
 21
188.696442
  0
LINE
  8
Nr0001-Geometrie
 62
50
 10
208.575607
 20
188.696442
 11
210.908951
 21
188.285004
  0
LINE
  8
Nr0001-Geometrie
 62
50
 10
210.908951
 20
188.285004
 11
208.575607
 21
187.873566
  0
LINE
  8
Nr0001-Geometrie
 62
50
 10
208.575607
 20
187.873566
 11
208.575607
 21
188.285004
  0
LINE
  8
Nr0001-Geometrie
 62
50
 10
208.748230
 20
188.285004
 11
208.748230
 21
188.490738
  0
LINE
  8
Nr0001-Geometrie
 62
50
 10
208.748230
 20
188.490738
 11
209.914886
 21
188.285004
  0
LINE
  8
Nr0001-Geometrie
 62
50
 10
209.914886
 20
188.285004
 11
208.748230
 21
188.079300
  0
LINE
  8
Nr0001-Geometrie
 62
50
 10
208.748230
 20
188.079300
 11
208.748230
 21
188.285004
  0
LINE
  8
Nr0001-Geometrie
 62
50
 10
74.902992
 20
188.285004
 11
74.902992
 21
187.667862
  0
LINE
  8
Nr0001-Geometrie
 62
50
 10
74.902992
 20
187.667862
 11
71.402992
 21
188.285004
  0
LINE
  8
Nr0001-Geometrie
 62
50
 10
71.402992
 20
188.285004
 11
74.902992
 21
188.902145
  0
LINE
  8
Nr0001-Geometrie
 62
50
 10
74.902992
 20
188.902145
 11
74.902992
 21
188.285004
  0
LINE
  8
Nr0001-Geometrie
 62
50
 10
74.730377
 20
188.285004
 11
74.730377
 21
187.873566
  0
LINE
  8
Nr0001-Geometrie
 62
50
 10
74.730377
 20
187.873566
 11
72.397041
 21
188.285004
  0
LINE
  8
Nr0001-Geometrie
 62
50
 10
72.397041
 20
188.285004
 11
74.730377
 21
188.696442
  0
LINE
  8
Nr0001-Geometrie
 62
50
 10
74.730377
 20
188.696442
 11
74.730377
 21
188.285004
  0
LINE
  8
Nr0001-Geometrie
 62
50
 10
74.557762
 20
188.285004
 11
74.557762
 21
188.079300
  0
LINE
  8
Nr0001-Geometrie
 62
50
 10
74.557762
 20
188.079300
 11
73.391098
 21
188.285004
  0
LINE
  8
Nr0001-Geometrie
 62
50
 10
73.391098
 20
188.285004
 11
74.557762
 21
188.490738
  0
LINE
  8
Nr0001-Geometrie
 62
50
 10
74.557762
 20
188.490738
 11
74.557762
 21
188.285004
  0
LINE
  8
Nr0001-Geometrie
 62
50
 10
71.402992
 20
188.285004
 11
211.903000
 21
188.285004
  0
LINE
  8
Nr0001-Geometrie
 62
10
 10
137.528000
 20
191.660004
 11
138.528000
 21
192.660004
  0
LINE
  8
Nr0001-Geometrie
 62
10
 10
138.528000
 20
192.660004
 11
138.528000
 21
189.160004
  0
LINE
  8
Nr0001-Geometrie
 62
10
 10
140.527985
 20
190.910019
 11
140.527985
 21
189.160004
  0
LINE
  8
Nr0001-Geometrie
 62
10
 10
140.278000
 20
192.660004
 11
139.277985
 21
189.910004
  0
LINE
  8
Nr0001-Geometrie
 62
10
 10
139.277985
 20
189.910004
 11
141.028000
 21
189.910004
  0
LINE
  8
Nr0001-Geometrie
 62
10
 10
143.528000
 20
190.410004
 11
143.528000
 21
191.410004
  0
LINE
  8
Nr0001-Geometrie
 62
10
 10
143.528000
 20
191.410004
 11
143.277985
 21
192.160019
  0
LINE
  8
Nr0001-Geometrie
 62
10
 10
143.277985
 20
192.160019
 11
142.778000
 21
192.660004
  0
LINE
  8
Nr0001-Geometrie
 62
10
 10
142.778000
 20
192.660004
 11
142.528000
 21
192.660004
  0
LINE
  8
Nr0001-Geometrie
 62
10
 10
142.528000
 20
192.660004
 11
142.027985
 21
192.160019
  0
LINE
  8
Nr0001-Geometrie
 62
10
 10
142.027985
 20
192.160019
 11
141.777985
 21
191.410004
  0
LINE
  8
Nr0001-Geometrie
 62
10
 10
141.777985
 20
191.410004
 11
141.777985
 21
190.410004
  0
LINE
  8
Nr0001-Geometrie
 62
10
 10
141.777985
 20
190.410004
 11
142.027985
 21
189.660019
  0
LINE
  8
Nr0001-Geometrie
 62
10
 10
142.027985
 20
189.660019
 11
142.528000
 21
189.160004
  0
LINE
  8
Nr0001-Geometrie
 62
10
 10
142.528000
 20
189.160004
 11
142.778000
 21
189.160004
  0
LINE
  8
Nr0001-Geometrie
 62
10
 10
142.778000
 20
189.160004
 11
143.277985
 21
189.660019
  0
LINE
  8
Nr0001-Geometrie
 62
10
 10
143.277985
 20
189.660019
 11
143.528000
 21
190.410004
  0
LINE
  8
Nr0001-Geometrie
 62
10
 10
144.527985
 20
189.160004
 11
144.527985
 21
189.410019
  0
LINE
  8
Nr0001-Geometrie
 62
10
 10
144.527985
 20
189.410019
 11
144.277985
 21
189.410019
  0
LINE
  8
Nr0001-Geometrie
 62
10
 10
144.277985
 20
189.410019
 11
144.277985
 21
189.160004
  0
LINE
  8
Nr0001-Geometrie
 62
10
 10
144.277985
 20
189.160004
 11
144.527985
 21
189.160004
  0
LINE
  8
Nr0001-Geometrie
 62
10
 10
145.278000
 20
189.160004
 11
146.028000
 21
189.160004
  0
LINE
  8
Nr0001-Geometrie
 62
10
 10
146.028000
 20
189.160004
 11
146.528000
 21
189.410019
  0
LINE
  8
Nr0001-Geometrie
 62
10
 10
146.528000
 20
189.410019
 11
146.777985
 21
190.160004
  0
LINE
  8
Nr0001-Geometrie
 62
10
 10
146.777985
 20
190.160004
 11
146.528000
 21
190.910019
  0
LINE
  8
Nr0001-Geometrie
 62
10
 10
146.528000
 20
190.910019
 11
146.028000
 21
191.160004
  0
LINE
  8
Nr0001-Geometrie
 62
10
 10
146.028000
 20
191.160004
 11
145.278000
 21
191.160004
  0
LINE
  8
Nr0001-Geometrie
 62
10
 10
145.278000
 20
191.160004
 11
145.278000
 21
192.660004
  0
LINE
  8
Nr0001-Geometrie
 62
10
 10
145.278000
 20
192.660004
 11
146.528000
 21
192.660004
  0
LINE
  8
Nr0001-Geometrie
 62
50
 10
71.402992
 20
167.285004
 11
71.402992
 21
190.735016
  0
LINE
  8
Nr0001-Geometrie
 62
50
 10
211.903000
 20
169.732529
 11
211.903000
 21
190.735016
  0
LINE
  8
Nr0001-Geometrie
 62
50
 10
330.903015
 20
197.285004
 11
330.903015
 21
197.902145
  0
LINE
  8
Nr0001-Geometrie
 62
50
 10
330.903015
 20
197.902145
 11
334.403015
 21
197.285004
  0
LINE
  8
Nr0001-Geometrie
 62
50
 10
334.403015
 20
197.285004
 11
330.903015
 21
196.667862
  0
LINE
  8
Nr0001-Geometrie
 62
50
 10
330.903015
 20
196.667862
 11
330.903015
 21
197.285004
  0
LINE
  8
Nr0001-Geometrie
 62
50
 10
331.075592
 20
197.285004
 11
331.075592
 21
197.696442
  0
LINE
  8
Nr0001-Geometrie
 62
50
 10
331.075592
 20
197.696442
 11
333.408966
 21
197.285004
  0
LINE
  8
Nr0001-Geometrie
 62
50
 10
333.408966
 20
197.285004
 11
331.075592
 21
196.873596
  0
LINE
  8
Nr0001-Geometrie
 62
50
 10
331.075592
 20
196.873596
 11
331.075592
 21
197.285004
  0
LINE
  8
Nr0001-Geometrie
 62
50
 10
331.248230
 20
197.285004
 11
331.248230
 21
197.490723
  0
LINE
  8
Nr0001-Geometrie
 62
50
 10
331.248230
 20
197.490723
 11
332.414886
 21
197.285004
  0
LINE
  8
Nr0001-Geometrie
 62
50
 10
332.414886
 20
197.285004
 11
331.248230
 21
197.079300
  0
LINE
  8
Nr0001-Geometrie
 62
50
 10
331.248230
 20
197.079300
 11
331.248230
 21
197.285004
  0
LINE
  8
Nr0001-Geometrie
 62
50
 10
74.902992
 20
197.285004
 11
74.902992
 21
196.667862
  0
LINE
  8
Nr0001-Geometrie
 62
50
 10
74.902992
 20
196.667862
 11
71.402992
 21
197.285004
  0
LINE
  8
Nr0001-Geometrie
 62
50
 10
71.402992
 20
197.285004
 11
74.902992
 21
197.902145
  0
LINE
  8
Nr0001-Geometrie
 62
50
 10
74.902992
 20
197.902145
 11
74.902992
 21
197.285004
  0
LINE
  8
Nr0001-Geometrie
 62
50
 10
74.730377
 20
197.285004
 11
74.730377
 21
196.873596
  0
LINE
  8
Nr0001-Geometrie
 62
50
 10
74.730377
 20
196.873596
 11
72.397041
 21
197.285004
  0
LINE
  8
Nr0001-Geometrie
 62
50
 10
72.397041
 20
197.285004
 11
74.730377
 21
197.696442
  0
LINE
  8
Nr0001-Geometrie
 62
50
 10
74.730377
 20
197.696442
 11
74.730377
 21
197.285004
  0
LINE
  8
Nr0001-Geometrie
 62
50
 10
74.557762
 20
197.285004
 11
74.557762
 21
197.079300
  0
LINE
  8
Nr0001-Geometrie
 62
50
 10
74.557762
 20
197.079300
 11
73.391098
 21
197.285004
  0
LINE
  8
Nr0001-Geometrie
 62
50
 10
73.391098
 20
197.285004
 11
74.557762
 21
197.490723
  0
LINE
  8
Nr0001-Geometrie
 62
50
 10
74.557762
 20
197.490723
 11
74.557762
 21
197.285004
  0
LINE
  8
Nr0001-Geometrie
 62
50
 10
71.402992
 20
197.285004
 11
334.403015
 21
197.285004
  0
LINE
  8
Nr0001-Geometrie
 62
10
 10
200.028000
 20
200.910019
 11
200.278000
 21
201.410004
  0
LINE
  8
Nr0001-Geometrie
 62
10
 10
200.278000
 20
201.410004
 11
200.777985
 21
201.660004
  0
LINE
  8
Nr0001-Geometrie
 62
10
 10
200.777985
 20
201.660004
 11
201.028000
 21
201.660004
  0
LINE
  8
Nr0001-Geometrie
 62
10
 10
201.028000
 20
201.660004
 11
201.528000
 21
201.410004
  0
LINE
  8
Nr0001-Geometrie
 62
10
 10
201.528000
 20
201.410004
 11
201.777985
 21
200.910019
  0
LINE
  8
Nr0001-Geometrie
 62
10
 10
201.777985
 20
200.910019
 11
201.528000
 21
200.410004
  0
LINE
  8
Nr0001-Geometrie
 62
10
 10
201.528000
 20
200.410004
 11
200.028000
 21
198.160019
  0
LINE
  8
Nr0001-Geometrie
 62
10
 10
200.028000
 20
198.160019
 11
201.777985
 21
198.160019
  0
LINE
  8
Nr0001-Geometrie
 62
10
 10
203.778000
 20
201.660004
 11
203.277985
 21
201.410004
  0
LINE
  8
Nr0001-Geometrie
 62
10
 10
203.277985
 20
201.410004
 11
202.778000
 21
200.910019
  0
LINE
  8
Nr0001-Geometrie
 62
10
 10
202.778000
 20
200.910019
 11
202.528000
 21
200.410004
  0
LINE
  8
Nr0001-Geometrie
 62
10
 10
202.528000
 20
200.410004
 11
202.528000
 21
198.910004
  0
LINE
  8
Nr0001-Geometrie
 62
10
 10
202.528000
 20
198.910004
 11
202.778000
 21
198.410019
  0
LINE
  8
Nr0001-Geometrie
 62
10
 10
202.778000
 20
198.410019
 11
203.277985
 21
198.160019
  0
LINE
  8
Nr0001-Geometrie
 62
10
 10
203.277985
 20
198.160019
 11
203.528000
 21
198.160019
  0
LINE
  8
Nr0001-Geometrie
 62
10
 10
203.528000
 20
198.160019
 11
204.028000
 21
198.410019
  0
LINE
  8
Nr0001-Geometrie
 62
10
 10
204.028000
 20
198.410019
 11
204.277985
 21
198.910004
  0
LINE
  8
Nr0001-Geometrie
 62
10
 10
204.277985
 20
198.910004
 11
204.277985
 21
199.410019
  0
LINE
  8
Nr0001-Geometrie
 62
10
 10
204.277985
 20
199.410019
 11
204.028000
 21
199.910004
  0
LINE
  8
Nr0001-Geometrie
 62
10
 10
204.028000
 20
199.910004
 11
203.528000
 21
200.160004
  0
LINE
  8
Nr0001-Geometrie
 62
10
 10
203.528000
 20
200.160004
 11
202.528000
 21
200.160004
  0
LINE
  8
Nr0001-Geometrie
 62
10
 10
205.028000
 20
201.660004
 11
205.527985
 21
201.660004
  0
LINE
  8
Nr0001-Geometrie
 62
10
 10
205.527985
 20
201.660004
 11
206.028000
 21
201.410004
  0
LINE
  8
Nr0001-Geometrie
 62
10
 10
206.028000
 20
201.410004
 11
206.278000
 21
200.910019
  0
LINE
  8
Nr0001-Geometrie
 62
10
 10
206.278000
 20
200.910019
 11
206.278000
 21
200.660019
  0
LINE
  8
Nr0001-Geometrie
 62
10
 10
206.278000
 20
200.660019
 11
206.028000
 21
200.160004
  0
LINE
  8
Nr0001-Geometrie
 62
10
 10
206.028000
 20
200.160004
 11
205.527985
 21
199.910004
  0
LINE
  8
Nr0001-Geometrie
 62
10
 10
205.527985
 20
199.910004
 11
205.278000
 21
199.910004
  0
LINE
  8
Nr0001-Geometrie
 62
10
 10
205.278000
 20
199.910004
 11
205.777985
 21
199.910004
  0
LINE
  8
Nr0001-Geometrie
 62
10
 10
205.777985
 20
199.910004
 11
206.278000
 21
199.660019
  0
LINE
  8
Nr0001-Geometrie
 62
10
 10
206.278000
 20
199.660019
 11
206.528000
 21
199.160004
  0
LINE
  8
Nr0001-Geometrie
 62
10
 10
206.528000
 20
199.160004
 11
206.528000
 21
198.910004
  0
LINE
  8
Nr0001-Geometrie
 62
10
 10
206.528000
 20
198.910004
 11
206.278000
 21
198.410019
  0
LINE
  8
Nr0001-Geometrie
 62
10
 10
206.278000
 20
198.410019
 11
205.777985
 21
198.160019
  0
LINE
  8
Nr0001-Geometrie
 62
10
 10
205.777985
 20
198.160019
 11
205.028000
 21
198.160019
  0
LINE
  8
Nr0001-Geometrie
 62
50
 10
71.402992
 20
167.285004
 11
71.402992
 21
199.735016
  0
LINE
  8
Nr0001-Geometrie
 62
50
 10
334.403015
 20
169.732529
 11
334.403015
 21
199.735016
  0
LINE
  8
Nr0001-Geometrie
 62
50
 10
351.903015
 20
90.285004
 11
351.903015
 21
90.902145
  0
LINE
  8
Nr0001-Geometrie
 62
50
 10
351.903015
 20
90.902145
 11
355.402985
 21
90.285004
  0
LINE
  8
Nr0001-Geometrie
 62
50
 10
355.402985
 20
90.285004
 11
351.903015
 21
89.667862
  0
LINE
  8
Nr0001-Geometrie
 62
50
 10
351.903015
 20
89.667862
 11
351.903015
 21
90.285004
  0
LINE
  8
Nr0001-Geometrie
 62
50
 10
352.075623
 20
90.285004
 11
352.075623
 21
90.696426
  0
LINE
  8
Nr0001-Geometrie
 62
50
 10
352.075623
 20
90.696426
 11
354.408936
 21
90.285004
  0
LINE
  8
Nr0001-Geometrie
 62
50
 10
354.408936
 20
90.285004
 11
352.075623
 21
89.873589
  0
LINE
  8
Nr0001-Geometrie
 62
50
 10
352.075623
 20
89.873589
 11
352.075623
 21
90.285004
  0
LINE
  8
Nr0001-Geometrie
 62
50
 10
352.248230
 20
90.285004
 11
352.248230
 21
90.490730
  0
LINE
  8
Nr0001-Geometrie
 62
50
 10
352.248230
 20
90.490730
 11
353.414917
 21
90.285004
  0
LINE
  8
Nr0001-Geometrie
 62
50
 10
353.414917
 20
90.285004
 11
352.248230
 21
90.079285
  0
LINE
  8
Nr0001-Geometrie
 62
50
 10
352.248230
 20
90.079285
 11
352.248230
 21
90.285004
  0
LINE
  8
Nr0001-Geometrie
 62
50
 10
71.902992
 20
90.285004
 11
71.902992
 21
89.667862
  0
LINE
  8
Nr0001-Geometrie
 62
50
 10
71.902992
 20
89.667862
 11
68.403000
 21
90.285004
  0
LINE
  8
Nr0001-Geometrie
 62
50
 10
68.403000
 20
90.285004
 11
71.902992
 21
90.902145
  0
LINE
  8
Nr0001-Geometrie
 62
50
 10
71.902992
 20
90.902145
 11
71.902992
 21
90.285004
  0
LINE
  8
Nr0001-Geometrie
 62
50
 10
71.730377
 20
90.285004
 11
71.730377
 21
89.873589
  0
LINE
  8
Nr0001-Geometrie
 62
50
 10
71.730377
 20
89.873589
 11
69.397041
 21
90.285004
  0
LINE
  8
Nr0001-Geometrie
 62
50
 10
69.397041
 20
90.285004
 11
71.730377
 21
90.696426
  0
LINE
  8
Nr0001-Geometrie
 62
50
 10
71.730377
 20
90.696426
 11
71.730377
 21
90.285004
  0
LINE
  8
Nr0001-Geometrie
 62
50
 10
71.557762
 20
90.285004
 11
71.557762
 21
90.079285
  0
LINE
  8
Nr0001-Geometrie
 62
50
 10
71.557762
 20
90.079285
 11
70.391098
 21
90.285004
  0
LINE
  8
Nr0001-Geometrie
 62
50
 10
70.391098
 20
90.285004
 11
71.557762
 21
90.490730
  0
LINE
  8
Nr0001-Geometrie
 62
50
 10
71.557762
 20
90.490730
 11
71.557762
 21
90.285004
  0
LINE
  8
Nr0001-Geometrie
 62
50
 10
68.403000
 20
90.285004
 11
355.402985
 21
90.285004
  0
LINE
  8
Nr0001-Geometrie
 62
10
 10
208.902985
 20
93.910004
 11
209.153000
 21
94.410011
  0
LINE
  8
Nr0001-Geometrie
 62
10
 10
209.153000
 20
94.410011
 11
209.653000
 21
94.660004
  0
LINE
  8
Nr0001-Geometrie
 62
10
 10
209.653000
 20
94.660004
 11
209.902985
 21
94.660004
  0
LINE
  8
Nr0001-Geometrie
 62
10
 10
209.902985
 20
94.660004
 11
210.403000
 21
94.410011
  0
LINE
  8
Nr0001-Geometrie
 62
10
 10
210.403000
 20
94.410011
 11
210.653000
 21
93.910004
  0
LINE
  8
Nr0001-Geometrie
 62
10
 10
210.653000
 20
93.910004
 11
210.403000
 21
93.410004
  0
LINE
  8
Nr0001-Geometrie
 62
10
 10
210.403000
 20
93.410004
 11
208.902985
 21
91.160011
  0
LINE
  8
Nr0001-Geometrie
 62
10
 10
208.902985
 20
91.160011
 11
210.653000
 21
91.160011
  0
LINE
  8
Nr0001-Geometrie
 62
10
 10
211.653000
 20
94.160011
 11
211.653000
 21
93.660011
  0
LINE
  8
Nr0001-Geometrie
 62
10
 10
211.653000
 20
93.660011
 11
212.153000
 21
93.160011
  0
LINE
  8
Nr0001-Geometrie
 62
10
 10
212.153000
 20
93.160011
 11
212.402985
 21
93.160011
  0
LINE
  8
Nr0001-Geometrie
 62
10
 10
212.402985
 20
93.160011
 11
212.903000
 21
93.660011
  0
LINE
  8
Nr0001-Geometrie
 62
10
 10
212.903000
 20
93.660011
 11
212.903000
 21
94.160011
  0
LINE
  8
Nr0001-Geometrie
 62
10
 10
212.903000
 20
94.160011
 11
212.402985
 21
94.660004
  0
LINE
  8
Nr0001-Geometrie
 62
10
 10
212.402985
 20
94.660004
 11
212.153000
 21
94.660004
  0
LINE
  8
Nr0001-Geometrie
 62
10
 10
212.153000
 20
94.660004
 11
211.653000
 21
94.160011
  0
LINE
  8
Nr0001-Geometrie
 62
10
 10
212.153000
 20
93.160011
 11
211.653000
 21
92.910011
  0
LINE
  8
Nr0001-Geometrie
 62
10
 10
211.653000
 20
92.910011
 11
211.402985
 21
92.410011
  0
LINE
  8
Nr0001-Geometrie
 62
10
 10
211.402985
 20
92.410011
 11
211.402985
 21
91.910011
  0
LINE
  8
Nr0001-Geometrie
 62
10
 10
211.402985
 20
91.910011
 11
211.653000
 21
91.410004
  0
LINE
  8
Nr0001-Geometrie
 62
10
 10
211.653000
 20
91.410004
 11
212.153000
 21
91.160011
  0
LINE
  8
Nr0001-Geometrie
 62
10
 10
212.153000
 20
91.160011
 11
212.402985
 21
91.160011
  0
LINE
  8
Nr0001-Geometrie
 62
10
 10
212.402985
 20
91.160011
 11
212.903000
 21
91.410004
  0
LINE
  8
Nr0001-Geometrie
 62
10
 10
212.903000
 20
91.410004
 11
213.153000
 21
91.910011
  0
LINE
  8
Nr0001-Geometrie
 62
10
 10
213.153000
 20
91.910011
 11
213.153000
 21
92.410011
  0
LINE
  8
Nr0001-Geometrie
 62
10
 10
213.153000
 20
92.410011
 11
212.903000
 21
92.910011
  0
LINE
  8
Nr0001-Geometrie
 62
10
 10
212.903000
 20
92.910011
 11
212.402985
 21
93.160011
  0
LINE
  8
Nr0001-Geometrie
 62
10
 10
213.902985
 20
93.910004
 11
213.902985
 21
94.660004
  0
LINE
  8
Nr0001-Geometrie
 62
10
 10
213.902985
 20
94.660004
 11
215.653000
 21
94.660004
  0
LINE
  8
Nr0001-Geometrie
 62
10
 10
215.653000
 20
94.660004
 11
214.403000
 21
91.160011
  0
LINE
  8
Nr0001-Geometrie
 62
50
 10
68.402992
 20
101.785011
 11
68.402992
 21
87.835014
  0
LINE
  8
Nr0001-Geometrie
 62
50
 10
355.402985
 20
101.785011
 11
355.402985
 21
87.835014
  0
LINE
  8
Nr0001-Geometrie
 62
50
 10
2.100000
 20
2.100010
 11
422.100037
 21
2.100010
  0
LINE
  8
Nr0001-Geometrie
 62
50
 10
422.100037
 20
2.100010
 11
422.100037
 21
299.100006
  0
LINE
  8
Nr0001-Geometrie
 62
50
 10
422.100037
 20
299.100006
 11
2.100000
 21
299.100006
  0
LINE
  8
Nr0001-Geometrie
 62
50
 10
2.100000
 20
299.100006
 11
2.100000
 21
2.100010
  0
LINE
  8
Nr0001-Geometrie
 62
253
 10
7.100000
 20
7.100010
 11
417.100037
 21
7.100010
  0
LINE
  8
Nr0001-Geometrie
 62
253
 10
417.100037
 20
7.100010
 11
417.100037
 21
294.100006
  0
LINE
  8
Nr0001-Geometrie
 62
253
 10
417.100037
 20
294.100006
 11
7.100000
 21
294.100006
  0
LINE
  8
Nr0001-Geometrie
 62
253
 10
7.100000
 20
294.100006
 11
7.100000
 21
7.100010
  0
LINE
  8
Nr0001-Geometrie
 62
50
 10
127.099998
 20
2.100010
 11
127.099998
 21
7.100010
  0
LINE
  8
Nr0001-Geometrie
 62
50
 10
232.099991
 20
2.100010
 11
232.099991
 21
7.100010
  0
LINE
  8
Nr0001-Geometrie
 62
50
 10
127.099998
 20
299.100006
 11
127.099998
 21
294.100006
  0
LINE
  8
Nr0001-Geometrie
 62
50
 10
232.099991
 20
299.100006
 11
232.099991
 21
294.100006
  0
LINE
  8
Nr0001-Geometrie
 62
253
 10
234.220001
 20
7.100010
 11
234.220001
 21
62.090015
  0
LINE
  8
Nr0001-Geometrie
 62
253
 10
234.220001
 20
62.090015
 11
417.100037
 21
62.090015
  0
LINE
  8
Nr0001-Geometrie
 62
253
 10
417.100037
 20
45.170021
 11
234.220001
 21
45.170021
  0
LINE
  8
Nr0001-Geometrie
 62
253
 10
287.560028
 20
24.020004
 11
417.100037
 21
24.020004
  0
LINE
  8
Nr0001-Geometrie
 62
253
 10
404.400024
 20
24.020004
 11
404.400024
 21
11.330013
  0
LINE
  8
Nr0001-Geometrie
 62
253
 10
330.740051
 20
7.100010
 11
330.740051
 21
62.090015
  0
LINE
  8
Nr0001-Geometrie
 62
253
 10
287.560028
 20
62.090015
 11
287.560028
 21
7.100010
  0
LINE
  8
Nr0001-Geometrie
 62
50
 10
234.220001
 20
11.330013
 11
417.100037
 21
11.330013
  0
LINE
  8
Nr0001-Geometrie
 62
50
 10
417.100037
 20
15.560017
 11
404.400024
 21
15.560017
  0
LINE
  8
Nr0001-Geometrie
 62
50
 10
287.560028
 20
15.560017
 11
234.220001
 21
15.560017
  0
LINE
  8
Nr0001-Geometrie
 62
50
 10
234.220001
 20
19.790020
 11
287.560028
 21
19.790020
  0
LINE
  8
Nr0001-Geometrie
 62
50
 10
287.560028
 20
24.020004
 11
234.220001
 21
24.020004
  0
LINE
  8
Nr0001-Geometrie
 62
50
 10
234.220001
 20
28.250008
 11
330.740051
 21
28.250008
  0
LINE
  8
Nr0001-Geometrie
 62
50
 10
330.740051
 20
32.480011
 11
234.220001
 21
32.480011
  0
LINE
  8
Nr0001-Geometrie
 62
50
 10
234.220001
 20
36.710014
 11
330.740051
 21
36.710014
  0
LINE
  8
Nr0001-Geometrie
 62
50
 10
330.740051
 20
40.939999
 11
234.220001
 21
40.939999
  0
LINE
  8
Nr0001-Geometrie
 62
50
 10
330.740051
 20
55.745010
 11
417.100037
 21
55.745010
  0
LINE
  8
Nr0001-Geometrie
 62
50
 10
381.540039
 20
62.090015
 11
381.540039
 21
55.745010
  0
LINE
  8
Nr0001-Geometrie
 62
50
 10
373.920013
 20
11.330013
 11
373.920013
 21
7.100010
  0
LINE
  8
Nr0001-Geometrie
 62
50
 10
312.960022
 20
24.020004
 11
312.960022
 21
62.090015
  0
LINE
  8
Nr0001-Geometrie
 62
50
 10
297.720001
 20
45.170021
 11
297.720001
 21
28.250008
  0
LINE
  8
Nr0001-Geometrie
 62
50
 10
279.940002
 20
7.100010
 11
279.940002
 21
45.170021
  0
LINE
  8
Nr0001-Geometrie
 62
50
 10
267.240021
 20
45.170021
 11
267.240021
 21
7.100010
  0
LINE
  8
Nr0001-Geometrie
 62
50
 10
241.840027
 20
7.100010
 11
241.840027
 21
45.170021
  0
LINE
  8
Nr0001-Geometrie
 62
253
 10
288.645996
 20
22.807999
 11
288.645996
 21
12.807999
  0
LINE
  8
Nr0001-Geometrie
 62
253
 10
298.645996
 20
22.808018
 11
288.645996
 21
22.807999
  0
LINE
  8
Nr0001-Geometrie
 62
253
 10
298.645996
 20
12.807999
 11
298.645996
 21
22.808018
  0
LINE
  8
Nr0001-Geometrie
 62
253
 10
298.145996
 20
13.308010
 11
298.145996
 21
22.308025
  0
LINE
  8
Nr0001-Geometrie
 62
253
 10
298.145996
 20
22.308025
 11
289.145996
 21
22.308006
  0
LINE
  8
Nr0001-Geometrie
 62
50
 10
289.749207
 20
15.938015
 11
289.749207
 21
16.803970
  0
LINE
  8
Nr0001-Geometrie
 62
253
 10
289.145996
 20
22.308006
 11
289.145996
 21
13.308010
  0
LINE
  8
Nr0001-Geometrie
 62
253
 10
289.145996
 20
13.308010
 11
298.145996
 21
13.308010
  0
LINE
  8
Nr0001-Geometrie
 62
253
 10
288.645996
 20
12.807999
 11
298.645996
 21
12.807999
  0
LINE
  8
Nr0001-Geometrie
 62
50
 10
291.108643
 20
16.652966
 11
289.145996
 21
15.738049
  0
LINE
  8
Nr0001-Geometrie
 62
50
 10
289.949219
 20
17.204018
 11
289.949219
 21
16.113052
  0
LINE
  8
Nr0001-Geometrie
 62
50
 10
290.149200
 20
17.308998
 11
290.149200
 21
16.205959
  0
ARC
  8
Nr0001-Geometrie
 62
50
 10
290.249207
 20
16.803970
 40
0.499997
 50
115.006990
 51
180.000000
  0
LINE
  8
Nr0001-Geometrie
 62
50
 10
290.037903
 20
17.256985
 11
290.681793
 21
17.558002
  0
ARC
  8
Nr0001-Geometrie
 62
50
 10
290.808594
 20
17.286034
 40
0.300003
 50
0.000000
 51
114.995768
  0
LINE
  8
Nr0001-Geometrie
 62
50
 10
291.108643
 20
16.652966
 11
291.108643
 21
17.286034
  0
LINE
  8
Nr0001-Geometrie
 62
50
 10
290.708618
 20
17.569962
 11
290.708618
 21
16.467056
  0
LINE
  8
Nr0001-Geometrie
 62
50
 10
290.908600
 20
16.559963
 11
290.908600
 21
17.568016
  0
ARC
  8
Nr0001-Geometrie
 62
50
 10
290.049194
 20
15.938015
 40
0.300014
 50
180.000000
 51
295.073009
  0
LINE
  8
Nr0001-Geometrie
 62
50
 10
295.296600
 20
18.053970
 11
290.176025
 21
15.667019
  0
LINE
  8
Nr0001-Geometrie
 62
50
 10
293.377502
 20
18.262978
 11
291.308594
 21
17.297993
  0
LINE
  8
Nr0001-Geometrie
 62
50
 10
291.608612
 20
18.217068
 11
291.608612
 21
15.250988
  0
LINE
  8
Nr0001-Geometrie
 62
50
 10
291.808594
 20
18.665066
 11
291.808594
 21
15.037975
  0
LINE
  8
Nr0001-Geometrie
 62
50
 10
291.971191
 20
18.415070
 11
291.971191
 21
15.448990
  0
LINE
  8
Nr0001-Geometrie
 62
50
 10
292.877502
 20
18.837051
 11
292.877502
 21
15.870991
  0
LINE
  8
Nr0001-Geometrie
 62
50
 10
292.677490
 20
15.423965
 11
292.677490
 21
19.051037
  0
ARC
  8
Nr0001-Geometrie
 62
50
 10
293.277527
 20
18.837051
 40
0.399994
 50
99.294877
 51
180.000000
  0
ARC
  8
Nr0001-Geometrie
 62
50
 10
293.114990
 20
18.640041
 40
0.600008
 50
80.606427
 51
180.000000
  0
LINE
  8
Nr0001-Geometrie
 62
50
 10
292.514893
 20
18.640041
 11
292.514893
 21
15.673962
  0
ARC
  8
Nr0001-Geometrie
 62
50
 10
292.371216
 20
18.415070
 40
0.399989
 50
99.325958
 51
180.000000
  0
ARC
  8
Nr0001-Geometrie
 62
50
 10
292.208618
 20
18.217068
 40
0.600006
 50
80.609302
 51
180.000000
  0
ARC
  8
Nr0001-Geometrie
 62
50
 10
291.208618
 20
15.250988
 40
0.399994
 50
270.000000
 51
0.000000
  0
ARC
  8
Nr0001-Geometrie
 62
50
 10
291.371216
 20
15.448990
 40
0.599993
 50
260.600082
 51
0.000000
  0
ARC
  8
Nr0001-Geometrie
 62
50
 10
292.114990
 20
15.673962
 40
0.399994
 50
270.000000
 51
0.000000
  0
ARC
  8
Nr0001-Geometrie
 62
50
 10
292.277496
 20
15.870991
 40
0.599988
 50
260.611880
 51
0.000000
  0
LINE
  8
Nr0001-Geometrie
 62
50
 10
293.937103
 20
17.339993
 11
293.937103
 21
18.204975
  0
LINE
  8
Nr0001-Geometrie
 62
50
 10
294.137115
 20
18.605003
 11
294.137115
 21
17.514076
  0
LINE
  8
Nr0001-Geometrie
 62
50
 10
294.337097
 20
18.709984
 11
294.337097
 21
17.606945
  0
LINE
  8
Nr0001-Geometrie
 62
50
 10
294.896606
 20
18.970966
 11
294.896606
 21
17.868061
  0
LINE
  8
Nr0001-Geometrie
 62
50
 10
295.096619
 20
17.960949
 11
295.096619
 21
18.969994
  0
LINE
  8
Nr0001-Geometrie
 62
50
 10
295.296600
 20
18.053970
 11
295.296600
 21
18.687038
  0
ARC
  8
Nr0001-Geometrie
 62
50
 10
294.996613
 20
18.687038
 40
0.300003
 50
0.000000
 51
114.995768
  0
LINE
  8
Nr0001-Geometrie
 62
50
 10
294.225800
 20
18.657990
 11
294.869812
 21
18.959007
  0
ARC
  8
Nr0001-Geometrie
 62
50
 10
294.437103
 20
18.204975
 40
0.499997
 50
115.006990
 51
180.000000
  0
LINE
  8
Nr0001-Geometrie
 62
50
 10
294.363892
 20
17.068005
 11
298.145996
 21
18.830948
  0
ARC
  8
Nr0001-Geometrie
 62
50
 10
294.237091
 20
17.339993
 40
0.299997
 50
180.000000
 51
294.995768
  0
ARC
  8
Nr0001-Geometrie
 62
50
 10
296.396606
 20
19.619045
 40
0.599988
 50
80.591456
 51
180.000000
  0
ARC
  8
Nr0001-Geometrie
 62
50
 10
296.559113
 20
19.816074
 40
0.400001
 50
99.312574
 51
180.000000
  0
LINE
  8
Nr0001-Geometrie
 62
50
 10
295.996643
 20
20.066071
 11
295.996643
 21
16.438980
  0
LINE
  8
Nr0001-Geometrie
 62
50
 10
296.159119
 20
19.816074
 11
296.159119
 21
16.849995
  0
LINE
  8
Nr0001-Geometrie
 62
50
 10
295.796600
 20
19.619045
 11
295.796600
 21
16.652966
  0
LINE
  8
Nr0001-Geometrie
 62
50
 10
297.565399
 20
19.663982
 11
295.496613
 21
18.698997
  0
LINE
  8
Nr0001-Geometrie
 62
50
 10
296.702911
 20
20.041027
 11
296.702911
 21
17.074986
  0
LINE
  8
Nr0001-Geometrie
 62
50
 10
296.865417
 20
16.824989
 11
296.865417
 21
20.452042
  0
LINE
  8
Nr0001-Geometrie
 62
50
 10
297.065399
 20
20.238056
 11
297.065399
 21
17.271996
  0
ARC
  8
Nr0001-Geometrie
 62
50
 10
297.465393
 20
20.238056
 40
0.400004
 50
99.285808
 51
180.000000
  0
ARC
  8
Nr0001-Geometrie
 62
50
 10
297.302917
 20
20.041027
 40
0.600008
 50
80.606427
 51
180.000000
  0
ARC
  8
Nr0001-Geometrie
 62
50
 10
295.396606
 20
16.652966
 40
0.399994
 50
270.000000
 51
0.000000
  0
ARC
  8
Nr0001-Geometrie
 62
50
 10
295.559113
 20
16.849995
 40
0.599988
 50
260.611880
 51
0.000000
  0
ARC
  8
Nr0001-Geometrie
 62
50
 10
296.302917
 20
17.074986
 40
0.400009
 50
270.000000
 51
0.000000
  0
ARC
  8
Nr0001-Geometrie
 62
50
 10
296.465393
 20
17.271996
 40
0.599985
 50
260.594331
 51
0.000000
  0
LINE
  8
Nr0001-Geometrie
 62
50
 10
300.302948
 20
21.000195
 11
300.302948
 21
23.400211
  0
LINE
  8
Nr0001-Geometrie
 62
50
 10
300.302948
 20
23.400211
 11
301.331512
 21
23.400211
  0
LINE
  8
Nr0001-Geometrie
 62
50
 10
300.302948
 20
22.200222
 11
301.160095
 21
22.200222
  0
LINE
  8
Nr0001-Geometrie
 62
50
 10
301.874359
 20
21.000195
 11
301.874359
 21
23.400211
  0
LINE
  8
Nr0001-Geometrie
 62
50
 10
301.874359
 20
23.400211
 11
302.560089
 21
23.400211
  0
LINE
  8
Nr0001-Geometrie
 62
50
 10
301.874359
 20
22.200222
 11
302.560089
 21
22.200222
  0
ARC
  8
Nr0001-Geometrie
 62
50
 10
302.560089
 20
22.885914
 40
0.514282
 50
0.002125
 51
90.000000
  0
ARC
  8
Nr0001-Geometrie
 62
50
 10
302.560089
 20
22.714500
 40
0.514282
 50
270.000000
 51
0.000000
  0
LINE
  8
Nr0001-Geometrie
 62
50
 10
303.074371
 20
22.714500
 11
303.074371
 21
22.885933
  0
LINE
  8
Nr0001-Geometrie
 62
50
 10
302.560089
 20
22.200222
 11
303.074371
 21
21.000214
  0
LINE
  8
Nr0001-Geometrie
 62
50
 10
303.960083
 20
21.000214
 11
303.960083
 21
23.400211
  0
LINE
  8
Nr0001-Geometrie
 62
50
 10
304.845795
 20
23.400211
 11
306.045776
 21
23.400211
  0
LINE
  8
Nr0001-Geometrie
 62
50
 10
305.445801
 20
21.000214
 11
305.445801
 21
23.400211
  0
LINE
  8
Nr0001-Geometrie
 62
50
 10
306.588623
 20
21.000214
 11
307.617218
 21
21.000214
  0
LINE
  8
Nr0001-Geometrie
 62
50
 10
306.588623
 20
23.400211
 11
307.617218
 21
23.400211
  0
LINE
  8
Nr0001-Geometrie
 62
50
 10
307.617218
 20
23.400211
 11
306.588623
 21
21.000214
  0
LINE
  8
Nr0001-Geometrie
 62
50
 10
309.160095
 20
21.000214
 11
309.160095
 21
23.400211
  0
LINE
  8
Nr0001-Geometrie
 62
50
 10
309.160095
 20
23.400211
 11
310.188660
 21
23.400211
  0
LINE
  8
Nr0001-Geometrie
 62
50
 10
309.160095
 20
22.200222
 11
310.017212
 21
22.200222
  0
ARC
  8
Nr0001-Geometrie
 62
50
 10
311.245789
 20
21.514492
 40
0.514282
 50
180.000000
 51
270.000000
  0
LINE
  8
Nr0001-Geometrie
 62
50
 10
311.245789
 20
21.000214
 11
311.417206
 21
21.000214
  0
ARC
  8
Nr0001-Geometrie
 62
50
 10
311.417206
 20
21.514492
 40
0.514297
 50
270.000000
 51
0.000000
  0
LINE
  8
Nr0001-Geometrie
 62
50
 10
310.731506
 20
21.514492
 11
310.731506
 21
23.400211
  0
LINE
  8
Nr0001-Geometrie
 62
50
 10
311.931519
 20
21.514492
 11
311.931519
 21
23.400211
  0
ARC
  8
Nr0001-Geometrie
 62
50
 10
312.988647
 20
21.514492
 40
0.514282
 50
180.000000
 51
270.000000
  0
LINE
  8
Nr0001-Geometrie
 62
50
 10
312.988647
 20
21.000214
 11
313.160065
 21
21.000214
  0
ARC
  8
Nr0001-Geometrie
 62
50
 10
313.160065
 20
21.514492
 40
0.514282
 50
270.000000
 51
0.000000
  0
LINE
  8
Nr0001-Geometrie
 62
50
 10
312.474365
 20
21.514492
 11
312.474365
 21
21.685925
  0
LINE
  8
Nr0001-Geometrie
 62
50
 10
313.674347
 20
22.714520
 11
313.674347
 21
22.885933
  0
ARC
  8
Nr0001-Geometrie
 62
50
 10
313.160065
 20
22.885933
 40
0.514282
 50
0.000000
 51
90.000000
  0
LINE
  8
Nr0001-Geometrie
 62
50
 10
312.988647
 20
23.400211
 11
313.160065
 21
23.400211
  0
ARC
  8
Nr0001-Geometrie
 62
50
 10
312.988647
 20
22.885933
 40
0.514285
 50
90.000000
 51
246.169206
  0
LINE
  8
Nr0001-Geometrie
 62
50
 10
313.674347
 20
21.514492
 11
313.674347
 21
21.685925
  0
ARC
  8
Nr0001-Geometrie
 62
50
 10
313.160065
 20
21.685925
 40
0.514291
 50
0.000000
 51
66.168348
  0
LINE
  8
Nr0001-Geometrie
 62
50
 10
312.780884
 20
22.415524
 11
313.367859
 21
22.156334
  0
ARC
  8
Nr0001-Geometrie
 62
50
 10
314.731506
 20
21.514492
 40
0.514282
 50
180.000000
 51
270.000000
  0
LINE
  8
Nr0001-Geometrie
 62
50
 10
314.731506
 20
21.000214
 11
314.902924
 21
21.000214
  0
ARC
  8
Nr0001-Geometrie
 62
50
 10
314.902924
 20
21.514492
 40
0.514267
 50
270.000000
 51
0.000000
  0
LINE
  8
Nr0001-Geometrie
 62
50
 10
314.217224
 20
21.514492
 11
314.217224
 21
21.685925
  0
LINE
  8
Nr0001-Geometrie
 62
50
 10
315.417206
 20
22.714520
 11
315.417206
 21
22.885933
  0
ARC
  8
Nr0001-Geometrie
 62
50
 10
314.902924
 20
22.885933
 40
0.514282
 50
0.000000
 51
90.000000
  0
LINE
  8
Nr0001-Geometrie
 62
50
 10
314.731506
 20
23.400211
 11
314.902924
 21
23.400211
  0
ARC
  8
Nr0001-Geometrie
 62
50
 10
314.731506
 20
22.885933
 40
0.514291
 50
90.000000
 51
246.166096
  0
LINE
  8
Nr0001-Geometrie
 62
50
 10
315.417206
 20
21.514492
 11
315.417206
 21
21.685925
  0
ARC
  8
Nr0001-Geometrie
 62
50
 10
314.902924
 20
21.685925
 40
0.514285
 50
0.000000
 51
66.168348
  0
LINE
  8
Nr0001-Geometrie
 62
50
 10
314.523712
 20
22.415524
 11
315.110718
 21
22.156334
  0
ARC
  8
Nr0001-Geometrie
 62
50
 10
317.474365
 20
21.514492
 40
0.514282
 50
180.000000
 51
270.000000
  0
LINE
  8
Nr0001-Geometrie
 62
50
 10
317.474365
 20
21.000214
 11
317.645813
 21
21.000214
  0
ARC
  8
Nr0001-Geometrie
 62
50
 10
317.645813
 20
21.514492
 40
0.514282
 50
270.000000
 51
0.000000
  0
LINE
  8
Nr0001-Geometrie
 62
50
 10
318.160065
 20
21.514492
 11
318.160065
 21
22.200222
  0
LINE
  8
Nr0001-Geometrie
 62
50
 10
318.160065
 20
22.200222
 11
317.560059
 21
22.200222
  0
LINE
  8
Nr0001-Geometrie
 62
50
 10
316.960083
 20
21.514492
 11
316.960083
 21
22.885933
  0
ARC
  8
Nr0001-Geometrie
 62
50
 10
317.474365
 20
22.885933
 40
0.514282
 50
90.000000
 51
180.000000
  0
LINE
  8
Nr0001-Geometrie
 62
50
 10
317.474365
 20
23.400211
 11
317.645813
 21
23.400211
  0
ARC
  8
Nr0001-Geometrie
 62
50
 10
317.645813
 20
22.885933
 40
0.514282
 50
0.000000
 51
90.000000
  0
LINE
  8
Nr0001-Geometrie
 62
50
 10
318.160065
 20
22.885933
 11
318.160065
 21
22.714520
  0
LINE
  8
Nr0001-Geometrie
 62
50
 10
318.702942
 20
21.000214
 11
318.702942
 21
22.714520
  0
ARC
  8
Nr0001-Geometrie
 62
50
 10
319.045776
 20
22.371655
 40
0.342865
 50
90.000000
 51
180.000000
  0
ARC
  8
Nr0001-Geometrie
 62
50
 10
319.045776
 20
22.200222
 40
0.514297
 50
0.000000
 51
90.000000
  0
LINE
  8
Nr0001-Geometrie
 62
50
 10
319.560059
 20
21.000214
 11
319.560059
 21
22.371655
  0
ARC
  8
Nr0001-Geometrie
 62
50
 10
319.902924
 20
22.371655
 40
0.342865
 50
90.000000
 51
180.000000
  0
ARC
  8
Nr0001-Geometrie
 62
50
 10
319.902924
 20
22.200222
 40
0.514282
 50
0.000000
 51
90.000000
  0
LINE
  8
Nr0001-Geometrie
 62
50
 10
320.417206
 20
21.000214
 11
320.417206
 21
22.200222
  0
LINE
  8
Nr0001-Geometrie
 62
50
 10
320.960083
 20
21.000214
 11
320.960083
 21
23.400211
  0
ARC
  8
Nr0001-Geometrie
 62
50
 10
321.302948
 20
21.343079
 40
0.342865
 50
180.000000
 51
270.000000
  0
LINE
  8
Nr0001-Geometrie
 62
50
 10
321.302948
 20
21.000214
 11
321.474335
 21
21.000214
  0
ARC
  8
Nr0001-Geometrie
 62
50
 10
321.474335
 20
21.514492
 40
0.514297
 50
270.000000
 51
0.000000
  0
LINE
  8
Nr0001-Geometrie
 62
50
 10
321.988647
 20
21.514492
 11
321.988647
 21
22.200222
  0
ARC
  8
Nr0001-Geometrie
 62
50
 10
321.474335
 20
22.200222
 40
0.514297
 50
0.000000
 51
90.000000
  0
LINE
  8
Nr0001-Geometrie
 62
50
 10
321.302948
 20
22.714520
 11
321.474335
 21
22.714520
  0
ARC
  8
Nr0001-Geometrie
 62
50
 10
321.302948
 20
22.371655
 40
0.342865
 50
90.000000
 51
180.000000
  0
LINE
  8
Nr0001-Geometrie
 62
50
 10
322.531494
 20
21.000214
 11
322.531494
 21
23.400211
  0
LINE
  8
Nr0001-Geometrie
 62
50
 10
323.731506
 20
21.000214
 11
323.731506
 21
23.400211
  0
LINE
  8
Nr0001-Geometrie
 62
50
 10
322.531494
 20
22.200222
 11
323.731506
 21
22.200222
  0
LINE
  8
Nr0001-Geometrie
 62
50
 10
325.602905
 20
21.000214
 11
324.705994
 21
22.778606
  0
ARC
  8
Nr0001-Geometrie
 62
50
 10
325.088654
 20
22.971649
 40
0.428583
 50
319.668105
 51
206.769850
  0
LINE
  8
Nr0001-Geometrie
 62
50
 10
325.415375
 20
22.694283
 11
324.696381
 21
21.847420
  0
ARC
  8
Nr0001-Geometrie
 62
50
 10
325.088654
 20
21.514492
 40
0.514282
 50
139.678594
 51
319.674194
  0
LINE
  8
Nr0001-Geometrie
 62
50
 10
325.480896
 20
21.181583
 11
325.602905
 21
21.325588
  0
ARC
  8
Nr0001-Geometrie
 62
50
 10
326.960083
 20
21.514511
 40
0.514297
 50
180.000000
 51
270.000000
  0
LINE
  8
Nr0001-Geometrie
 62
50
 10
326.960083
 20
21.000214
 11
327.131500
 21
21.000214
  0
ARC
  8
Nr0001-Geometrie
 62
50
 10
327.131500
 20
21.514511
 40
0.514297
 50
270.000000
 51
0.000000
  0
LINE
  8
Nr0001-Geometrie
 62
50
 10
327.645813
 20
21.514511
 11
327.645813
 21
21.685925
  0
LINE
  8
Nr0001-Geometrie
 62
50
 10
326.445770
 20
21.514511
 11
326.445770
 21
22.885933
  0
ARC
  8
Nr0001-Geometrie
 62
50
 10
326.960083
 20
22.885933
 40
0.514282
 50
90.000000
 51
180.000000
  0
LINE
  8
Nr0001-Geometrie
 62
50
 10
326.960083
 20
23.400211
 11
327.131500
 21
23.400211
  0
ARC
  8
Nr0001-Geometrie
 62
50
 10
327.131500
 20
22.885933
 40
0.514297
 50
0.000000
 51
90.000000
  0
LINE
  8
Nr0001-Geometrie
 62
50
 10
327.645813
 20
22.885933
 11
327.645813
 21
22.714520
  0
ARC
  8
Nr0001-Geometrie
 62
50
 10
328.702942
 20
21.514511
 40
0.514282
 50
180.000000
 51
0.000000
  0
ARC
  8
Nr0001-Geometrie
 62
50
 10
328.702942
 20
22.200222
 40
0.514282
 50
0.000000
 51
180.000000
  0
LINE
  8
Nr0001-Geometrie
 62
50
 10
328.188629
 20
21.514511
 11
328.188629
 21
22.200222
  0
LINE
  8
Nr0001-Geometrie
 62
50
 10
329.217224
 20
21.514511
 11
329.217224
 21
22.200222
  0
LINE
  8
Nr0001-Geometrie
 62
50
 10
300.302948
 20
17.980022
 11
300.302948
 21
20.380001
  0
LINE
  8
Nr0001-Geometrie
 62
50
 10
301.331512
 20
20.380001
 11
300.302948
 21
18.837147
  0
LINE
  8
Nr0001-Geometrie
 62
50
 10
300.645813
 20
19.351444
 11
301.502930
 21
17.980022
  0
ARC
  8
Nr0001-Geometrie
 62
50
 10
302.360077
 20
18.494301
 40
0.514282
 50
180.000000
 51
0.000000
  0
ARC
  8
Nr0001-Geometrie
 62
50
 10
302.360077
 20
19.180012
 40
0.514282
 50
0.000000
 51
180.000000
  0
LINE
  8
Nr0001-Geometrie
 62
50
 10
301.845795
 20
18.494301
 11
301.845795
 21
19.180012
  0
LINE
  8
Nr0001-Geometrie
 62
50
 10
302.874390
 20
18.494301
 11
302.874390
 21
19.180012
  0
LINE
  8
Nr0001-Geometrie
 62
50
 10
303.217224
 20
17.980022
 11
303.217224
 21
19.694290
  0
ARC
  8
Nr0001-Geometrie
 62
50
 10
303.560089
 20
19.351444
 40
0.342850
 50
90.000000
 51
180.000000
  0
ARC
  8
Nr0001-Geometrie
 62
50
 10
303.560089
 20
19.180012
 40
0.514282
 50
0.000000
 51
90.000000
  0
LINE
  8
Nr0001-Geometrie
 62
50
 10
304.074371
 20
17.980022
 11
304.074371
 21
19.351444
  0
ARC
  8
Nr0001-Geometrie
 62
50
 10
304.417236
 20
19.351444
 40
0.342850
 50
90.000000
 51
180.000000
  0
ARC
  8
Nr0001-Geometrie
 62
50
 10
304.417236
 20
19.180012
 40
0.514282
 50
0.000000
 51
90.000000
  0
LINE
  8
Nr0001-Geometrie
 62
50
 10
304.931519
 20
17.980022
 11
304.931519
 21
19.180012
  0
LINE
  8
Nr0001-Geometrie
 62
50
 10
305.274353
 20
17.980022
 11
305.274353
 21
19.694290
  0
ARC
  8
Nr0001-Geometrie
 62
50
 10
305.617218
 20
19.351444
 40
0.342850
 50
90.000000
 51
180.000000
  0
ARC
  8
Nr0001-Geometrie
 62
50
 10
305.617218
 20
19.180012
 40
0.514282
 50
0.000000
 51
90.000000
  0
LINE
  8
Nr0001-Geometrie
 62
50
 10
306.131531
 20
17.980022
 11
306.131531
 21
19.351444
  0
ARC
  8
Nr0001-Geometrie
 62
50
 10
306.474365
 20
19.351444
 40
0.342850
 50
90.000000
 51
180.000000
  0
ARC
  8
Nr0001-Geometrie
 62
50
 10
306.474365
 20
19.180012
 40
0.514282
 50
0.000000
 51
90.000000
  0
LINE
  8
Nr0001-Geometrie
 62
50
 10
306.988647
 20
17.980022
 11
306.988647
 21
19.180012
  0
LINE
  8
Nr0001-Geometrie
 62
50
 10
308.360077
 20
17.980022
 11
308.360077
 21
19.180012
  0
ARC
  8
Nr0001-Geometrie
 62
50
 10
307.845795
 20
19.180012
 40
0.514282
 50
0.000000
 51
180.000000
  0
ARC
  8
Nr0001-Geometrie
 62
50
 10
307.845795
 20
18.494301
 40
0.514282
 50
90.000000
 51
270.000000
  0
LINE
  8
Nr0001-Geometrie
 62
50
 10
307.845795
 20
19.008579
 11
308.360077
 21
19.008579
  0
LINE
  8
Nr0001-Geometrie
 62
50
 10
307.845795
 20
17.980022
 11
308.017242
 21
17.980022
  0
ARC
  8
Nr0001-Geometrie
 62
50
 10
308.017242
 20
18.322868
 40
0.342850
 50
270.000000
 51
0.000000
  0
LINE
  8
Nr0001-Geometrie
 62
50
 10
308.702942
 20
17.980022
 11
308.702942
 21
19.694290
  0
ARC
  8
Nr0001-Geometrie
 62
50
 10
309.045776
 20
19.351444
 40
0.342850
 50
90.000000
 51
180.000000
  0
LINE
  8
Nr0001-Geometrie
 62
50
 10
309.045776
 20
19.694290
 11
309.217224
 21
19.694290
  0
ARC
  8
Nr0001-Geometrie
 62
50
 10
309.217224
 20
19.180012
 40
0.514282
 50
0.000000
 51
90.000000
  0
LINE
  8
Nr0001-Geometrie
 62
50
 10
309.731506
 20
17.980022
 11
309.731506
 21
19.180012
  0
LINE
  8
Nr0001-Geometrie
 62
50
 10
311.102936
 20
17.980022
 11
311.102936
 21
20.380001
  0
ARC
  8
Nr0001-Geometrie
 62
50
 10
310.760071
 20
19.351444
 40
0.342850
 50
0.000000
 51
90.000000
  0
LINE
  8
Nr0001-Geometrie
 62
50
 10
310.588654
 20
19.694290
 11
310.760071
 21
19.694290
  0
ARC
  8
Nr0001-Geometrie
 62
50
 10
310.588654
 20
19.180012
 40
0.514282
 50
90.000000
 51
180.000000
  0
LINE
  8
Nr0001-Geometrie
 62
50
 10
310.074402
 20
18.494301
 11
310.074402
 21
19.180012
  0
ARC
  8
Nr0001-Geometrie
 62
50
 10
310.588654
 20
18.494301
 40
0.514282
 50
180.000000
 51
270.000000
  0
LINE
  8
Nr0001-Geometrie
 62
50
 10
310.588654
 20
17.980022
 11
310.760071
 21
17.980022
  0
ARC
  8
Nr0001-Geometrie
 62
50
 10
310.760071
 20
18.322887
 40
0.342865
 50
270.000000
 51
0.000000
  0
LINE
  8
Nr0001-Geometrie
 62
50
 10
311.788666
 20
17.980022
 11
311.788666
 21
19.694290
  0
LINE
  8
Nr0001-Geometrie
 62
50
 10
311.788666
 20
20.037155
 11
311.788666
 21
20.380001
  0
LINE
  8
Nr0001-Geometrie
 62
50
 10
312.645813
 20
20.380001
 11
312.645813
 21
18.322887
  0
LINE
  8
Nr0001-Geometrie
 62
50
 10
312.474365
 20
19.694290
 11
313.160095
 21
19.694290
  0
ARC
  8
Nr0001-Geometrie
 62
50
 10
312.988647
 20
18.322887
 40
0.342865
 50
180.000000
 51
270.000000
  0
LINE
  8
Nr0001-Geometrie
 62
50
 10
312.988647
 20
17.980022
 11
313.160095
 21
17.980022
  0
ARC
  8
Nr0001-Geometrie
 62
50
 10
314.017242
 20
17.808590
 40
0.514279
 50
180.000000
 51
208.178858
  0
LINE
  8
Nr0001-Geometrie
 62
50
 10
314.531525
 20
17.808590
 11
314.531525
 21
19.694290
  0
ARC
  8
Nr0001-Geometrie
 62
50
 10
314.017242
 20
18.494301
 40
0.514282
 50
180.000000
 51
270.000000
  0
LINE
  8
Nr0001-Geometrie
 62
50
 10
313.502960
 20
18.494301
 11
313.502960
 21
19.180012
  0
LINE
  8
Nr0001-Geometrie
 62
50
 10
314.017242
 20
17.980022
 11
314.188660
 21
17.980022
  0
ARC
  8
Nr0001-Geometrie
 62
50
 10
314.188660
 20
18.322887
 40
0.342865
 50
270.000000
 51
0.000000
  0
ARC
  8
Nr0001-Geometrie
 62
50
 10
314.017242
 20
19.180012
 40
0.514282
 50
90.000000
 51
180.000000
  0
LINE
  8
Nr0001-Geometrie
 62
50
 10
314.017242
 20
19.694290
 11
314.188660
 21
19.694290
  0
ARC
  8
Nr0001-Geometrie
 62
50
 10
314.188660
 20
19.351444
 40
0.342865
 50
0.000000
 51
90.000000
  0
LINE
  8
Nr0001-Geometrie
 62
50
 10
315.217224
 20
17.980022
 11
315.217224
 21
18.322887
  0
LINE
  8
Nr0001-Geometrie
 62
50
 10
317.831512
 20
17.980022
 11
317.831512
 21
19.180012
  0
ARC
  8
Nr0001-Geometrie
 62
50
 10
317.317230
 20
19.180012
 40
0.514297
 50
0.000000
 51
180.000000
  0
ARC
  8
Nr0001-Geometrie
 62
50
 10
317.317230
 20
18.494301
 40
0.514282
 50
90.000000
 51
270.000000
  0
LINE
  8
Nr0001-Geometrie
 62
50
 10
317.317230
 20
19.008579
 11
317.831512
 21
19.008579
  0
LINE
  8
Nr0001-Geometrie
 62
50
 10
317.317230
 20
17.980022
 11
317.488647
 21
17.980022
  0
ARC
  8
Nr0001-Geometrie
 62
50
 10
317.488647
 20
18.322887
 40
0.342865
 50
270.000000
 51
0.000000
  0
LINE
  8
Nr0001-Geometrie
 62
50
 10
318.174377
 20
18.494301
 11
318.174377
 21
19.694290
  0
ARC
  8
Nr0001-Geometrie
 62
50
 10
318.688660
 20
18.494301
 40
0.514282
 50
180.000000
 51
270.000000
  0
LINE
  8
Nr0001-Geometrie
 62
50
 10
318.688660
 20
17.980022
 11
318.860107
 21
17.980022
  0
ARC
  8
Nr0001-Geometrie
 62
50
 10
318.860107
 20
18.322887
 40
0.342865
 50
270.000000
 51
0.000000
  0
LINE
  8
Nr0001-Geometrie
 62
50
 10
319.202942
 20
17.980022
 11
319.202942
 21
19.694290
  0
LINE
  8
Nr0001-Geometrie
 62
50
 10
319.717224
 20
17.980022
 11
319.717224
 21
20.037155
  0
ARC
  8
Nr0001-Geometrie
 62
50
 10
320.060089
 20
20.037155
 40
0.342850
 50
90.000000
 51
180.000000
  0
LINE
  8
Nr0001-Geometrie
 62
50
 10
319.545807
 20
19.694290
 11
320.231506
 21
19.694290
  0
LINE
  8
Nr0001-Geometrie
 62
50
 10
320.060089
 20
20.380001
 11
320.231506
 21
20.380001
  0
LINE
  8
Nr0001-Geometrie
 62
50
 10
321.774353
 20
17.980022
 11
322.460083
 21
20.380001
  0
LINE
  8
Nr0001-Geometrie
 62
50
 10
322.460083
 20
20.380001
 11
323.145813
 21
17.980022
  0
LINE
  8
Nr0001-Geometrie
 62
50
 10
321.970154
 20
18.665733
 11
322.950073
 21
18.665733
  0
LINE
  8
Nr0001-Geometrie
 62
50
 10
323.488647
 20
17.980022
 11
323.488647
 21
20.380001
  0
LINE
  8
Nr0001-Geometrie
 62
50
 10
323.488647
 20
18.665733
 11
324.517242
 21
19.694290
  0
LINE
  8
Nr0001-Geometrie
 62
50
 10
323.831512
 20
19.008579
 11
324.517242
 21
17.980022
  0
LINE
  8
Nr0001-Geometrie
 62
50
 10
325.031555
 20
20.380001
 11
325.031555
 21
18.322887
  0
LINE
  8
Nr0001-Geometrie
 62
50
 10
324.860077
 20
19.694290
 11
325.545807
 21
19.694290
  0
ARC
  8
Nr0001-Geometrie
 62
50
 10
325.374390
 20
18.322887
 40
0.342865
 50
180.000000
 51
270.000000
  0
LINE
  8
Nr0001-Geometrie
 62
50
 10
325.374390
 20
17.980022
 11
325.545807
 21
17.980022
  0
LINE
  8
Nr0001-Geometrie
 62
50
 10
326.231537
 20
17.980022
 11
326.231537
 21
19.694290
  0
LINE
  8
Nr0001-Geometrie
 62
50
 10
326.231537
 20
20.037155
 11
326.231537
 21
20.380001
  0
ARC
  8
Nr0001-Geometrie
 62
50
 10
327.431519
 20
18.494320
 40
0.514282
 50
180.000000
 51
0.000000
  0
ARC
  8
Nr0001-Geometrie
 62
50
 10
327.431519
 20
19.180012
 40
0.514282
 50
0.000000
 51
180.000000
  0
LINE
  8
Nr0001-Geometrie
 62
50
 10
326.917236
 20
18.494320
 11
326.917236
 21
19.180012
  0
LINE
  8
Nr0001-Geometrie
 62
50
 10
327.945831
 20
19.180012
 11
327.945831
 21
18.837166
  0
LINE
  8
Nr0001-Geometrie
 62
50
 10
326.917236
 20
18.837166
 11
327.945831
 21
18.837166
  0
LINE
  8
Nr0001-Geometrie
 62
50
 10
328.288696
 20
17.980022
 11
328.288696
 21
19.694290
  0
ARC
  8
Nr0001-Geometrie
 62
50
 10
328.631531
 20
19.351444
 40
0.342850
 50
90.000000
 51
180.000000
  0
LINE
  8
Nr0001-Geometrie
 62
50
 10
328.631531
 20
19.694290
 11
328.802948
 21
19.694290
  0
ARC
  8
Nr0001-Geometrie
 62
50
 10
328.802948
 20
19.180012
 40
0.514282
 50
0.000000
 51
90.000000
  0
LINE
  8
Nr0001-Geometrie
 62
50
 10
329.317261
 20
17.980022
 11
329.317261
 21
19.180012
  0
LINE
  8
Nr0001-Geometrie
 62
50
 10
305.331512
 20
13.825722
 11
305.331512
 21
14.340019
  0
LINE
  8
Nr0001-Geometrie
 62
50
 10
305.331512
 20
14.340019
 11
306.702942
 21
14.340019
  0
LINE
  8
Nr0001-Geometrie
 62
50
 10
306.702942
 20
14.340019
 11
305.502960
 21
11.940002
  0
ARC
  8
Nr0001-Geometrie
 62
50
 10
307.731506
 20
13.654308
 40
0.685721
 50
316.398830
 51
180.000000
  0
LINE
  8
Nr0001-Geometrie
 62
50
 10
308.227966
 20
13.181496
 11
307.045837
 21
11.940002
  0
LINE
  8
Nr0001-Geometrie
 62
50
 10
307.045837
 20
11.940002
 11
308.417236
 21
11.940002
  0
LINE
  8
Nr0001-Geometrie
 62
50
 10
308.760101
 20
12.454300
 11
310.302979
 21
12.454300
  0
LINE
  8
Nr0001-Geometrie
 62
50
 10
310.131531
 20
11.940002
 11
310.131531
 21
13.311443
  0
LINE
  8
Nr0001-Geometrie
 62
50
 10
308.760101
 20
12.454300
 11
309.960083
 21
14.340019
  0
LINE
  8
Nr0001-Geometrie
 62
50
 10
310.645813
 20
14.340019
 11
312.017242
 21
14.340019
  0
LINE
  8
Nr0001-Geometrie
 62
50
 10
310.645813
 20
14.340019
 11
310.645813
 21
13.140011
  0
ARC
  8
Nr0001-Geometrie
 62
50
 10
311.160095
 20
13.140011
 40
0.514282
 50
90.000000
 51
180.000000
  0
LINE
  8
Nr0001-Geometrie
 62
50
 10
311.160095
 20
13.654308
 11
311.331512
 21
13.654308
  0
ARC
  8
Nr0001-Geometrie
 62
50
 10
311.331512
 20
12.968578
 40
0.685715
 50
0.000000
 51
90.000000
  0
LINE
  8
Nr0001-Geometrie
 62
50
 10
312.017242
 20
12.968578
 11
312.017242
 21
12.625732
  0
ARC
  8
Nr0001-Geometrie
 62
50
 10
311.331512
 20
12.625732
 40
0.685700
 50
180.000000
 51
0.000000
  0
ARC
  8
Nr0001-Geometrie
 62
50
 10
313.045807
 20
13.740005
 40
0.599997
 50
302.210804
 51
237.791661
  0
LINE
  8
Nr0001-Geometrie
 62
50
 10
312.725922
 20
13.232250
 11
313.365723
 21
13.232250
  0
ARC
  8
Nr0001-Geometrie
 62
50
 10
313.045807
 20
12.625732
 40
0.685694
 50
117.809994
 51
62.190006
  0
LINE
  8
Nr0001-Geometrie
 62
50
 10
315.788635
 20
11.940002
 11
316.817261
 21
14.340019
  0
LINE
  8
Nr0001-Geometrie
 62
50
 10
316.817261
 20
14.340019
 11
317.845825
 21
11.940002
  0
LINE
  8
Nr0001-Geometrie
 62
50
 10
316.082520
 20
12.625732
 11
317.551971
 21
12.625732
  0
LINE
  8
Nr0001-Geometrie
 62
50
 10
318.188690
 20
12.282867
 11
318.188690
 21
14.340019
  0
ARC
  8
Nr0001-Geometrie
 62
50
 10
318.531525
 20
12.282867
 40
0.342865
 50
180.000000
 51
270.000000
  0
LINE
  8
Nr0001-Geometrie
 62
50
 10
318.531525
 20
11.940002
 11
318.788666
 21
11.940002
  0
LINE
  8
Nr0001-Geometrie
 62
50
 10
319.131531
 20
11.940002
 11
319.131531
 21
14.340019
  0
ARC
  8
Nr0001-Geometrie
 62
50
 10
319.645813
 20
12.454300
 40
0.514297
 50
180.000000
 51
270.000000
  0
LINE
  8
Nr0001-Geometrie
 62
50
 10
319.645813
 20
11.940002
 11
319.817230
 21
11.940002
  0
ARC
  8
Nr0001-Geometrie
 62
50
 10
319.817230
 20
12.625732
 40
0.685715
 50
270.000000
 51
0.000000
  0
LINE
  8
Nr0001-Geometrie
 62
50
 10
320.502960
 20
12.625732
 11
320.502960
 21
12.968578
  0
ARC
  8
Nr0001-Geometrie
 62
50
 10
319.817230
 20
12.968578
 40
0.685715
 50
0.000000
 51
90.000000
  0
LINE
  8
Nr0001-Geometrie
 62
50
 10
319.645813
 20
13.654308
 11
319.817230
 21
13.654308
  0
ARC
  8
Nr0001-Geometrie
 62
50
 10
319.645813
 20
13.140011
 40
0.514282
 50
90.000000
 51
180.000000
  0
ARC
  8
Nr0001-Geometrie
 62
50
 10
321.531525
 20
12.797146
 40
0.857142
 50
53.129286
 51
106.593245
  0
ARC
  8
Nr0001-Geometrie
 62
50
 10
321.394379
 20
13.257275
 40
0.377139
 50
106.592113
 51
261.695328
  0
LINE
  8
Nr0001-Geometrie
 62
50
 10
321.339874
 20
12.883892
 11
321.894592
 21
12.802639
  0
ARC
  8
Nr0001-Geometrie
 62
50
 10
321.840088
 20
12.429619
 40
0.377148
 50
309.986686
 51
81.681147
  0
ARC
  8
Nr0001-Geometrie
 62
50
 10
321.531525
 20
12.797146
 40
0.857141
 50
216.870102
 51
310.002768
  0
LINE
  8
Nr0001-Geometrie
 62
50
 10
322.731567
 20
14.340019
 11
322.731567
 21
12.282867
  0
LINE
  8
Nr0001-Geometrie
 62
50
 10
322.560120
 20
13.654308
 11
323.417236
 21
13.654308
  0
ARC
  8
Nr0001-Geometrie
 62
50
 10
323.074371
 20
12.282867
 40
0.342865
 50
180.000000
 51
270.000000
  0
LINE
  8
Nr0001-Geometrie
 62
50
 10
323.074371
 20
11.940002
 11
323.417236
 21
11.940002
  0
ARC
  8
Nr0001-Geometrie
 62
50
 10
324.445801
 20
12.968578
 40
0.685715
 50
90.000000
 51
149.997972
  0
LINE
  8
Nr0001-Geometrie
 62
50
 10
324.445801
 20
13.654308
 11
324.617249
 21
13.654308
  0
ARC
  8
Nr0001-Geometrie
 62
50
 10
324.617249
 20
13.140011
 40
0.514282
 50
0.000000
 51
90.000000
  0
LINE
  8
Nr0001-Geometrie
 62
50
 10
325.131531
 20
11.940002
 11
325.131531
 21
13.140011
  0
ARC
  8
Nr0001-Geometrie
 62
50
 10
324.617249
 20
12.454300
 40
0.514282
 50
270.000000
 51
0.000000
  0
LINE
  8
Nr0001-Geometrie
 62
50
 10
324.188690
 20
11.940002
 11
324.617249
 21
11.940002
  0
ARC
  8
Nr0001-Geometrie
 62
50
 10
324.188690
 20
12.368584
 40
0.428574
 50
90.000000
 51
270.000000
  0
LINE
  8
Nr0001-Geometrie
 62
50
 10
324.188690
 20
12.797146
 11
325.131531
 21
12.797146
  0
LINE
  8
Nr0001-Geometrie
 62
50
 10
326.845825
 20
11.940022
 11
326.845825
 21
14.340019
  0
ARC
  8
Nr0001-Geometrie
 62
50
 10
326.160126
 20
12.968578
 40
0.685715
 50
90.000000
 51
180.000000
  0
LINE
  8
Nr0001-Geometrie
 62
50
 10
326.160126
 20
13.654308
 11
326.331512
 21
13.654308
  0
ARC
  8
Nr0001-Geometrie
 62
50
 10
326.331512
 20
13.140011
 40
0.514297
 50
0.000000
 51
90.000000
  0
LINE
  8
Nr0001-Geometrie
 62
50
 10
325.474396
 20
12.625732
 11
325.474396
 21
12.968578
  0
ARC
  8
Nr0001-Geometrie
 62
50
 10
326.160126
 20
12.625732
 40
0.685715
 50
180.000000
 51
270.000000
  0
LINE
  8
Nr0001-Geometrie
 62
50
 10
326.160126
 20
11.940022
 11
326.331512
 21
11.940022
  0
ARC
  8
Nr0001-Geometrie
 62
50
 10
326.331512
 20
12.454300
 40
0.514297
 50
270.000000
 51
0.000000
  0
LINE
  8
Nr0001-Geometrie
 62
50
 10
327.360107
 20
14.340019
 11
327.360107
 21
12.282867
  0
LINE
  8
Nr0001-Geometrie
 62
50
 10
327.188690
 20
13.654308
 11
328.045807
 21
13.654308
  0
ARC
  8
Nr0001-Geometrie
 62
50
 10
327.702942
 20
12.282867
 40
0.342850
 50
180.000000
 51
270.000000
  0
LINE
  8
Nr0001-Geometrie
 62
50
 10
327.702942
 20
11.940022
 11
328.045807
 21
11.940022
  0
ARC
  8
Nr0001-Geometrie
 62
50
 10
314.017242
 20
17.808590
 40
0.514285
 50
208.178858
 51
210.843060
  0
ARC
  8
Nr0001-Geometrie
 62
50
 10
314.017242
 20
17.808590
 40
0.514297
 50
331.095442
 51
0.000000
  0
LINE
  8
Nr0001-Geometrie
 62
50
 10
300.302948
 20
11.940002
 11
300.302948
 21
14.340000
  0
LINE
  8
Nr0001-Geometrie
 62
50
 10
300.302948
 20
11.940002
 11
300.988647
 21
11.940002
  0
LINE
  8
Nr0001-Geometrie
 62
50
 10
300.302948
 20
14.340000
 11
300.988647
 21
14.340000
  0
ARC
  8
Nr0001-Geometrie
 62
50
 10
300.988647
 20
13.825722
 40
0.514297
 50
0.000000
 51
90.000000
  0
ARC
  8
Nr0001-Geometrie
 62
50
 10
300.988647
 20
12.454281
 40
0.514297
 50
270.000000
 51
0.000000
  0
LINE
  8
Nr0001-Geometrie
 62
50
 10
301.502960
 20
12.454281
 11
301.502960
 21
13.825722
  0
LINE
  8
Nr0001-Geometrie
 62
50
 10
303.045807
 20
12.797146
 11
304.074371
 21
12.797146
  0
ARC
  8
Nr0001-Geometrie
 62
50
 10
301.160156
 20
16.160011
 40
1.200010
 50
224.410508
 51
298.271335
  0
ARC
  8
Nr0001-Geometrie
 62
50
 10
301.468750
 20
15.586414
 40
0.548564
 50
298.259982
 51
80.867548
  0
ARC
  8
Nr0001-Geometrie
 62
50
 10
300.903015
 20
16.753826
 40
0.514289
 50
119.998742
 51
260.869771
  0
ARC
  8
Nr0001-Geometrie
 62
50
 10
301.245880
 20
16.160011
 40
1.200003
 50
59.999471
 51
120.000529
  0
LINE
  8
Nr0001-Geometrie
 62
50
 10
301.555817
 20
16.128120
 11
300.821411
 21
16.246071
  0
LINE
  8
Nr0001-Geometrie
 62
50
 10
302.703003
 20
14.960003
 11
302.703003
 21
16.674290
  0
LINE
  8
Nr0001-Geometrie
 62
50
 10
302.703003
 20
17.017155
 11
302.703003
 21
17.360001
  0
ARC
  8
Nr0001-Geometrie
 62
50
 10
304.074463
 20
15.645733
 40
0.685712
 50
180.000000
 51
337.973017
  0
ARC
  8
Nr0001-Geometrie
 62
50
 10
304.074463
 20
15.988598
 40
0.685706
 50
22.024028
 51
180.000000
  0
LINE
  8
Nr0001-Geometrie
 62
50
 10
303.388733
 20
15.645733
 11
303.388733
 21
15.988598
  0
LINE
  8
Nr0001-Geometrie
 62
50
 10
305.103027
 20
14.960003
 11
305.103027
 21
17.360001
  0
ARC
  8
Nr0001-Geometrie
 62
50
 10
305.617310
 20
16.160011
 40
0.514297
 50
90.000000
 51
180.000000
  0
LINE
  8
Nr0001-Geometrie
 62
50
 10
305.617310
 20
16.674290
 11
305.788727
 21
16.674290
  0
ARC
  8
Nr0001-Geometrie
 62
50
 10
305.788727
 20
15.988598
 40
0.685715
 50
0.000000
 51
90.000000
  0
LINE
  8
Nr0001-Geometrie
 62
50
 10
306.474457
 20
14.960003
 11
306.474457
 21
15.988598
  0
ARC
  8
Nr0001-Geometrie
 62
50
 10
307.503021
 20
15.645733
 40
0.685712
 50
180.000000
 51
337.973973
  0
ARC
  8
Nr0001-Geometrie
 62
50
 10
307.503021
 20
15.988598
 40
0.685715
 50
0.000000
 51
180.000000
  0
LINE
  8
Nr0001-Geometrie
 62
50
 10
306.817322
 20
15.645733
 11
306.817322
 21
15.988598
  0
LINE
  8
Nr0001-Geometrie
 62
50
 10
308.188751
 20
15.988598
 11
308.188751
 21
15.817165
  0
LINE
  8
Nr0001-Geometrie
 62
50
 10
306.817322
 20
15.817165
 11
308.188751
 21
15.817165
  0
LINE
  8
Nr0001-Geometrie
 62
50
 10
308.531586
 20
14.960003
 11
308.531586
 21
16.674290
  0
ARC
  8
Nr0001-Geometrie
 62
50
 10
309.045898
 20
16.160011
 40
0.514297
 50
90.000000
 51
180.000000
  0
LINE
  8
Nr0001-Geometrie
 62
50
 10
309.045898
 20
16.674290
 11
309.217316
 21
16.674290
  0
ARC
  8
Nr0001-Geometrie
 62
50
 10
309.217316
 20
15.988598
 40
0.685695
 50
41.412137
 51
90.000000
  0
LINE
  8
Nr0001-Geometrie
 62
50
 10
310.074463
 20
14.960003
 11
310.074463
 21
17.360001
  0
ARC
  8
Nr0001-Geometrie
 62
50
 10
310.588745
 20
16.160011
 40
0.514297
 50
90.000000
 51
180.000000
  0
LINE
  8
Nr0001-Geometrie
 62
50
 10
310.588745
 20
16.674290
 11
310.760162
 21
16.674309
  0
ARC
  8
Nr0001-Geometrie
 62
50
 10
310.760162
 20
15.988598
 40
0.685715
 50
0.000000
 51
90.000000
  0
LINE
  8
Nr0001-Geometrie
 62
50
 10
311.445892
 20
14.960003
 11
311.445892
 21
15.988598
  0
ARC
  8
Nr0001-Geometrie
 62
50
 10
312.474457
 20
15.645733
 40
0.685706
 50
180.000000
 51
337.974494
  0
ARC
  8
Nr0001-Geometrie
 62
50
 10
312.474457
 20
15.988598
 40
0.685715
 50
0.000000
 51
180.000000
  0
LINE
  8
Nr0001-Geometrie
 62
50
 10
311.788757
 20
15.645733
 11
311.788757
 21
15.988598
  0
LINE
  8
Nr0001-Geometrie
 62
50
 10
313.160156
 20
15.988598
 11
313.160156
 21
15.817165
  0
LINE
  8
Nr0001-Geometrie
 62
50
 10
311.788757
 20
15.817165
 11
313.160156
 21
15.817165
  0
LINE
  8
Nr0001-Geometrie
 62
50
 10
313.845886
 20
14.960003
 11
313.845886
 21
16.674309
  0
LINE
  8
Nr0001-Geometrie
 62
50
 10
313.845886
 20
17.017155
 11
313.845886
 21
17.360020
  0
LINE
  8
Nr0001-Geometrie
 62
50
 10
314.703033
 20
17.360020
 11
314.703033
 21
15.302868
  0
LINE
  8
Nr0001-Geometrie
 62
50
 10
314.531616
 20
16.674309
 11
315.388733
 21
16.674309
  0
ARC
  8
Nr0001-Geometrie
 62
50
 10
315.045898
 20
15.302868
 40
0.342865
 50
180.000000
 51
270.000000
  0
LINE
  8
Nr0001-Geometrie
 62
50
 10
315.045898
 20
14.960003
 11
315.388733
 21
14.960003
  0
ARC
  8
Nr0001-Geometrie
 62
50
 10
316.417297
 20
15.817165
 40
0.857142
 50
53.128521
 51
106.593609
  0
ARC
  8
Nr0001-Geometrie
 62
50
 10
316.280182
 20
16.277275
 40
0.377141
 50
106.592113
 51
261.690741
  0
LINE
  8
Nr0001-Geometrie
 62
50
 10
316.225647
 20
15.903912
 11
316.780396
 21
15.822639
  0
ARC
  8
Nr0001-Geometrie
 62
50
 10
316.725891
 20
15.449600
 40
0.377136
 50
309.986858
 51
81.686153
  0
ARC
  8
Nr0001-Geometrie
 62
50
 10
316.417297
 20
15.817165
 40
0.857141
 50
216.871122
 51
310.004331
  0
LINE
  8
Nr0001-Geometrie
 62
50
 10
317.617310
 20
17.360020
 11
317.617310
 21
15.302868
  0
LINE
  8
Nr0001-Geometrie
 62
50
 10
317.445892
 20
16.674309
 11
318.303040
 21
16.674309
  0
ARC
  8
Nr0001-Geometrie
 62
50
 10
317.960175
 20
15.302868
 40
0.342865
 50
180.000000
 51
270.000000
  0
LINE
  8
Nr0001-Geometrie
 62
50
 10
317.960175
 20
14.960003
 11
318.303040
 21
14.960003
  0
ARC
  8
Nr0001-Geometrie
 62
50
 10
319.331604
 20
15.645733
 40
0.685720
 50
180.000000
 51
337.975450
  0
ARC
  8
Nr0001-Geometrie
 62
50
 10
319.331604
 20
15.988598
 40
0.685715
 50
0.000000
 51
180.000000
  0
LINE
  8
Nr0001-Geometrie
 62
50
 10
318.645874
 20
15.645733
 11
318.645874
 21
15.988598
  0
LINE
  8
Nr0001-Geometrie
 62
50
 10
320.017334
 20
15.988598
 11
320.017334
 21
15.817165
  0
LINE
  8
Nr0001-Geometrie
 62
50
 10
318.645874
 20
15.817165
 11
320.017334
 21
15.817165
  0
ARC
  8
Nr0001-Geometrie
 62
50
 10
321.045898
 20
15.645733
 40
0.685706
 50
180.000000
 51
337.974494
  0
ARC
  8
Nr0001-Geometrie
 62
50
 10
321.045898
 20
15.988598
 40
0.685706
 50
22.024028
 51
180.000000
  0
LINE
  8
Nr0001-Geometrie
 62
50
 10
320.360168
 20
15.645733
 11
320.360168
 21
15.988598
  0
LINE
  8
Nr0001-Geometrie
 62
50
 10
322.074463
 20
14.960003
 11
322.074463
 21
17.360020
  0
ARC
  8
Nr0001-Geometrie
 62
50
 10
322.588745
 20
16.160030
 40
0.514282
 50
90.000000
 51
180.000000
  0
LINE
  8
Nr0001-Geometrie
 62
50
 10
322.588745
 20
16.674309
 11
322.760162
 21
16.674309
  0
ARC
  8
Nr0001-Geometrie
 62
50
 10
322.760162
 20
15.988598
 40
0.685715
 50
0.000000
 51
90.000000
  0
LINE
  8
Nr0001-Geometrie
 62
50
 10
323.445892
 20
14.960003
 11
323.445892
 21
15.988598
  0
LINE
  8
Nr0001-Geometrie
 62
50
 10
323.788757
 20
14.960003
 11
323.788757
 21
16.674309
  0
ARC
  8
Nr0001-Geometrie
 62
50
 10
324.303040
 20
16.160030
 40
0.514282
 50
90.000000
 51
180.000000
  0
LINE
  8
Nr0001-Geometrie
 62
50
 10
324.303040
 20
16.674309
 11
324.474487
 21
16.674309
  0
ARC
  8
Nr0001-Geometrie
 62
50
 10
324.474487
 20
15.988598
 40
0.685700
 50
0.000000
 51
90.000000
  0
LINE
  8
Nr0001-Geometrie
 62
50
 10
325.160187
 20
14.960003
 11
325.160187
 21
15.988598
  0
LINE
  8
Nr0001-Geometrie
 62
50
 10
325.845886
 20
14.960003
 11
325.845886
 21
16.674309
  0
LINE
  8
Nr0001-Geometrie
 62
50
 10
325.845886
 20
17.017155
 11
325.845886
 21
17.360020
  0
LINE
  8
Nr0001-Geometrie
 62
50
 10
326.531616
 20
14.960003
 11
326.531616
 21
17.360020
  0
LINE
  8
Nr0001-Geometrie
 62
50
 10
326.531616
 20
15.645733
 11
327.903015
 21
16.674309
  0
LINE
  8
Nr0001-Geometrie
 62
50
 10
326.988647
 20
15.988598
 11
328.074493
 21
14.960003
  0
ARC
  8
Nr0001-Geometrie
 62
50
 10
314.017242
 20
17.808590
 40
0.514287
 50
210.843060
 51
328.946085
  0
ARC
  8
Nr0001-Geometrie
 62
50
 10
314.017242
 20
17.808590
 40
0.514292
 50
328.946085
 51
331.095442
  0
LINE
  8
Nr0001-Geometrie
 62
50
 10
297.720001
 20
28.250027
 11
297.720001
 21
24.020023
  0
LINE
  8
Nr0001-Geometrie
 62
50
 10
235.708603
 20
10.465012
 11
236.780014
 21
10.465012
  0
LINE
  8
Nr0001-Geometrie
 62
50
 10
236.780014
 20
10.465012
 11
235.708603
 21
7.965012
  0
LINE
  8
Nr0001-Geometrie
 62
50
 10
235.708603
 20
7.965012
 11
236.780014
 21
7.965012
  0
LINE
  8
Nr0001-Geometrie
 62
50
 10
237.315750
 20
9.750729
 11
237.315750
 21
8.500729
  0
LINE
  8
Nr0001-Geometrie
 62
50
 10
237.315750
 20
8.500729
 11
237.494293
 21
8.143597
  0
LINE
  8
Nr0001-Geometrie
 62
50
 10
237.494293
 20
8.143597
 11
237.851440
 21
7.965012
  0
LINE
  8
Nr0001-Geometrie
 62
50
 10
237.851440
 20
7.965012
 11
238.208603
 21
7.965012
  0
LINE
  8
Nr0001-Geometrie
 62
50
 10
238.208603
 20
7.965012
 11
238.208603
 21
9.750729
  0
LINE
  8
Nr0001-Geometrie
 62
50
 10
238.744324
 20
8.143597
 11
239.101440
 21
7.965012
  0
LINE
  8
Nr0001-Geometrie
 62
50
 10
239.101440
 20
7.965012
 11
239.280014
 21
7.965012
  0
LINE
  8
Nr0001-Geometrie
 62
50
 10
239.280014
 20
7.965012
 11
239.637161
 21
8.143597
  0
LINE
  8
Nr0001-Geometrie
 62
50
 10
239.637161
 20
8.143597
 11
239.637161
 21
8.322163
  0
LINE
  8
Nr0001-Geometrie
 62
50
 10
239.637161
 20
8.322163
 11
238.744324
 21
9.393597
  0
LINE
  8
Nr0001-Geometrie
 62
50
 10
238.744324
 20
9.393597
 11
238.744324
 21
9.572163
  0
LINE
  8
Nr0001-Geometrie
 62
50
 10
238.744324
 20
9.572163
 11
239.101440
 21
9.750729
  0
LINE
  8
Nr0001-Geometrie
 62
50
 10
239.101440
 20
9.750729
 11
239.280014
 21
9.750729
  0
LINE
  8
Nr0001-Geometrie
 62
50
 10
239.280014
 20
9.750729
 11
239.637161
 21
9.572163
  0
LINE
  8
Nr0001-Geometrie
 62
50
 10
240.351440
 20
10.465012
 11
240.351440
 21
7.965012
  0
LINE
  8
Nr0001-Geometrie
 62
50
 10
240.172882
 20
9.750729
 11
240.887161
 21
9.750729
  0
LINE
  8
Nr0001-Geometrie
 62
50
 10
248.557877
 20
8.679295
 11
249.629303
 21
8.679295
  0
LINE
  8
Nr0001-Geometrie
 62
50
 10
248.379303
 20
7.965012
 11
249.093597
 21
10.465012
  0
LINE
  8
Nr0001-Geometrie
 62
50
 10
249.093597
 20
10.465012
 11
249.807877
 21
7.965012
  0
LINE
  8
Nr0001-Geometrie
 62
50
 10
250.343597
 20
8.857861
 11
251.236435
 21
8.857861
  0
LINE
  8
Nr0001-Geometrie
 62
50
 10
251.236435
 20
8.857861
 11
251.236435
 21
9.215012
  0
LINE
  8
Nr0001-Geometrie
 62
50
 10
251.236435
 20
9.215012
 11
251.057877
 21
9.572163
  0
LINE
  8
Nr0001-Geometrie
 62
50
 10
251.057877
 20
9.572163
 11
250.879288
 21
9.750729
  0
LINE
  8
Nr0001-Geometrie
 62
50
 10
250.879288
 20
9.750729
 11
250.700714
 21
9.750729
  0
LINE
  8
Nr0001-Geometrie
 62
50
 10
250.700714
 20
9.750729
 11
250.522156
 21
9.572163
  0
LINE
  8
Nr0001-Geometrie
 62
50
 10
250.522156
 20
9.572163
 11
250.343597
 21
9.215012
  0
LINE
  8
Nr0001-Geometrie
 62
50
 10
250.343597
 20
9.215012
 11
250.343597
 21
8.500729
  0
LINE
  8
Nr0001-Geometrie
 62
50
 10
250.343597
 20
8.500729
 11
250.522156
 21
8.143597
  0
LINE
  8
Nr0001-Geometrie
 62
50
 10
250.522156
 20
8.143597
 11
250.879288
 21
7.965012
  0
LINE
  8
Nr0001-Geometrie
 62
50
 10
250.879288
 20
7.965012
 11
251.236435
 21
7.965012
  0
LINE
  8
Nr0001-Geometrie
 62
50
 10
251.772156
 20
7.965012
 11
251.772156
 21
9.750729
  0
LINE
  8
Nr0001-Geometrie
 62
50
 10
251.772156
 20
9.750729
 11
252.129288
 21
9.750729
  0
LINE
  8
Nr0001-Geometrie
 62
50
 10
252.129288
 20
9.750729
 11
252.486435
 21
9.572163
  0
LINE
  8
Nr0001-Geometrie
 62
50
 10
252.486435
 20
9.572163
 11
252.665024
 21
9.215012
  0
LINE
  8
Nr0001-Geometrie
 62
50
 10
252.665024
 20
9.215012
 11
252.665024
 21
7.965012
  0
LINE
  8
Nr0001-Geometrie
 62
50
 10
254.093597
 20
10.465012
 11
254.093597
 21
7.965012
  0
LINE
  8
Nr0001-Geometrie
 62
50
 10
254.093597
 20
7.965012
 11
253.736435
 21
7.965012
  0
LINE
  8
Nr0001-Geometrie
 62
50
 10
253.736435
 20
7.965012
 11
253.379288
 21
8.143597
  0
LINE
  8
Nr0001-Geometrie
 62
50
 10
253.379288
 20
8.143597
 11
253.200745
 21
8.500729
  0
LINE
  8
Nr0001-Geometrie
 62
50
 10
253.200745
 20
8.500729
 11
253.200745
 21
9.215012
  0
LINE
  8
Nr0001-Geometrie
 62
50
 10
253.200745
 20
9.215012
 11
253.379288
 21
9.572163
  0
LINE
  8
Nr0001-Geometrie
 62
50
 10
253.379288
 20
9.572163
 11
253.736435
 21
9.750729
  0
LINE
  8
Nr0001-Geometrie
 62
50
 10
253.736435
 20
9.750729
 11
254.093597
 21
9.750729
  0
LINE
  8
Nr0001-Geometrie
 62
50
 10
254.629303
 20
8.857861
 11
255.522156
 21
8.857861
  0
LINE
  8
Nr0001-Geometrie
 62
50
 10
255.522156
 20
8.857861
 11
255.522156
 21
9.215012
  0
LINE
  8
Nr0001-Geometrie
 62
50
 10
255.522156
 20
9.215012
 11
255.343597
 21
9.572163
  0
LINE
  8
Nr0001-Geometrie
 62
50
 10
255.343597
 20
9.572163
 11
255.165024
 21
9.750729
  0
LINE
  8
Nr0001-Geometrie
 62
50
 10
255.165024
 20
9.750729
 11
254.986435
 21
9.750729
  0
LINE
  8
Nr0001-Geometrie
 62
50
 10
254.986435
 20
9.750729
 11
254.807877
 21
9.572163
  0
LINE
  8
Nr0001-Geometrie
 62
50
 10
254.807877
 20
9.572163
 11
254.629303
 21
9.215012
  0
LINE
  8
Nr0001-Geometrie
 62
50
 10
254.629303
 20
9.215012
 11
254.629303
 21
8.500729
  0
LINE
  8
Nr0001-Geometrie
 62
50
 10
254.629303
 20
8.500729
 11
254.807877
 21
8.143597
  0
LINE
  8
Nr0001-Geometrie
 62
50
 10
254.807877
 20
8.143597
 11
255.165024
 21
7.965012
  0
LINE
  8
Nr0001-Geometrie
 62
50
 10
255.165024
 20
7.965012
 11
255.522156
 21
7.965012
  0
LINE
  8
Nr0001-Geometrie
 62
50
 10
256.057892
 20
7.965012
 11
256.057892
 21
9.750729
  0
LINE
  8
Nr0001-Geometrie
 62
50
 10
256.057892
 20
9.750729
 11
256.415039
 21
9.750729
  0
LINE
  8
Nr0001-Geometrie
 62
50
 10
256.415039
 20
9.750729
 11
256.772156
 21
9.572163
  0
LINE
  8
Nr0001-Geometrie
 62
50
 10
256.772156
 20
9.572163
 11
256.950745
 21
9.215012
  0
LINE
  8
Nr0001-Geometrie
 62
50
 10
257.486450
 20
9.750729
 11
257.486450
 21
8.500729
  0
LINE
  8
Nr0001-Geometrie
 62
50
 10
257.486450
 20
8.500729
 11
257.665039
 21
8.143597
  0
LINE
  8
Nr0001-Geometrie
 62
50
 10
257.665039
 20
8.143597
 11
258.022156
 21
7.965012
  0
LINE
  8
Nr0001-Geometrie
 62
50
 10
258.022156
 20
7.965012
 11
258.379303
 21
7.965012
  0
LINE
  8
Nr0001-Geometrie
 62
50
 10
258.379303
 20
7.965012
 11
258.379303
 21
9.750729
  0
LINE
  8
Nr0001-Geometrie
 62
50
 10
258.915039
 20
7.965012
 11
258.915039
 21
9.750729
  0
LINE
  8
Nr0001-Geometrie
 62
50
 10
258.915039
 20
9.750729
 11
259.272156
 21
9.750729
  0
LINE
  8
Nr0001-Geometrie
 62
50
 10
259.272156
 20
9.750729
 11
259.629303
 21
9.572163
  0
LINE
  8
Nr0001-Geometrie
 62
50
 10
259.629303
 20
9.572163
 11
259.807892
 21
9.215012
  0
LINE
  8
Nr0001-Geometrie
 62
50
 10
259.807892
 20
9.215012
 11
259.807892
 21
7.965012
  0
LINE
  8
Nr0001-Geometrie
 62
50
 10
260.343597
 20
7.250729
 11
260.700745
 21
7.250729
  0
LINE
  8
Nr0001-Geometrie
 62
50
 10
260.700745
 20
7.250729
 11
261.057892
 21
7.429295
  0
LINE
  8
Nr0001-Geometrie
 62
50
 10
261.057892
 20
7.429295
 11
261.236450
 21
7.786446
  0
LINE
  8
Nr0001-Geometrie
 62
50
 10
261.236450
 20
7.786446
 11
261.236450
 21
9.750729
  0
LINE
  8
Nr0001-Geometrie
 62
50
 10
261.236450
 20
9.750729
 11
260.879303
 21
9.750729
  0
LINE
  8
Nr0001-Geometrie
 62
50
 10
260.879303
 20
9.750729
 11
260.522156
 21
9.572163
  0
LINE
  8
Nr0001-Geometrie
 62
50
 10
260.522156
 20
9.572163
 11
260.343597
 21
9.215012
  0
LINE
  8
Nr0001-Geometrie
 62
50
 10
260.343597
 20
9.215012
 11
260.343597
 21
8.500729
  0
LINE
  8
Nr0001-Geometrie
 62
50
 10
260.343597
 20
8.500729
 11
260.522156
 21
8.143597
  0
LINE
  8
Nr0001-Geometrie
 62
50
 10
260.522156
 20
8.143597
 11
260.879303
 21
7.965012
  0
LINE
  8
Nr0001-Geometrie
 62
50
 10
260.879303
 20
7.965012
 11
261.236450
 21
7.965012
  0
LINE
  8
Nr0001-Geometrie
 62
50
 10
270.197174
 20
7.965012
 11
270.197174
 21
10.465012
  0
LINE
  8
Nr0001-Geometrie
 62
50
 10
270.197174
 20
10.465012
 11
270.732880
 21
10.465012
  0
LINE
  8
Nr0001-Geometrie
 62
50
 10
270.732880
 20
10.465012
 11
271.090027
 21
10.286446
  0
LINE
  8
Nr0001-Geometrie
 62
50
 10
271.090027
 20
10.286446
 11
271.268585
 21
9.929295
  0
LINE
  8
Nr0001-Geometrie
 62
50
 10
271.268585
 20
9.929295
 11
271.268585
 21
8.500729
  0
LINE
  8
Nr0001-Geometrie
 62
50
 10
271.268585
 20
8.500729
 11
271.090027
 21
8.143597
  0
LINE
  8
Nr0001-Geometrie
 62
50
 10
271.090027
 20
8.143597
 11
270.732880
 21
7.965012
  0
LINE
  8
Nr0001-Geometrie
 62
50
 10
270.732880
 20
7.965012
 11
270.197174
 21
7.965012
  0
LINE
  8
Nr0001-Geometrie
 62
50
 10
272.697174
 20
8.143597
 11
272.697174
 21
9.750729
  0
LINE
  8
Nr0001-Geometrie
 62
50
 10
272.697174
 20
9.750729
 11
272.340027
 21
9.750729
  0
LINE
  8
Nr0001-Geometrie
 62
50
 10
272.340027
 20
9.750729
 11
271.982880
 21
9.572163
  0
LINE
  8
Nr0001-Geometrie
 62
50
 10
271.982880
 20
9.572163
 11
271.804321
 21
9.215012
  0
LINE
  8
Nr0001-Geometrie
 62
50
 10
271.804321
 20
9.215012
 11
271.804321
 21
8.500729
  0
LINE
  8
Nr0001-Geometrie
 62
50
 10
271.804321
 20
8.500729
 11
271.982880
 21
8.143597
  0
LINE
  8
Nr0001-Geometrie
 62
50
 10
271.982880
 20
8.143597
 11
272.340027
 21
7.965012
  0
LINE
  8
Nr0001-Geometrie
 62
50
 10
272.340027
 20
7.965012
 11
272.518585
 21
7.965012
  0
LINE
  8
Nr0001-Geometrie
 62
50
 10
272.518585
 20
7.965012
 11
272.697174
 21
8.143597
  0
LINE
  8
Nr0001-Geometrie
 62
50
 10
272.697174
 20
8.143597
 11
272.875732
 21
7.965012
  0
LINE
  8
Nr0001-Geometrie
 62
50
 10
273.590027
 20
10.465012
 11
273.590027
 21
7.965012
  0
LINE
  8
Nr0001-Geometrie
 62
50
 10
273.411469
 20
9.750729
 11
274.125732
 21
9.750729
  0
LINE
  8
Nr0001-Geometrie
 62
50
 10
274.661469
 20
9.750729
 11
274.661469
 21
8.500729
  0
LINE
  8
Nr0001-Geometrie
 62
50
 10
274.661469
 20
8.500729
 11
274.840027
 21
8.143597
  0
LINE
  8
Nr0001-Geometrie
 62
50
 10
274.840027
 20
8.143597
 11
275.197174
 21
7.965012
  0
LINE
  8
Nr0001-Geometrie
 62
50
 10
275.197174
 20
7.965012
 11
275.554321
 21
7.965012
  0
LINE
  8
Nr0001-Geometrie
 62
50
 10
275.554321
 20
7.965012
 11
275.554321
 21
9.750729
  0
LINE
  8
Nr0001-Geometrie
 62
50
 10
276.090027
 20
7.965012
 11
276.090027
 21
9.750729
  0
LINE
  8
Nr0001-Geometrie
 62
50
 10
276.090027
 20
9.750729
 11
276.804321
 21
9.750729
  0
LINE
  8
Nr0001-Geometrie
 62
50
 10
276.804321
 20
9.750729
 11
276.804321
 21
7.965012
  0
LINE
  8
Nr0001-Geometrie
 62
50
 10
276.804321
 20
9.750729
 11
276.982880
 21
9.750729
  0
LINE
  8
Nr0001-Geometrie
 62
50
 10
276.982880
 20
9.750729
 11
277.340027
 21
9.572163
  0
LINE
  8
Nr0001-Geometrie
 62
50
 10
277.340027
 20
9.572163
 11
277.518585
 21
9.215012
  0
LINE
  8
Nr0001-Geometrie
 62
50
 10
277.518585
 20
9.215012
 11
277.518585
 21
7.965012
  0
LINE
  8
Nr0001-Geometrie
 62
50
 10
280.982178
 20
7.965012
 11
280.982178
 21
10.465012
  0
LINE
  8
Nr0001-Geometrie
 62
50
 10
280.982178
 20
10.465012
 11
282.053589
 21
7.965012
  0
LINE
  8
Nr0001-Geometrie
 62
50
 10
282.053589
 20
7.965012
 11
282.053589
 21
10.465012
  0
LINE
  8
Nr0001-Geometrie
 62
50
 10
283.482178
 20
8.143597
 11
283.482178
 21
9.750729
  0
LINE
  8
Nr0001-Geometrie
 62
50
 10
283.482178
 20
9.750729
 11
283.125031
 21
9.750729
  0
LINE
  8
Nr0001-Geometrie
 62
50
 10
283.125031
 20
9.750729
 11
282.767883
 21
9.572163
  0
LINE
  8
Nr0001-Geometrie
 62
50
 10
282.767883
 20
9.572163
 11
282.589325
 21
9.215012
  0
LINE
  8
Nr0001-Geometrie
 62
50
 10
282.589325
 20
9.215012
 11
282.589325
 21
8.500729
  0
LINE
  8
Nr0001-Geometrie
 62
50
 10
282.589325
 20
8.500729
 11
282.767883
 21
8.143597
  0
LINE
  8
Nr0001-Geometrie
 62
50
 10
282.767883
 20
8.143597
 11
283.125031
 21
7.965012
  0
LINE
  8
Nr0001-Geometrie
 62
50
 10
283.125031
 20
7.965012
 11
283.303589
 21
7.965012
  0
LINE
  8
Nr0001-Geometrie
 62
50
 10
283.303589
 20
7.965012
 11
283.482178
 21
8.143597
  0
LINE
  8
Nr0001-Geometrie
 62
50
 10
283.482178
 20
8.143597
 11
283.660736
 21
7.965012
  0
LINE
  8
Nr0001-Geometrie
 62
50
 10
284.196472
 20
7.965012
 11
284.196472
 21
9.750729
  0
LINE
  8
Nr0001-Geometrie
 62
50
 10
284.196472
 20
9.750729
 11
284.910736
 21
9.750729
  0
LINE
  8
Nr0001-Geometrie
 62
50
 10
284.910736
 20
9.750729
 11
284.910736
 21
7.965012
  0
LINE
  8
Nr0001-Geometrie
 62
50
 10
284.910736
 20
9.750729
 11
285.089325
 21
9.750729
  0
LINE
  8
Nr0001-Geometrie
 62
50
 10
285.089325
 20
9.750729
 11
285.446472
 21
9.572163
  0
LINE
  8
Nr0001-Geometrie
 62
50
 10
285.446472
 20
9.572163
 11
285.625031
 21
9.215012
  0
LINE
  8
Nr0001-Geometrie
 62
50
 10
285.625031
 20
9.215012
 11
285.625031
 21
7.965012
  0
LINE
  8
Nr0001-Geometrie
 62
50
 10
286.160736
 20
8.857861
 11
287.053589
 21
8.857861
  0
LINE
  8
Nr0001-Geometrie
 62
50
 10
287.053589
 20
8.857861
 11
287.053589
 21
9.215012
  0
LINE
  8
Nr0001-Geometrie
 62
50
 10
287.053589
 20
9.215012
 11
286.875031
 21
9.572163
  0
LINE
  8
Nr0001-Geometrie
 62
50
 10
286.875031
 20
9.572163
 11
286.696442
 21
9.750729
  0
LINE
  8
Nr0001-Geometrie
 62
50
 10
286.696442
 20
9.750729
 11
286.517883
 21
9.750729
  0
LINE
  8
Nr0001-Geometrie
 62
50
 10
286.517883
 20
9.750729
 11
286.339294
 21
9.572163
  0
LINE
  8
Nr0001-Geometrie
 62
50
 10
286.339294
 20
9.572163
 11
286.160736
 21
9.215012
  0
LINE
  8
Nr0001-Geometrie
 62
50
 10
286.160736
 20
9.215012
 11
286.160736
 21
8.500729
  0
LINE
  8
Nr0001-Geometrie
 62
50
 10
286.160736
 20
8.500729
 11
286.339294
 21
8.143597
  0
LINE
  8
Nr0001-Geometrie
 62
50
 10
286.339294
 20
8.143597
 11
286.696442
 21
7.965012
  0
LINE
  8
Nr0001-Geometrie
 62
50
 10
286.696442
 20
7.965012
 11
287.053589
 21
7.965012
  0
LINE
  8
Nr0001-Geometrie
 62
50
 10
289.568604
 20
37.575016
 11
289.568604
 21
40.075016
  0
LINE
  8
Nr0001-Geometrie
 62
50
 10
289.568604
 20
40.075016
 11
290.104309
 21
40.075016
  0
LINE
  8
Nr0001-Geometrie
 62
50
 10
290.104309
 20
40.075016
 11
290.461456
 21
39.717865
  0
LINE
  8
Nr0001-Geometrie
 62
50
 10
290.461456
 20
39.717865
 11
290.461456
 21
39.182167
  0
LINE
  8
Nr0001-Geometrie
 62
50
 10
290.461456
 20
39.182167
 11
290.104309
 21
38.825016
  0
LINE
  8
Nr0001-Geometrie
 62
50
 10
290.104309
 20
38.825016
 11
289.568604
 21
38.825016
  0
LINE
  8
Nr0001-Geometrie
 62
50
 10
290.104309
 20
38.825016
 11
290.461456
 21
38.646450
  0
LINE
  8
Nr0001-Geometrie
 62
50
 10
290.461456
 20
38.646450
 11
290.640015
 21
38.467865
  0
LINE
  8
Nr0001-Geometrie
 62
50
 10
290.640015
 20
38.467865
 11
290.640015
 21
37.932167
  0
LINE
  8
Nr0001-Geometrie
 62
50
 10
290.640015
 20
37.932167
 11
290.461456
 21
37.753582
  0
LINE
  8
Nr0001-Geometrie
 62
50
 10
290.461456
 20
37.753582
 11
290.104309
 21
37.575016
  0
LINE
  8
Nr0001-Geometrie
 62
50
 10
290.104309
 20
37.575016
 11
289.568604
 21
37.575016
  0
LINE
  8
Nr0001-Geometrie
 62
50
 10
291.175751
 20
38.467865
 11
292.068604
 21
38.467865
  0
LINE
  8
Nr0001-Geometrie
 62
50
 10
292.068604
 20
38.467865
 11
292.068604
 21
38.825016
  0
LINE
  8
Nr0001-Geometrie
 62
50
 10
292.068604
 20
38.825016
 11
291.890015
 21
39.182167
  0
LINE
  8
Nr0001-Geometrie
 62
50
 10
291.890015
 20
39.182167
 11
291.711456
 21
39.360733
  0
LINE
  8
Nr0001-Geometrie
 62
50
 10
291.711456
 20
39.360733
 11
291.532867
 21
39.360733
  0
LINE
  8
Nr0001-Geometrie
 62
50
 10
291.532867
 20
39.360733
 11
291.354309
 21
39.182167
  0
LINE
  8
Nr0001-Geometrie
 62
50
 10
291.354309
 20
39.182167
 11
291.175751
 21
38.825016
  0
LINE
  8
Nr0001-Geometrie
 62
50
 10
291.175751
 20
38.825016
 11
291.175751
 21
38.110733
  0
LINE
  8
Nr0001-Geometrie
 62
50
 10
291.175751
 20
38.110733
 11
291.354309
 21
37.753582
  0
LINE
  8
Nr0001-Geometrie
 62
50
 10
291.354309
 20
37.753582
 11
291.711456
 21
37.575016
  0
LINE
  8
Nr0001-Geometrie
 62
50
 10
291.711456
 20
37.575016
 11
292.068604
 21
37.575016
  0
LINE
  8
Nr0001-Geometrie
 62
50
 10
293.497162
 20
37.753582
 11
293.497162
 21
39.360733
  0
LINE
  8
Nr0001-Geometrie
 62
50
 10
293.497162
 20
39.360733
 11
293.140015
 21
39.360733
  0
LINE
  8
Nr0001-Geometrie
 62
50
 10
293.140015
 20
39.360733
 11
292.782867
 21
39.182167
  0
LINE
  8
Nr0001-Geometrie
 62
50
 10
292.782867
 20
39.182167
 11
292.604309
 21
38.825016
  0
LINE
  8
Nr0001-Geometrie
 62
50
 10
292.604309
 20
38.825016
 11
292.604309
 21
38.110733
  0
LINE
  8
Nr0001-Geometrie
 62
50
 10
292.604309
 20
38.110733
 11
292.782867
 21
37.753582
  0
LINE
  8
Nr0001-Geometrie
 62
50
 10
292.782867
 20
37.753582
 11
293.140015
 21
37.575016
  0
LINE
  8
Nr0001-Geometrie
 62
50
 10
293.140015
 20
37.575016
 11
293.318604
 21
37.575016
  0
LINE
  8
Nr0001-Geometrie
 62
50
 10
293.318604
 20
37.575016
 11
293.497162
 21
37.753582
  0
LINE
  8
Nr0001-Geometrie
 62
50
 10
293.497162
 20
37.753582
 11
293.675751
 21
37.575016
  0
LINE
  8
Nr0001-Geometrie
 62
50
 10
294.211456
 20
37.575016
 11
294.211456
 21
39.360733
  0
LINE
  8
Nr0001-Geometrie
 62
50
 10
294.211456
 20
39.360733
 11
294.568604
 21
39.360733
  0
LINE
  8
Nr0001-Geometrie
 62
50
 10
294.568604
 20
39.360733
 11
294.925751
 21
39.182167
  0
LINE
  8
Nr0001-Geometrie
 62
50
 10
294.925751
 20
39.182167
 11
295.104309
 21
38.825016
  0
LINE
  8
Nr0001-Geometrie
 62
50
 10
295.640015
 20
40.075016
 11
295.640015
 21
37.575016
  0
LINE
  8
Nr0001-Geometrie
 62
50
 10
295.640015
 20
37.575016
 11
295.997162
 21
37.575016
  0
LINE
  8
Nr0001-Geometrie
 62
50
 10
295.997162
 20
37.575016
 11
296.354309
 21
37.753582
  0
LINE
  8
Nr0001-Geometrie
 62
50
 10
296.354309
 20
37.753582
 11
296.532898
 21
38.110733
  0
LINE
  8
Nr0001-Geometrie
 62
50
 10
296.532898
 20
38.110733
 11
296.532898
 21
38.825016
  0
LINE
  8
Nr0001-Geometrie
 62
50
 10
296.532898
 20
38.825016
 11
296.354309
 21
39.182167
  0
LINE
  8
Nr0001-Geometrie
 62
50
 10
296.354309
 20
39.182167
 11
295.997162
 21
39.360733
  0
LINE
  8
Nr0001-Geometrie
 62
50
 10
295.997162
 20
39.360733
 11
295.640015
 21
39.360733
  0
LINE
  8
Nr0001-Geometrie
 62
50
 10
297.247162
 20
37.575016
 11
297.247162
 21
37.753582
  0
LINE
  8
Nr0001-Geometrie
 62
50
 10
297.247162
 20
37.753582
 11
297.068604
 21
37.753582
  0
LINE
  8
Nr0001-Geometrie
 62
50
 10
297.068604
 20
37.753582
 11
297.068604
 21
37.575016
  0
LINE
  8
Nr0001-Geometrie
 62
50
 10
297.068604
 20
37.575016
 11
297.247162
 21
37.575016
  0
LINE
  8
Nr0001-Geometrie
 62
50
 10
290.943604
 20
35.845013
 11
290.407867
 21
35.845013
  0
LINE
  8
Nr0001-Geometrie
 62
50
 10
290.407867
 20
35.845013
 11
290.050720
 21
35.666428
  0
LINE
  8
Nr0001-Geometrie
 62
50
 10
290.050720
 20
35.666428
 11
289.872162
 21
35.309277
  0
LINE
  8
Nr0001-Geometrie
 62
50
 10
289.872162
 20
35.309277
 11
289.872162
 21
33.880730
  0
LINE
  8
Nr0001-Geometrie
 62
50
 10
289.872162
 20
33.880730
 11
290.050720
 21
33.523579
  0
LINE
  8
Nr0001-Geometrie
 62
50
 10
290.050720
 20
33.523579
 11
290.407867
 21
33.345013
  0
LINE
  8
Nr0001-Geometrie
 62
50
 10
290.407867
 20
33.345013
 11
290.943604
 21
33.345013
  0
LINE
  8
Nr0001-Geometrie
 62
50
 10
290.943604
 20
33.345013
 11
290.943604
 21
34.595013
  0
LINE
  8
Nr0001-Geometrie
 62
50
 10
290.943604
 20
34.595013
 11
290.586456
 21
34.595013
  0
LINE
  8
Nr0001-Geometrie
 62
50
 10
291.479309
 20
34.237862
 11
292.372162
 21
34.237862
  0
LINE
  8
Nr0001-Geometrie
 62
50
 10
292.372162
 20
34.237862
 11
292.372162
 21
34.595013
  0
LINE
  8
Nr0001-Geometrie
 62
50
 10
292.372162
 20
34.595013
 11
292.193604
 21
34.952145
  0
LINE
  8
Nr0001-Geometrie
 62
50
 10
292.193604
 20
34.952145
 11
292.015015
 21
35.130730
  0
LINE
  8
Nr0001-Geometrie
 62
50
 10
292.015015
 20
35.130730
 11
291.836456
 21
35.130730
  0
LINE
  8
Nr0001-Geometrie
 62
50
 10
291.836456
 20
35.130730
 11
291.657867
 21
34.952145
  0
LINE
  8
Nr0001-Geometrie
 62
50
 10
291.657867
 20
34.952145
 11
291.479309
 21
34.595013
  0
LINE
  8
Nr0001-Geometrie
 62
50
 10
291.479309
 20
34.595013
 11
291.479309
 21
33.880730
  0
LINE
  8
Nr0001-Geometrie
 62
50
 10
291.479309
 20
33.880730
 11
291.657867
 21
33.523579
  0
LINE
  8
Nr0001-Geometrie
 62
50
 10
291.657867
 20
33.523579
 11
292.015015
 21
33.345013
  0
LINE
  8
Nr0001-Geometrie
 62
50
 10
292.015015
 20
33.345013
 11
292.372162
 21
33.345013
  0
LINE
  8
Nr0001-Geometrie
 62
50
 10
292.907898
 20
32.630730
 11
292.907898
 21
35.130730
  0
LINE
  8
Nr0001-Geometrie
 62
50
 10
292.907898
 20
35.130730
 11
293.265015
 21
35.130730
  0
LINE
  8
Nr0001-Geometrie
 62
50
 10
293.265015
 20
35.130730
 11
293.622162
 21
34.952145
  0
LINE
  8
Nr0001-Geometrie
 62
50
 10
293.622162
 20
34.952145
 11
293.800720
 21
34.595013
  0
LINE
  8
Nr0001-Geometrie
 62
50
 10
293.800720
 20
34.595013
 11
293.800720
 21
33.880730
  0
LINE
  8
Nr0001-Geometrie
 62
50
 10
293.800720
 20
33.880730
 11
293.622162
 21
33.523579
  0
LINE
  8
Nr0001-Geometrie
 62
50
 10
293.622162
 20
33.523579
 11
293.265015
 21
33.345013
  0
LINE
  8
Nr0001-Geometrie
 62
50
 10
293.265015
 20
33.345013
 11
292.907898
 21
33.345013
  0
LINE
  8
Nr0001-Geometrie
 62
50
 10
294.336487
 20
33.345013
 11
294.336487
 21
35.130730
  0
LINE
  8
Nr0001-Geometrie
 62
50
 10
294.336487
 20
35.130730
 11
294.693604
 21
35.130730
  0
LINE
  8
Nr0001-Geometrie
 62
50
 10
294.693604
 20
35.130730
 11
295.050720
 21
34.952145
  0
LINE
  8
Nr0001-Geometrie
 62
50
 10
295.050720
 20
34.952145
 11
295.229309
 21
34.595013
  0
LINE
  8
Nr0001-Geometrie
 62
50
 10
295.943604
 20
33.345013
 11
295.943604
 21
33.523579
  0
LINE
  8
Nr0001-Geometrie
 62
50
 10
295.943604
 20
33.523579
 11
295.765045
 21
33.523579
  0
LINE
  8
Nr0001-Geometrie
 62
50
 10
295.765045
 20
33.523579
 11
295.765045
 21
33.345013
  0
LINE
  8
Nr0001-Geometrie
 62
50
 10
295.765045
 20
33.345013
 11
295.943604
 21
33.345013
  0
LINE
  8
Nr0001-Geometrie
 62
50
 10
289.961487
 20
29.115009
 11
289.961487
 21
31.615009
  0
LINE
  8
Nr0001-Geometrie
 62
50
 10
289.961487
 20
31.615009
 11
291.032898
 21
29.115009
  0
LINE
  8
Nr0001-Geometrie
 62
50
 10
291.032898
 20
29.115009
 11
291.032898
 21
31.615009
  0
LINE
  8
Nr0001-Geometrie
 62
50
 10
292.461487
 20
29.472160
 11
292.104309
 21
29.115009
  0
LINE
  8
Nr0001-Geometrie
 62
50
 10
292.104309
 20
29.115009
 11
291.925720
 21
29.115009
  0
LINE
  8
Nr0001-Geometrie
 62
50
 10
291.925720
 20
29.115009
 11
291.568604
 21
29.472160
  0
LINE
  8
Nr0001-Geometrie
 62
50
 10
291.568604
 20
29.472160
 11
291.568604
 21
30.543575
  0
LINE
  8
Nr0001-Geometrie
 62
50
 10
291.568604
 20
30.543575
 11
291.925720
 21
30.900726
  0
LINE
  8
Nr0001-Geometrie
 62
50
 10
291.925720
 20
30.900726
 11
292.104309
 21
30.900726
  0
LINE
  8
Nr0001-Geometrie
 62
50
 10
292.104309
 20
30.900726
 11
292.461487
 21
30.543575
  0
LINE
  8
Nr0001-Geometrie
 62
50
 10
292.461487
 20
30.543575
 11
292.461487
 21
29.472160
  0
LINE
  8
Nr0001-Geometrie
 62
50
 10
292.997192
 20
29.115009
 11
292.997192
 21
30.900726
  0
LINE
  8
Nr0001-Geometrie
 62
50
 10
292.997192
 20
30.900726
 11
293.354309
 21
30.900726
  0
LINE
  8
Nr0001-Geometrie
 62
50
 10
293.354309
 20
30.900726
 11
293.711487
 21
30.722160
  0
LINE
  8
Nr0001-Geometrie
 62
50
 10
293.711487
 20
30.722160
 11
293.890045
 21
30.365009
  0
LINE
  8
Nr0001-Geometrie
 62
50
 10
294.425751
 20
29.115009
 11
294.425751
 21
30.900726
  0
LINE
  8
Nr0001-Geometrie
 62
50
 10
294.425751
 20
30.900726
 11
295.140045
 21
30.900726
  0
LINE
  8
Nr0001-Geometrie
 62
50
 10
295.140045
 20
30.900726
 11
295.140045
 21
29.115009
  0
LINE
  8
Nr0001-Geometrie
 62
50
 10
295.140045
 20
30.900726
 11
295.318604
 21
30.900726
  0
LINE
  8
Nr0001-Geometrie
 62
50
 10
295.318604
 20
30.900726
 11
295.675751
 21
30.722160
  0
LINE
  8
Nr0001-Geometrie
 62
50
 10
295.675751
 20
30.722160
 11
295.854309
 21
30.365009
  0
LINE
  8
Nr0001-Geometrie
 62
50
 10
295.854309
 20
30.365009
 11
295.854309
 21
29.115009
  0
LINE
  8
Nr0001-Geometrie
 62
50
 10
301.947174
 20
41.805019
 11
301.947174
 21
44.305019
  0
LINE
  8
Nr0001-Geometrie
 62
50
 10
301.947174
 20
44.305019
 11
302.482880
 21
44.305019
  0
LINE
  8
Nr0001-Geometrie
 62
50
 10
302.482880
 20
44.305019
 11
302.840027
 21
44.126434
  0
LINE
  8
Nr0001-Geometrie
 62
50
 10
302.840027
 20
44.126434
 11
303.018585
 21
43.769283
  0
LINE
  8
Nr0001-Geometrie
 62
50
 10
303.018585
 20
43.769283
 11
303.018585
 21
42.340736
  0
LINE
  8
Nr0001-Geometrie
 62
50
 10
303.018585
 20
42.340736
 11
302.840027
 21
41.983585
  0
LINE
  8
Nr0001-Geometrie
 62
50
 10
302.840027
 20
41.983585
 11
302.482880
 21
41.805019
  0
LINE
  8
Nr0001-Geometrie
 62
50
 10
302.482880
 20
41.805019
 11
301.947174
 21
41.805019
  0
LINE
  8
Nr0001-Geometrie
 62
50
 10
304.447174
 20
41.983585
 11
304.447174
 21
43.590736
  0
LINE
  8
Nr0001-Geometrie
 62
50
 10
304.447174
 20
43.590736
 11
304.090027
 21
43.590736
  0
LINE
  8
Nr0001-Geometrie
 62
50
 10
304.090027
 20
43.590736
 11
303.732880
 21
43.412151
  0
LINE
  8
Nr0001-Geometrie
 62
50
 10
303.732880
 20
43.412151
 11
303.554321
 21
43.055019
  0
LINE
  8
Nr0001-Geometrie
 62
50
 10
303.554321
 20
43.055019
 11
303.554321
 21
42.340736
  0
LINE
  8
Nr0001-Geometrie
 62
50
 10
303.554321
 20
42.340736
 11
303.732880
 21
41.983585
  0
LINE
  8
Nr0001-Geometrie
 62
50
 10
303.732880
 20
41.983585
 11
304.090027
 21
41.805019
  0
LINE
  8
Nr0001-Geometrie
 62
50
 10
304.090027
 20
41.805019
 11
304.268585
 21
41.805019
  0
LINE
  8
Nr0001-Geometrie
 62
50
 10
304.268585
 20
41.805019
 11
304.447174
 21
41.983585
  0
LINE
  8
Nr0001-Geometrie
 62
50
 10
304.447174
 20
41.983585
 11
304.625732
 21
41.805019
  0
LINE
  8
Nr0001-Geometrie
 62
50
 10
305.340027
 20
44.305019
 11
305.340027
 21
41.805019
  0
LINE
  8
Nr0001-Geometrie
 62
50
 10
305.161469
 20
43.590736
 11
305.875732
 21
43.590736
  0
LINE
  8
Nr0001-Geometrie
 62
50
 10
306.411469
 20
43.590736
 11
306.411469
 21
42.340736
  0
LINE
  8
Nr0001-Geometrie
 62
50
 10
306.411469
 20
42.340736
 11
306.590027
 21
41.983585
  0
LINE
  8
Nr0001-Geometrie
 62
50
 10
306.590027
 20
41.983585
 11
306.947174
 21
41.805019
  0
LINE
  8
Nr0001-Geometrie
 62
50
 10
306.947174
 20
41.805019
 11
307.304321
 21
41.805019
  0
LINE
  8
Nr0001-Geometrie
 62
50
 10
307.304321
 20
41.805019
 11
307.304321
 21
43.590736
  0
LINE
  8
Nr0001-Geometrie
 62
50
 10
307.840027
 20
41.805019
 11
307.840027
 21
43.590736
  0
LINE
  8
Nr0001-Geometrie
 62
50
 10
307.840027
 20
43.590736
 11
308.554321
 21
43.590736
  0
LINE
  8
Nr0001-Geometrie
 62
50
 10
308.554321
 20
43.590736
 11
308.554321
 21
41.805019
  0
LINE
  8
Nr0001-Geometrie
 62
50
 10
308.554321
 20
43.590736
 11
308.732880
 21
43.590736
  0
LINE
  8
Nr0001-Geometrie
 62
50
 10
308.732880
 20
43.590736
 11
309.090027
 21
43.412151
  0
LINE
  8
Nr0001-Geometrie
 62
50
 10
309.090027
 20
43.412151
 11
309.268585
 21
43.055019
  0
LINE
  8
Nr0001-Geometrie
 62
50
 10
309.268585
 20
43.055019
 11
309.268585
 21
41.805019
  0
LINE
  8
Nr0001-Geometrie
 62
50
 10
319.082153
 20
41.805019
 11
319.082153
 21
44.305019
  0
LINE
  8
Nr0001-Geometrie
 62
50
 10
319.082153
 20
44.305019
 11
320.153564
 21
41.805019
  0
LINE
  8
Nr0001-Geometrie
 62
50
 10
320.153564
 20
41.805019
 11
320.153564
 21
44.305019
  0
LINE
  8
Nr0001-Geometrie
 62
50
 10
321.582184
 20
41.983585
 11
321.582184
 21
43.590736
  0
LINE
  8
Nr0001-Geometrie
 62
50
 10
321.582184
 20
43.590736
 11
321.225006
 21
43.590736
  0
LINE
  8
Nr0001-Geometrie
 62
50
 10
321.225006
 20
43.590736
 11
320.867889
 21
43.412151
  0
LINE
  8
Nr0001-Geometrie
 62
50
 10
320.867889
 20
43.412151
 11
320.689331
 21
43.055019
  0
LINE
  8
Nr0001-Geometrie
 62
50
 10
320.689331
 20
43.055019
 11
320.689331
 21
42.340736
  0
LINE
  8
Nr0001-Geometrie
 62
50
 10
320.689331
 20
42.340736
 11
320.867889
 21
41.983585
  0
LINE
  8
Nr0001-Geometrie
 62
50
 10
320.867889
 20
41.983585
 11
321.225006
 21
41.805019
  0
LINE
  8
Nr0001-Geometrie
 62
50
 10
321.225006
 20
41.805019
 11
321.403564
 21
41.805019
  0
LINE
  8
Nr0001-Geometrie
 62
50
 10
321.403564
 20
41.805019
 11
321.582184
 21
41.983585
  0
LINE
  8
Nr0001-Geometrie
 62
50
 10
321.582184
 20
41.983585
 11
321.760742
 21
41.805019
  0
LINE
  8
Nr0001-Geometrie
 62
50
 10
322.296448
 20
41.805019
 11
322.296448
 21
43.590736
  0
LINE
  8
Nr0001-Geometrie
 62
50
 10
322.296448
 20
43.590736
 11
323.010742
 21
43.590736
  0
LINE
  8
Nr0001-Geometrie
 62
50
 10
323.010742
 20
43.590736
 11
323.010742
 21
41.805019
  0
LINE
  8
Nr0001-Geometrie
 62
50
 10
323.010742
 20
43.590736
 11
323.189331
 21
43.590736
  0
LINE
  8
Nr0001-Geometrie
 62
50
 10
323.189331
 20
43.590736
 11
323.546448
 21
43.412151
  0
LINE
  8
Nr0001-Geometrie
 62
50
 10
323.546448
 20
43.412151
 11
323.725006
 21
43.055019
  0
LINE
  8
Nr0001-Geometrie
 62
50
 10
323.725006
 20
43.055019
 11
323.725006
 21
41.805019
  0
LINE
  8
Nr0001-Geometrie
 62
50
 10
324.260742
 20
42.697868
 11
325.153564
 21
42.697868
  0
LINE
  8
Nr0001-Geometrie
 62
50
 10
325.153564
 20
42.697868
 11
325.153564
 21
43.055019
  0
LINE
  8
Nr0001-Geometrie
 62
50
 10
325.153564
 20
43.055019
 11
324.975006
 21
43.412151
  0
LINE
  8
Nr0001-Geometrie
 62
50
 10
324.975006
 20
43.412151
 11
324.796448
 21
43.590736
  0
LINE
  8
Nr0001-Geometrie
 62
50
 10
324.796448
 20
43.590736
 11
324.617889
 21
43.590736
  0
LINE
  8
Nr0001-Geometrie
 62
50
 10
324.617889
 20
43.590736
 11
324.439331
 21
43.412151
  0
LINE
  8
Nr0001-Geometrie
 62
50
 10
324.439331
 20
43.412151
 11
324.260742
 21
43.055019
  0
LINE
  8
Nr0001-Geometrie
 62
50
 10
324.260742
 20
43.055019
 11
324.260742
 21
42.340736
  0
LINE
  8
Nr0001-Geometrie
 62
50
 10
324.260742
 20
42.340736
 11
324.439331
 21
41.983585
  0
LINE
  8
Nr0001-Geometrie
 62
50
 10
324.439331
 20
41.983585
 11
324.796448
 21
41.805019
  0
LINE
  8
Nr0001-Geometrie
 62
50
 10
324.796448
 20
41.805019
 11
325.153564
 21
41.805019
  0
LINE
  8
Nr0001-Geometrie
 62
10
 10
334.029999
 20
57.167511
 11
334.029999
 21
60.667515
  0
LINE
  8
Nr0001-Geometrie
 62
10
 10
334.029999
 20
60.667515
 11
335.030029
 21
59.167519
  0
LINE
  8
Nr0001-Geometrie
 62
10
 10
335.030029
 20
59.167519
 11
336.029999
 21
60.667515
  0
LINE
  8
Nr0001-Geometrie
 62
10
 10
336.029999
 20
60.667515
 11
336.029999
 21
57.167511
  0
LINE
  8
Nr0001-Geometrie
 62
10
 10
338.030029
 20
57.417507
 11
338.030029
 21
59.667511
  0
LINE
  8
Nr0001-Geometrie
 62
10
 10
338.030029
 20
59.667511
 11
337.530029
 21
59.667511
  0
LINE
  8
Nr0001-Geometrie
 62
10
 10
337.530029
 20
59.667511
 11
337.030029
 21
59.417515
  0
LINE
  8
Nr0001-Geometrie
 62
10
 10
337.030029
 20
59.417515
 11
336.780029
 21
58.917522
  0
LINE
  8
Nr0001-Geometrie
 62
10
 10
336.780029
 20
58.917522
 11
336.780029
 21
57.917519
  0
LINE
  8
Nr0001-Geometrie
 62
10
 10
336.780029
 20
57.917519
 11
337.030029
 21
57.417507
  0
LINE
  8
Nr0001-Geometrie
 62
10
 10
337.030029
 20
57.417507
 11
337.530029
 21
57.167511
  0
LINE
  8
Nr0001-Geometrie
 62
10
 10
337.530029
 20
57.167511
 11
337.779999
 21
57.167511
  0
LINE
  8
Nr0001-Geometrie
 62
10
 10
337.779999
 20
57.167511
 11
338.030029
 21
57.417507
  0
LINE
  8
Nr0001-Geometrie
 62
10
 10
338.030029
 20
57.417507
 11
338.280029
 21
57.167511
  0
LINE
  8
Nr0001-Geometrie
 62
10
 10
339.029999
 20
56.167507
 11
339.029999
 21
59.917507
  0
LINE
  8
Nr0001-Geometrie
 62
10
 10
339.029999
 20
59.917507
 11
339.280029
 21
60.417519
  0
LINE
  8
Nr0001-Geometrie
 62
10
 10
339.280029
 20
60.417519
 11
339.779999
 21
60.667515
  0
LINE
  8
Nr0001-Geometrie
 62
10
 10
339.779999
 20
60.667515
 11
340.279999
 21
60.417519
  0
LINE
  8
Nr0001-Geometrie
 62
10
 10
340.279999
 20
60.417519
 11
340.530029
 21
59.917507
  0
LINE
  8
Nr0001-Geometrie
 62
10
 10
340.530029
 20
59.917507
 11
340.279999
 21
59.417515
  0
LINE
  8
Nr0001-Geometrie
 62
10
 10
340.279999
 20
59.417515
 11
339.530029
 21
59.167519
  0
LINE
  8
Nr0001-Geometrie
 62
10
 10
339.530029
 20
59.167519
 11
339.779999
 21
59.167519
  0
LINE
  8
Nr0001-Geometrie
 62
10
 10
339.779999
 20
59.167519
 11
340.279999
 21
58.917522
  0
LINE
  8
Nr0001-Geometrie
 62
10
 10
340.279999
 20
58.917522
 11
340.530029
 21
58.417511
  0
LINE
  8
Nr0001-Geometrie
 62
10
 10
340.530029
 20
58.417511
 11
340.530029
 21
57.917519
  0
LINE
  8
Nr0001-Geometrie
 62
10
 10
340.530029
 20
57.917519
 11
340.279999
 21
57.417507
  0
LINE
  8
Nr0001-Geometrie
 62
10
 10
340.279999
 20
57.417507
 11
339.779999
 21
57.167511
  0
LINE
  8
Nr0001-Geometrie
 62
10
 10
339.779999
 20
57.167511
 11
339.530029
 21
57.167511
  0
LINE
  8
Nr0001-Geometrie
 62
10
 10
341.280029
 20
57.417507
 11
341.780029
 21
57.167511
  0
LINE
  8
Nr0001-Geometrie
 62
10
 10
341.780029
 20
57.167511
 11
342.030029
 21
57.167511
  0
LINE
  8
Nr0001-Geometrie
 62
10
 10
342.030029
 20
57.167511
 11
342.530029
 21
57.417507
  0
LINE
  8
Nr0001-Geometrie
 62
10
 10
342.530029
 20
57.417507
 11
342.530029
 21
57.667522
  0
LINE
  8
Nr0001-Geometrie
 62
10
 10
342.530029
 20
57.667522
 11
341.280029
 21
59.167519
  0
LINE
  8
Nr0001-Geometrie
 62
10
 10
341.280029
 20
59.167519
 11
341.280029
 21
59.417515
  0
LINE
  8
Nr0001-Geometrie
 62
10
 10
341.280029
 20
59.417515
 11
341.780029
 21
59.667511
  0
LINE
  8
Nr0001-Geometrie
 62
10
 10
341.780029
 20
59.667511
 11
342.030029
 21
59.667511
  0
LINE
  8
Nr0001-Geometrie
 62
10
 10
342.030029
 20
59.667511
 11
342.530029
 21
59.417515
  0
LINE
  8
Nr0001-Geometrie
 62
10
 10
343.529999
 20
60.667515
 11
343.529999
 21
57.167511
  0
LINE
  8
Nr0001-Geometrie
 62
10
 10
343.280029
 20
59.667511
 11
344.280029
 21
59.667511
  0
LINE
  8
Nr0001-Geometrie
 62
10
 10
346.280029
 20
57.417507
 11
346.280029
 21
59.667511
  0
LINE
  8
Nr0001-Geometrie
 62
10
 10
346.280029
 20
59.667511
 11
345.780029
 21
59.667511
  0
LINE
  8
Nr0001-Geometrie
 62
10
 10
345.780029
 20
59.667511
 11
345.279999
 21
59.417515
  0
LINE
  8
Nr0001-Geometrie
 62
10
 10
345.279999
 20
59.417515
 11
345.030029
 21
58.917522
  0
LINE
  8
Nr0001-Geometrie
 62
10
 10
345.030029
 20
58.917522
 11
345.030029
 21
57.917519
  0
LINE
  8
Nr0001-Geometrie
 62
10
 10
345.030029
 20
57.917519
 11
345.279999
 21
57.417507
  0
LINE
  8
Nr0001-Geometrie
 62
10
 10
345.279999
 20
57.417507
 11
345.780029
 21
57.167511
  0
LINE
  8
Nr0001-Geometrie
 62
10
 10
345.780029
 20
57.167511
 11
346.029999
 21
57.167511
  0
LINE
  8
Nr0001-Geometrie
 62
10
 10
346.029999
 20
57.167511
 11
346.280029
 21
57.417507
  0
LINE
  8
Nr0001-Geometrie
 62
10
 10
346.280029
 20
57.417507
 11
346.529999
 21
57.167511
  0
LINE
  8
Nr0001-Geometrie
 62
10
 10
347.279999
 20
60.667515
 11
347.279999
 21
57.167511
  0
LINE
  8
Nr0001-Geometrie
 62
10
 10
347.279999
 20
57.167511
 11
347.779999
 21
57.167511
  0
LINE
  8
Nr0001-Geometrie
 62
10
 10
347.779999
 20
57.167511
 11
348.280029
 21
57.417507
  0
LINE
  8
Nr0001-Geometrie
 62
10
 10
348.280029
 20
57.417507
 11
348.529999
 21
57.917519
  0
LINE
  8
Nr0001-Geometrie
 62
10
 10
348.529999
 20
57.917519
 11
348.529999
 21
58.917522
  0
LINE
  8
Nr0001-Geometrie
 62
10
 10
348.529999
 20
58.917522
 11
348.280029
 21
59.417515
  0
LINE
  8
Nr0001-Geometrie
 62
10
 10
348.280029
 20
59.417515
 11
347.779999
 21
59.667511
  0
LINE
  8
Nr0001-Geometrie
 62
10
 10
347.779999
 20
59.667511
 11
347.279999
 21
59.667511
  0
LINE
  8
Nr0001-Geometrie
 62
50
 10
405.330750
 20
20.655003
 11
405.330750
 21
23.155003
  0
LINE
  8
Nr0001-Geometrie
 62
50
 10
405.330750
 20
23.155003
 11
405.866455
 21
23.155003
  0
LINE
  8
Nr0001-Geometrie
 62
50
 10
405.866455
 20
23.155003
 11
406.223572
 21
22.797852
  0
LINE
  8
Nr0001-Geometrie
 62
50
 10
406.223572
 20
22.797852
 11
406.223572
 21
22.262154
  0
LINE
  8
Nr0001-Geometrie
 62
50
 10
406.223572
 20
22.262154
 11
405.866455
 21
21.905003
  0
LINE
  8
Nr0001-Geometrie
 62
50
 10
405.866455
 20
21.905003
 11
405.330750
 21
21.905003
  0
LINE
  8
Nr0001-Geometrie
 62
50
 10
405.866455
 20
21.905003
 11
406.223572
 21
21.726437
  0
LINE
  8
Nr0001-Geometrie
 62
50
 10
406.223572
 20
21.726437
 11
406.402161
 21
21.547852
  0
LINE
  8
Nr0001-Geometrie
 62
50
 10
406.402161
 20
21.547852
 11
406.402161
 21
21.012154
  0
LINE
  8
Nr0001-Geometrie
 62
50
 10
406.402161
 20
21.012154
 11
406.223572
 21
20.833569
  0
LINE
  8
Nr0001-Geometrie
 62
50
 10
406.223572
 20
20.833569
 11
405.866455
 21
20.655003
  0
LINE
  8
Nr0001-Geometrie
 62
50
 10
405.866455
 20
20.655003
 11
405.330750
 21
20.655003
  0
LINE
  8
Nr0001-Geometrie
 62
50
 10
406.937866
 20
23.155003
 11
406.937866
 21
21.190720
  0
LINE
  8
Nr0001-Geometrie
 62
50
 10
406.937866
 20
21.190720
 11
407.116455
 21
20.833569
  0
LINE
  8
Nr0001-Geometrie
 62
50
 10
407.116455
 20
20.833569
 11
407.473602
 21
20.655003
  0
LINE
  8
Nr0001-Geometrie
 62
50
 10
408.902161
 20
20.833569
 11
408.902161
 21
22.440720
  0
LINE
  8
Nr0001-Geometrie
 62
50
 10
408.902161
 20
22.440720
 11
408.545044
 21
22.440720
  0
LINE
  8
Nr0001-Geometrie
 62
50
 10
408.545044
 20
22.440720
 11
408.187897
 21
22.262154
  0
LINE
  8
Nr0001-Geometrie
 62
50
 10
408.187897
 20
22.262154
 11
408.009308
 21
21.905003
  0
LINE
  8
Nr0001-Geometrie
 62
50
 10
408.009308
 20
21.905003
 11
408.009308
 21
21.190720
  0
LINE
  8
Nr0001-Geometrie
 62
50
 10
408.009308
 20
21.190720
 11
408.187897
 21
20.833569
  0
LINE
  8
Nr0001-Geometrie
 62
50
 10
408.187897
 20
20.833569
 11
408.545044
 21
20.655003
  0
LINE
  8
Nr0001-Geometrie
 62
50
 10
408.545044
 20
20.655003
 11
408.723602
 21
20.655003
  0
LINE
  8
Nr0001-Geometrie
 62
50
 10
408.723602
 20
20.655003
 11
408.902161
 21
20.833569
  0
LINE
  8
Nr0001-Geometrie
 62
50
 10
408.902161
 20
20.833569
 11
409.080750
 21
20.655003
  0
LINE
  8
Nr0001-Geometrie
 62
50
 10
409.795044
 20
23.155003
 11
409.795044
 21
20.655003
  0
LINE
  8
Nr0001-Geometrie
 62
50
 10
409.616455
 20
22.440720
 11
410.330750
 21
22.440720
  0
LINE
  8
Nr0001-Geometrie
 62
50
 10
411.045044
 20
23.155003
 11
411.045044
 21
20.655003
  0
LINE
  8
Nr0001-Geometrie
 62
50
 10
410.866455
 20
22.440720
 11
411.580750
 21
22.440720
  0
LINE
  8
Nr0001-Geometrie
 62
50
 10
413.528595
 20
12.195015
 11
413.528595
 21
14.695015
  0
LINE
  8
Nr0001-Geometrie
 62
50
 10
413.528595
 20
14.695015
 11
414.064331
 21
14.695015
  0
LINE
  8
Nr0001-Geometrie
 62
50
 10
414.064331
 20
14.695015
 11
414.421448
 21
14.337864
  0
LINE
  8
Nr0001-Geometrie
 62
50
 10
414.421448
 20
14.337864
 11
414.421448
 21
13.802166
  0
LINE
  8
Nr0001-Geometrie
 62
50
 10
414.421448
 20
13.802166
 11
414.064331
 21
13.445015
  0
LINE
  8
Nr0001-Geometrie
 62
50
 10
414.064331
 20
13.445015
 11
413.528595
 21
13.445015
  0
LINE
  8
Nr0001-Geometrie
 62
50
 10
414.064331
 20
13.445015
 11
414.421448
 21
13.266430
  0
LINE
  8
Nr0001-Geometrie
 62
50
 10
414.421448
 20
13.266430
 11
414.600037
 21
13.087864
  0
LINE
  8
Nr0001-Geometrie
 62
50
 10
414.600037
 20
13.087864
 11
414.600037
 21
12.552166
  0
LINE
  8
Nr0001-Geometrie
 62
50
 10
414.600037
 20
12.552166
 11
414.421448
 21
12.373581
  0
LINE
  8
Nr0001-Geometrie
 62
50
 10
414.421448
 20
12.373581
 11
414.064331
 21
12.195015
  0
LINE
  8
Nr0001-Geometrie
 62
50
 10
414.064331
 20
12.195015
 11
413.528595
 21
12.195015
  0
LINE
  8
Nr0001-Geometrie
 62
50
 10
415.135742
 20
14.695015
 11
415.135742
 21
12.730732
  0
LINE
  8
Nr0001-Geometrie
 62
50
 10
415.135742
 20
12.730732
 11
415.314331
 21
12.373581
  0
LINE
  8
Nr0001-Geometrie
 62
50
 10
415.314331
 20
12.373581
 11
415.671448
 21
12.195015
  0
LINE
  8
Nr0001-Geometrie
 62
50
 10
416.385773
 20
12.195015
 11
416.385773
 21
12.373581
  0
LINE
  8
Nr0001-Geometrie
 62
50
 10
416.385773
 20
12.373581
 11
416.207214
 21
12.373581
  0
LINE
  8
Nr0001-Geometrie
 62
50
 10
416.207214
 20
12.373581
 11
416.207214
 21
12.195015
  0
LINE
  8
Nr0001-Geometrie
 62
50
 10
416.207214
 20
12.195015
 11
416.385773
 21
12.195015
  0
LINE
  8
Nr0001-Geometrie
 62
50
 10
290.057739
 20
25.170021
 11
290.057739
 21
27.670021
  0
LINE
  8
Nr0001-Geometrie
 62
50
 10
290.057739
 20
27.670021
 11
291.129150
 21
27.670021
  0
LINE
  8
Nr0001-Geometrie
 62
50
 10
290.057739
 20
26.420021
 11
291.129150
 21
26.420021
  0
LINE
  8
Nr0001-Geometrie
 62
50
 10
291.664886
 20
25.170021
 11
291.664886
 21
26.955738
  0
LINE
  8
Nr0001-Geometrie
 62
50
 10
291.664886
 20
26.955738
 11
292.022034
 21
26.955738
  0
LINE
  8
Nr0001-Geometrie
 62
50
 10
292.022034
 20
26.955738
 11
292.379150
 21
26.777172
  0
LINE
  8
Nr0001-Geometrie
 62
50
 10
292.379150
 20
26.777172
 11
292.557739
 21
26.420021
  0
LINE
  8
Nr0001-Geometrie
 62
50
 10
293.093445
 20
26.062870
 11
293.986298
 21
26.062870
  0
LINE
  8
Nr0001-Geometrie
 62
50
 10
293.986298
 20
26.062870
 11
293.986298
 21
26.420021
  0
LINE
  8
Nr0001-Geometrie
 62
50
 10
293.986298
 20
26.420021
 11
293.807739
 21
26.777172
  0
LINE
  8
Nr0001-Geometrie
 62
50
 10
293.807739
 20
26.777172
 11
293.629150
 21
26.955738
  0
LINE
  8
Nr0001-Geometrie
 62
50
 10
293.629150
 20
26.955738
 11
293.450592
 21
26.955738
  0
LINE
  8
Nr0001-Geometrie
 62
50
 10
293.450592
 20
26.955738
 11
293.272034
 21
26.777172
  0
LINE
  8
Nr0001-Geometrie
 62
50
 10
293.272034
 20
26.777172
 11
293.093445
 21
26.420021
  0
LINE
  8
Nr0001-Geometrie
 62
50
 10
293.093445
 20
26.420021
 11
293.093445
 21
25.705738
  0
LINE
  8
Nr0001-Geometrie
 62
50
 10
293.093445
 20
25.705738
 11
293.272034
 21
25.348587
  0
LINE
  8
Nr0001-Geometrie
 62
50
 10
293.272034
 20
25.348587
 11
293.629150
 21
25.170021
  0
LINE
  8
Nr0001-Geometrie
 62
50
 10
293.629150
 20
25.170021
 11
293.986298
 21
25.170021
  0
LINE
  8
Nr0001-Geometrie
 62
50
 10
294.522034
 20
25.170021
 11
294.522034
 21
26.955738
  0
LINE
  8
Nr0001-Geometrie
 62
50
 10
294.522034
 20
27.491436
 11
294.522034
 21
27.670021
  0
LINE
  8
Nr0001-Geometrie
 62
50
 10
294.522034
 20
27.670021
 11
294.700592
 21
27.670021
  0
LINE
  8
Nr0001-Geometrie
 62
50
 10
295.236298
 20
24.455738
 11
295.593445
 21
24.455738
  0
LINE
  8
Nr0001-Geometrie
 62
50
 10
295.593445
 20
24.455738
 11
295.950592
 21
24.634304
  0
LINE
  8
Nr0001-Geometrie
 62
50
 10
295.950592
 20
24.634304
 11
296.129150
 21
24.991436
  0
LINE
  8
Nr0001-Geometrie
 62
50
 10
296.129150
 20
24.991436
 11
296.129150
 21
26.955738
  0
LINE
  8
Nr0001-Geometrie
 62
50
 10
296.129150
 20
26.955738
 11
295.772034
 21
26.955738
  0
LINE
  8
Nr0001-Geometrie
 62
50
 10
295.772034
 20
26.955738
 11
295.414856
 21
26.777172
  0
LINE
  8
Nr0001-Geometrie
 62
50
 10
295.414856
 20
26.777172
 11
295.236298
 21
26.420021
  0
LINE
  8
Nr0001-Geometrie
 62
50
 10
295.236298
 20
26.420021
 11
295.236298
 21
25.705738
  0
LINE
  8
Nr0001-Geometrie
 62
50
 10
295.236298
 20
25.705738
 11
295.414856
 21
25.348587
  0
LINE
  8
Nr0001-Geometrie
 62
50
 10
295.414856
 20
25.348587
 11
295.772034
 21
25.170021
  0
LINE
  8
Nr0001-Geometrie
 62
50
 10
295.772034
 20
25.170021
 11
296.129150
 21
25.170021
  0
LINE
  8
Nr0001-Geometrie
 62
50
 10
296.843445
 20
25.170021
 11
296.843445
 21
25.348587
  0
LINE
  8
Nr0001-Geometrie
 62
50
 10
296.843445
 20
25.348587
 11
296.664886
 21
25.348587
  0
LINE
  8
Nr0001-Geometrie
 62
50
 10
296.664886
 20
25.348587
 11
296.664886
 21
25.170021
  0
LINE
  8
Nr0001-Geometrie
 62
50
 10
296.664886
 20
25.170021
 11
296.843445
 21
25.170021
  0
LINE
  8
Nr0001-Geometrie
 62
10
 10
321.350037
 20
54.630013
 11
321.600006
 21
55.130005
  0
LINE
  8
Nr0001-Geometrie
 62
10
 10
321.600006
 20
55.130005
 11
322.099976
 21
55.380001
  0
LINE
  8
Nr0001-Geometrie
 62
10
 10
322.099976
 20
55.380001
 11
322.350006
 21
55.380001
  0
LINE
  8
Nr0001-Geometrie
 62
10
 10
322.350006
 20
55.380001
 11
322.850006
 21
55.130005
  0
LINE
  8
Nr0001-Geometrie
 62
10
 10
322.850006
 20
55.130005
 11
323.100006
 21
54.630013
  0
LINE
  8
Nr0001-Geometrie
 62
10
 10
323.100006
 20
54.630013
 11
322.850006
 21
54.130001
  0
LINE
  8
Nr0001-Geometrie
 62
10
 10
322.850006
 20
54.130001
 11
321.350037
 21
51.880016
  0
LINE
  8
Nr0001-Geometrie
 62
10
 10
321.350037
 20
51.880016
 11
323.100006
 21
51.880016
  0
LINE
  8
Nr0001-Geometrie
 62
10
 10
366.040009
 20
59.667511
 11
367.039978
 21
60.667515
  0
LINE
  8
Nr0001-Geometrie
 62
10
 10
367.039978
 20
60.667515
 11
367.039978
 21
57.167511
  0
LINE
  8
Nr0001-Geometrie
 62
10
 10
367.789978
 20
59.167519
 11
367.789978
 21
58.917522
  0
LINE
  8
Nr0001-Geometrie
 62
10
 10
367.789978
 20
58.917522
 11
368.040009
 21
58.917522
  0
LINE
  8
Nr0001-Geometrie
 62
10
 10
368.040009
 20
58.917522
 11
368.040009
 21
59.167519
  0
LINE
  8
Nr0001-Geometrie
 62
10
 10
368.040009
 20
59.167519
 11
367.789978
 21
59.167519
  0
LINE
  8
Nr0001-Geometrie
 62
10
 10
368.040009
 20
57.667522
 11
368.040009
 21
57.917519
  0
LINE
  8
Nr0001-Geometrie
 62
10
 10
368.040009
 20
57.917519
 11
367.789978
 21
57.917519
  0
LINE
  8
Nr0001-Geometrie
 62
10
 10
367.789978
 20
57.917519
 11
367.789978
 21
57.667522
  0
LINE
  8
Nr0001-Geometrie
 62
10
 10
367.789978
 20
57.667522
 11
368.040009
 21
57.667522
  0
LINE
  8
Nr0001-Geometrie
 62
10
 10
368.789978
 20
59.667511
 11
369.790009
 21
60.667515
  0
LINE
  8
Nr0001-Geometrie
 62
10
 10
369.790009
 20
60.667515
 11
369.790009
 21
57.167511
  0
LINE
  8
Nr0001-Geometrie
 62
50
 10
396.177124
 20
59.488945
 11
396.320038
 21
59.774666
  0
LINE
  8
Nr0001-Geometrie
 62
50
 10
396.320038
 20
59.774666
 11
396.605774
 21
59.917507
  0
LINE
  8
Nr0001-Geometrie
 62
50
 10
396.605774
 20
59.917507
 11
396.748596
 21
59.917507
  0
LINE
  8
Nr0001-Geometrie
 62
50
 10
396.748596
 20
59.917507
 11
397.034302
 21
59.774666
  0
LINE
  8
Nr0001-Geometrie
 62
50
 10
397.034302
 20
59.774666
 11
397.177155
 21
59.488945
  0
LINE
  8
Nr0001-Geometrie
 62
50
 10
397.177155
 20
59.488945
 11
397.034302
 21
59.203243
  0
LINE
  8
Nr0001-Geometrie
 62
50
 10
397.034302
 20
59.203243
 11
396.177124
 21
57.917519
  0
LINE
  8
Nr0001-Geometrie
 62
50
 10
396.177124
 20
57.917519
 11
397.177155
 21
57.917519
  0
LINE
  8
Nr0001-Geometrie
 62
50
 10
398.320007
 20
59.917507
 11
398.034302
 21
59.774666
  0
LINE
  8
Nr0001-Geometrie
 62
50
 10
398.034302
 20
59.774666
 11
397.748596
 21
59.488945
  0
LINE
  8
Nr0001-Geometrie
 62
50
 10
397.748596
 20
59.488945
 11
397.605713
 21
59.203243
  0
LINE
  8
Nr0001-Geometrie
 62
50
 10
397.605713
 20
59.203243
 11
397.605713
 21
58.346081
  0
LINE
  8
Nr0001-Geometrie
 62
50
 10
397.605713
 20
58.346081
 11
397.748596
 21
58.060360
  0
LINE
  8
Nr0001-Geometrie
 62
50
 10
397.748596
 20
58.060360
 11
398.034302
 21
57.917519
  0
LINE
  8
Nr0001-Geometrie
 62
50
 10
398.034302
 20
57.917519
 11
398.177155
 21
57.917519
  0
LINE
  8
Nr0001-Geometrie
 62
50
 10
398.177155
 20
57.917519
 11
398.462860
 21
58.060360
  0
LINE
  8
Nr0001-Geometrie
 62
50
 10
398.462860
 20
58.060360
 11
398.605713
 21
58.346081
  0
LINE
  8
Nr0001-Geometrie
 62
50
 10
398.605713
 20
58.346081
 11
398.605713
 21
58.631802
  0
LINE
  8
Nr0001-Geometrie
 62
50
 10
398.605713
 20
58.631802
 11
398.462860
 21
58.917522
  0
LINE
  8
Nr0001-Geometrie
 62
50
 10
398.462860
 20
58.917522
 11
398.177155
 21
59.060364
  0
LINE
  8
Nr0001-Geometrie
 62
50
 10
398.177155
 20
59.060364
 11
397.605713
 21
59.060364
  0
LINE
  8
Nr0001-Geometrie
 62
50
 10
399.748566
 20
59.917507
 11
399.462860
 21
59.774666
  0
LINE
  8
Nr0001-Geometrie
 62
50
 10
399.462860
 20
59.774666
 11
399.177185
 21
59.488945
  0
LINE
  8
Nr0001-Geometrie
 62
50
 10
399.177185
 20
59.488945
 11
399.034271
 21
59.203243
  0
LINE
  8
Nr0001-Geometrie
 62
50
 10
399.034271
 20
59.203243
 11
399.034271
 21
58.346081
  0
LINE
  8
Nr0001-Geometrie
 62
50
 10
399.034271
 20
58.346081
 11
399.177185
 21
58.060360
  0
LINE
  8
Nr0001-Geometrie
 62
50
 10
399.177185
 20
58.060360
 11
399.462860
 21
57.917519
  0
LINE
  8
Nr0001-Geometrie
 62
50
 10
399.462860
 20
57.917519
 11
399.605713
 21
57.917519
  0
LINE
  8
Nr0001-Geometrie
 62
50
 10
399.605713
 20
57.917519
 11
399.891418
 21
58.060360
  0
LINE
  8
Nr0001-Geometrie
 62
50
 10
399.891418
 20
58.060360
 11
400.034241
 21
58.346081
  0
LINE
  8
Nr0001-Geometrie
 62
50
 10
400.034241
 20
58.346081
 11
400.034241
 21
58.631802
  0
LINE
  8
Nr0001-Geometrie
 62
50
 10
400.034241
 20
58.631802
 11
399.891418
 21
58.917522
  0
LINE
  8
Nr0001-Geometrie
 62
50
 10
399.891418
 20
58.917522
 11
399.605713
 21
59.060364
  0
LINE
  8
Nr0001-Geometrie
 62
50
 10
399.605713
 20
59.060364
 11
399.034271
 21
59.060364
  0
LINE
  8
Nr0001-Geometrie
 62
50
 10
400.605713
 20
59.631786
 11
400.605713
 21
59.346085
  0
LINE
  8
Nr0001-Geometrie
 62
50
 10
400.605713
 20
59.346085
 11
400.891418
 21
59.060364
  0
LINE
  8
Nr0001-Geometrie
 62
50
 10
400.891418
 20
59.060364
 11
401.034271
 21
59.060364
  0
LINE
  8
Nr0001-Geometrie
 62
50
 10
401.034271
 20
59.060364
 11
401.319946
 21
59.346085
  0
LINE
  8
Nr0001-Geometrie
 62
50
 10
401.319946
 20
59.346085
 11
401.319946
 21
59.631786
  0
LINE
  8
Nr0001-Geometrie
 62
50
 10
401.319946
 20
59.631786
 11
401.034271
 21
59.917507
  0
LINE
  8
Nr0001-Geometrie
 62
50
 10
401.034271
 20
59.917507
 11
400.891418
 21
59.917507
  0
LINE
  8
Nr0001-Geometrie
 62
50
 10
400.891418
 20
59.917507
 11
400.605713
 21
59.631786
  0
LINE
  8
Nr0001-Geometrie
 62
50
 10
400.891418
 20
59.060364
 11
400.605713
 21
58.917522
  0
LINE
  8
Nr0001-Geometrie
 62
50
 10
400.605713
 20
58.917522
 11
400.462830
 21
58.631802
  0
LINE
  8
Nr0001-Geometrie
 62
50
 10
400.462830
 20
58.631802
 11
400.462830
 21
58.346081
  0
LINE
  8
Nr0001-Geometrie
 62
50
 10
400.462830
 20
58.346081
 11
400.605713
 21
58.060360
  0
LINE
  8
Nr0001-Geometrie
 62
50
 10
400.605713
 20
58.060360
 11
400.891418
 21
57.917519
  0
LINE
  8
Nr0001-Geometrie
 62
50
 10
400.891418
 20
57.917519
 11
401.034271
 21
57.917519
  0
LINE
  8
Nr0001-Geometrie
 62
50
 10
401.034271
 20
57.917519
 11
401.319946
 21
58.060360
  0
LINE
  8
Nr0001-Geometrie
 62
50
 10
401.319946
 20
58.060360
 11
401.462830
 21
58.346081
  0
LINE
  8
Nr0001-Geometrie
 62
50
 10
401.462830
 20
58.346081
 11
401.462830
 21
58.631802
  0
LINE
  8
Nr0001-Geometrie
 62
50
 10
401.462830
 20
58.631802
 11
401.319946
 21
58.917522
  0
LINE
  8
Nr0001-Geometrie
 62
50
 10
401.319946
 20
58.917522
 11
401.034271
 21
59.060364
  0
LINE
  8
Nr0001-Geometrie
 62
50
 10
402.034271
 20
59.631786
 11
402.034271
 21
59.346085
  0
LINE
  8
Nr0001-Geometrie
 62
50
 10
402.034271
 20
59.346085
 11
402.319977
 21
59.060364
  0
LINE
  8
Nr0001-Geometrie
 62
50
 10
402.319977
 20
59.060364
 11
402.462830
 21
59.060364
  0
LINE
  8
Nr0001-Geometrie
 62
50
 10
402.462830
 20
59.060364
 11
402.748535
 21
59.346085
  0
LINE
  8
Nr0001-Geometrie
 62
50
 10
402.748535
 20
59.346085
 11
402.748535
 21
59.631786
  0
LINE
  8
Nr0001-Geometrie
 62
50
 10
402.748535
 20
59.631786
 11
402.462830
 21
59.917507
  0
LINE
  8
Nr0001-Geometrie
 62
50
 10
402.462830
 20
59.917507
 11
402.319977
 21
59.917507
  0
LINE
  8
Nr0001-Geometrie
 62
50
 10
402.319977
 20
59.917507
 11
402.034271
 21
59.631786
  0
LINE
  8
Nr0001-Geometrie
 62
50
 10
402.319977
 20
59.060364
 11
402.034271
 21
58.917522
  0
LINE
  8
Nr0001-Geometrie
 62
50
 10
402.034271
 20
58.917522
 11
401.891418
 21
58.631802
  0
LINE
  8
Nr0001-Geometrie
 62
50
 10
401.891418
 20
58.631802
 11
401.891418
 21
58.346081
  0
LINE
  8
Nr0001-Geometrie
 62
50
 10
401.891418
 20
58.346081
 11
402.034271
 21
58.060360
  0
LINE
  8
Nr0001-Geometrie
 62
50
 10
402.034271
 20
58.060360
 11
402.319977
 21
57.917519
  0
LINE
  8
Nr0001-Geometrie
 62
50
 10
402.319977
 20
57.917519
 11
402.462830
 21
57.917519
  0
LINE
  8
Nr0001-Geometrie
 62
50
 10
402.462830
 20
57.917519
 11
402.748535
 21
58.060360
  0
LINE
  8
Nr0001-Geometrie
 62
50
 10
402.748535
 20
58.060360
 11
402.891388
 21
58.346081
  0
LINE
  8
Nr0001-Geometrie
 62
50
 10
402.891388
 20
58.346081
 11
402.891388
 21
58.631802
  0
LINE
  8
Nr0001-Geometrie
 62
50
 10
402.891388
 20
58.631802
 11
402.748535
 21
58.917522
  0
LINE
  8
Nr0001-Geometrie
 62
50
 10
402.748535
 20
58.917522
 11
402.462830
 21
59.060364
  0
LINE
  8
Nr0001-Geometrie
 62
50
 10
320.500031
 20
39.875011
 11
320.500031
 21
38.225002
  0
LINE
  8
Nr0001-Geometrie
 62
50
 10
320.500031
 20
38.225002
 11
320.650024
 21
37.925014
  0
LINE
  8
Nr0001-Geometrie
 62
50
 10
320.650024
 20
37.925014
 11
320.950012
 21
37.775021
  0
LINE
  8
Nr0001-Geometrie
 62
50
 10
321.399994
 20
38.525009
 11
322.149994
 21
38.525009
  0
LINE
  8
Nr0001-Geometrie
 62
50
 10
322.149994
 20
38.525009
 11
322.149994
 21
38.825016
  0
LINE
  8
Nr0001-Geometrie
 62
50
 10
322.149994
 20
38.825016
 11
322.000000
 21
39.125023
  0
LINE
  8
Nr0001-Geometrie
 62
50
 10
322.000000
 20
39.125023
 11
321.850006
 21
39.275017
  0
LINE
  8
Nr0001-Geometrie
 62
50
 10
321.850006
 20
39.275017
 11
321.700012
 21
39.275017
  0
LINE
  8
Nr0001-Geometrie
 62
50
 10
321.700012
 20
39.275017
 11
321.550018
 21
39.125023
  0
LINE
  8
Nr0001-Geometrie
 62
50
 10
321.550018
 20
39.125023
 11
321.399994
 21
38.825016
  0
LINE
  8
Nr0001-Geometrie
 62
50
 10
321.399994
 20
38.825016
 11
321.399994
 21
38.225002
  0
LINE
  8
Nr0001-Geometrie
 62
50
 10
321.399994
 20
38.225002
 11
321.550018
 21
37.925014
  0
LINE
  8
Nr0001-Geometrie
 62
50
 10
321.550018
 20
37.925014
 11
321.850006
 21
37.775021
  0
LINE
  8
Nr0001-Geometrie
 62
50
 10
321.850006
 20
37.775021
 11
322.149994
 21
37.775021
  0
LINE
  8
Nr0001-Geometrie
 62
50
 10
322.600037
 20
39.425011
 11
322.750000
 21
39.725018
  0
LINE
  8
Nr0001-Geometrie
 62
50
 10
322.750000
 20
39.725018
 11
323.049988
 21
39.875011
  0
LINE
  8
Nr0001-Geometrie
 62
50
 10
323.049988
 20
39.875011
 11
323.200012
 21
39.875011
  0
LINE
  8
Nr0001-Geometrie
 62
50
 10
323.200012
 20
39.875011
 11
323.500031
 21
39.725018
  0
LINE
  8
Nr0001-Geometrie
 62
50
 10
323.500031
 20
39.725018
 11
323.650024
 21
39.425011
  0
LINE
  8
Nr0001-Geometrie
 62
50
 10
323.650024
 20
39.425011
 11
323.500031
 21
39.125023
  0
LINE
  8
Nr0001-Geometrie
 62
50
 10
323.500031
 20
39.125023
 11
322.600037
 21
37.775021
  0
LINE
  8
Nr0001-Geometrie
 62
50
 10
322.600037
 20
37.775021
 11
323.650024
 21
37.775021
  0
LINE
  8
Nr0001-Geometrie
 62
50
 10
301.815033
 20
38.525009
 11
301.815033
 21
39.125023
  0
LINE
  8
Nr0001-Geometrie
 62
50
 10
301.815033
 20
39.125023
 11
301.665039
 21
39.575024
  0
LINE
  8
Nr0001-Geometrie
 62
50
 10
301.665039
 20
39.575024
 11
301.365021
 21
39.875011
  0
LINE
  8
Nr0001-Geometrie
 62
50
 10
301.365021
 20
39.875011
 11
301.215027
 21
39.875011
  0
LINE
  8
Nr0001-Geometrie
 62
50
 10
301.215027
 20
39.875011
 11
300.915039
 21
39.575024
  0
LINE
  8
Nr0001-Geometrie
 62
50
 10
300.915039
 20
39.575024
 11
300.765015
 21
39.125023
  0
LINE
  8
Nr0001-Geometrie
 62
50
 10
300.765015
 20
39.125023
 11
300.765015
 21
38.525009
  0
LINE
  8
Nr0001-Geometrie
 62
50
 10
300.765015
 20
38.525009
 11
300.915039
 21
38.075008
  0
LINE
  8
Nr0001-Geometrie
 62
50
 10
300.915039
 20
38.075008
 11
301.215027
 21
37.775021
  0
LINE
  8
Nr0001-Geometrie
 62
50
 10
301.215027
 20
37.775021
 11
301.365021
 21
37.775021
  0
LINE
  8
Nr0001-Geometrie
 62
50
 10
301.365021
 20
37.775021
 11
301.665039
 21
38.075008
  0
LINE
  8
Nr0001-Geometrie
 62
50
 10
301.665039
 20
38.075008
 11
301.815033
 21
38.525009
  0
LINE
  8
Nr0001-Geometrie
 62
50
 10
303.015015
 20
38.825016
 11
303.015015
 21
37.775021
  0
LINE
  8
Nr0001-Geometrie
 62
50
 10
302.865021
 20
39.875011
 11
302.265015
 21
38.225002
  0
LINE
  8
Nr0001-Geometrie
 62
50
 10
302.265015
 20
38.225002
 11
303.315033
 21
38.225002
  0
LINE
  8
Nr0001-Geometrie
 62
50
 10
303.915039
 20
37.775021
 11
303.915039
 21
37.925014
  0
LINE
  8
Nr0001-Geometrie
 62
50
 10
303.915039
 20
37.925014
 11
303.765015
 21
37.925014
  0
LINE
  8
Nr0001-Geometrie
 62
50
 10
303.765015
 20
37.925014
 11
303.765015
 21
37.775021
  0
LINE
  8
Nr0001-Geometrie
 62
50
 10
303.765015
 20
37.775021
 11
303.915039
 21
37.775021
  0
LINE
  8
Nr0001-Geometrie
 62
50
 10
305.415039
 20
38.525009
 11
305.415039
 21
39.125023
  0
LINE
  8
Nr0001-Geometrie
 62
50
 10
305.415039
 20
39.125023
 11
305.265045
 21
39.575024
  0
LINE
  8
Nr0001-Geometrie
 62
50
 10
305.265045
 20
39.575024
 11
304.965027
 21
39.875011
  0
LINE
  8
Nr0001-Geometrie
 62
50
 10
304.965027
 20
39.875011
 11
304.815033
 21
39.875011
  0
LINE
  8
Nr0001-Geometrie
 62
50
 10
304.815033
 20
39.875011
 11
304.515045
 21
39.575024
  0
LINE
  8
Nr0001-Geometrie
 62
50
 10
304.515045
 20
39.575024
 11
304.365021
 21
39.125023
  0
LINE
  8
Nr0001-Geometrie
 62
50
 10
304.365021
 20
39.125023
 11
304.365021
 21
38.525009
  0
LINE
  8
Nr0001-Geometrie
 62
50
 10
304.365021
 20
38.525009
 11
304.515045
 21
38.075008
  0
LINE
  8
Nr0001-Geometrie
 62
50
 10
304.515045
 20
38.075008
 11
304.815033
 21
37.775021
  0
LINE
  8
Nr0001-Geometrie
 62
50
 10
304.815033
 20
37.775021
 11
304.965027
 21
37.775021
  0
LINE
  8
Nr0001-Geometrie
 62
50
 10
304.965027
 20
37.775021
 11
305.265045
 21
38.075008
  0
LINE
  8
Nr0001-Geometrie
 62
50
 10
305.265045
 20
38.075008
 11
305.415039
 21
38.525009
  0
LINE
  8
Nr0001-Geometrie
 62
50
 10
305.865021
 20
39.875011
 11
306.165039
 21
39.875011
  0
LINE
  8
Nr0001-Geometrie
 62
50
 10
306.165039
 20
39.875011
 11
306.465027
 21
39.725018
  0
LINE
  8
Nr0001-Geometrie
 62
50
 10
306.465027
 20
39.725018
 11
306.615021
 21
39.425011
  0
LINE
  8
Nr0001-Geometrie
 62
50
 10
306.615021
 20
39.425011
 11
306.615021
 21
39.275017
  0
LINE
  8
Nr0001-Geometrie
 62
50
 10
306.615021
 20
39.275017
 11
306.465027
 21
38.975010
  0
LINE
  8
Nr0001-Geometrie
 62
50
 10
306.465027
 20
38.975010
 11
306.165039
 21
38.825016
  0
LINE
  8
Nr0001-Geometrie
 62
50
 10
306.165039
 20
38.825016
 11
306.015045
 21
38.825016
  0
LINE
  8
Nr0001-Geometrie
 62
50
 10
306.015045
 20
38.825016
 11
306.315033
 21
38.825016
  0
LINE
  8
Nr0001-Geometrie
 62
50
 10
306.315033
 20
38.825016
 11
306.615021
 21
38.675003
  0
LINE
  8
Nr0001-Geometrie
 62
50
 10
306.615021
 20
38.675003
 11
306.765045
 21
38.375015
  0
LINE
  8
Nr0001-Geometrie
 62
50
 10
306.765045
 20
38.375015
 11
306.765045
 21
38.225002
  0
LINE
  8
Nr0001-Geometrie
 62
50
 10
306.765045
 20
38.225002
 11
306.615021
 21
37.925014
  0
LINE
  8
Nr0001-Geometrie
 62
50
 10
306.615021
 20
37.925014
 11
306.315033
 21
37.775021
  0
LINE
  8
Nr0001-Geometrie
 62
50
 10
306.315033
 20
37.775021
 11
305.865021
 21
37.775021
  0
LINE
  8
Nr0001-Geometrie
 62
50
 10
307.365051
 20
37.775021
 11
307.365051
 21
37.925014
  0
LINE
  8
Nr0001-Geometrie
 62
50
 10
307.365051
 20
37.925014
 11
307.215027
 21
37.925014
  0
LINE
  8
Nr0001-Geometrie
 62
50
 10
307.215027
 20
37.925014
 11
307.215027
 21
37.775021
  0
LINE
  8
Nr0001-Geometrie
 62
50
 10
307.215027
 20
37.775021
 11
307.365051
 21
37.775021
  0
LINE
  8
Nr0001-Geometrie
 62
50
 10
308.115051
 20
37.775021
 11
308.415039
 21
37.925014
  0
LINE
  8
Nr0001-Geometrie
 62
50
 10
308.415039
 20
37.925014
 11
308.715057
 21
38.225002
  0
LINE
  8
Nr0001-Geometrie
 62
50
 10
308.715057
 20
38.225002
 11
308.865051
 21
38.525009
  0
LINE
  8
Nr0001-Geometrie
 62
50
 10
308.865051
 20
38.525009
 11
308.865051
 21
39.425011
  0
LINE
  8
Nr0001-Geometrie
 62
50
 10
308.865051
 20
39.425011
 11
308.715057
 21
39.725018
  0
LINE
  8
Nr0001-Geometrie
 62
50
 10
308.715057
 20
39.725018
 11
308.415039
 21
39.875011
  0
LINE
  8
Nr0001-Geometrie
 62
50
 10
308.415039
 20
39.875011
 11
308.265045
 21
39.875011
  0
LINE
  8
Nr0001-Geometrie
 62
50
 10
308.265045
 20
39.875011
 11
307.965057
 21
39.725018
  0
LINE
  8
Nr0001-Geometrie
 62
50
 10
307.965057
 20
39.725018
 11
307.815033
 21
39.425011
  0
LINE
  8
Nr0001-Geometrie
 62
50
 10
307.815033
 20
39.425011
 11
307.815033
 21
39.125023
  0
LINE
  8
Nr0001-Geometrie
 62
50
 10
307.815033
 20
39.125023
 11
307.965057
 21
38.825016
  0
LINE
  8
Nr0001-Geometrie
 62
50
 10
307.965057
 20
38.825016
 11
308.265045
 21
38.675003
  0
LINE
  8
Nr0001-Geometrie
 62
50
 10
308.265045
 20
38.675003
 11
308.865051
 21
38.675003
  0
LINE
  8
Nr0001-Geometrie
 62
50
 10
309.315033
 20
39.425011
 11
309.315033
 21
39.875011
  0
LINE
  8
Nr0001-Geometrie
 62
50
 10
309.315033
 20
39.875011
 11
310.365051
 21
39.875011
  0
LINE
  8
Nr0001-Geometrie
 62
50
 10
310.365051
 20
39.875011
 11
309.615051
 21
37.775021
  0
LINE
  8
Nr0001-Geometrie
 62
253
 10
351.141418
 20
19.460735
 11
351.141418
 21
18.746433
  0
LINE
  8
Nr0001-Geometrie
 62
253
 10
351.141418
 20
18.746433
 11
351.855743
 21
18.032150
  0
LINE
  8
Nr0001-Geometrie
 62
253
 10
351.855743
 20
18.032150
 11
352.212860
 21
18.032150
  0
LINE
  8
Nr0001-Geometrie
 62
253
 10
352.212860
 20
18.032150
 11
352.927185
 21
18.746433
  0
LINE
  8
Nr0001-Geometrie
 62
253
 10
352.927185
 20
18.746433
 11
352.927185
 21
19.460735
  0
LINE
  8
Nr0001-Geometrie
 62
253
 10
352.927185
 20
19.460735
 11
352.212860
 21
20.174999
  0
LINE
  8
Nr0001-Geometrie
 62
253
 10
352.212860
 20
20.174999
 11
351.855743
 21
20.174999
  0
LINE
  8
Nr0001-Geometrie
 62
253
 10
351.855743
 20
20.174999
 11
351.141418
 21
19.460735
  0
LINE
  8
Nr0001-Geometrie
 62
253
 10
351.855743
 20
18.032150
 11
351.141418
 21
17.674999
  0
LINE
  8
Nr0001-Geometrie
 62
253
 10
351.141418
 20
17.674999
 11
350.784302
 21
16.960735
  0
LINE
  8
Nr0001-Geometrie
 62
253
 10
350.784302
 20
16.960735
 11
350.784302
 21
16.246433
  0
LINE
  8
Nr0001-Geometrie
 62
253
 10
350.784302
 20
16.246433
 11
351.141418
 21
15.532150
  0
LINE
  8
Nr0001-Geometrie
 62
253
 10
351.141418
 20
15.532150
 11
351.855743
 21
15.174999
  0
LINE
  8
Nr0001-Geometrie
 62
253
 10
351.855743
 20
15.174999
 11
352.212860
 21
15.174999
  0
LINE
  8
Nr0001-Geometrie
 62
253
 10
352.212860
 20
15.174999
 11
352.927185
 21
15.532150
  0
LINE
  8
Nr0001-Geometrie
 62
253
 10
352.927185
 20
15.532150
 11
353.284302
 21
16.246433
  0
LINE
  8
Nr0001-Geometrie
 62
253
 10
353.284302
 20
16.246433
 11
353.284302
 21
16.960735
  0
LINE
  8
Nr0001-Geometrie
 62
253
 10
353.284302
 20
16.960735
 11
352.927185
 21
17.674999
  0
LINE
  8
Nr0001-Geometrie
 62
253
 10
352.927185
 20
17.674999
 11
352.212860
 21
18.032150
  0
LINE
  8
Nr0001-Geometrie
 62
253
 10
354.355774
 20
19.103584
 11
354.712860
 21
19.817867
  0
LINE
  8
Nr0001-Geometrie
 62
253
 10
354.712860
 20
19.817867
 11
355.427185
 21
20.174999
  0
LINE
  8
Nr0001-Geometrie
 62
253
 10
355.427185
 20
20.174999
 11
355.784302
 21
20.174999
  0
LINE
  8
Nr0001-Geometrie
 62
253
 10
355.784302
 20
20.174999
 11
356.498596
 21
19.817867
  0
LINE
  8
Nr0001-Geometrie
 62
253
 10
356.498596
 20
19.817867
 11
356.855774
 21
19.103584
  0
LINE
  8
Nr0001-Geometrie
 62
253
 10
356.855774
 20
19.103584
 11
356.498596
 21
18.389282
  0
LINE
  8
Nr0001-Geometrie
 62
253
 10
356.498596
 20
18.389282
 11
354.355774
 21
15.174999
  0
LINE
  8
Nr0001-Geometrie
 62
253
 10
354.355774
 20
15.174999
 11
356.855774
 21
15.174999
  0
LINE
  8
Nr0001-Geometrie
 62
253
 10
358.284302
 20
19.460735
 11
358.284302
 21
18.746433
  0
LINE
  8
Nr0001-Geometrie
 62
253
 10
358.284302
 20
18.746433
 11
358.998596
 21
18.032150
  0
LINE
  8
Nr0001-Geometrie
 62
253
 10
358.998596
 20
18.032150
 11
359.355774
 21
18.032150
  0
LINE
  8
Nr0001-Geometrie
 62
253
 10
359.355774
 20
18.032150
 11
360.070038
 21
18.746433
  0
LINE
  8
Nr0001-Geometrie
 62
253
 10
360.070038
 20
18.746433
 11
360.070038
 21
19.460735
  0
LINE
  8
Nr0001-Geometrie
 62
253
 10
360.070038
 20
19.460735
 11
359.355774
 21
20.174999
  0
LINE
  8
Nr0001-Geometrie
 62
253
 10
359.355774
 20
20.174999
 11
358.998596
 21
20.174999
  0
LINE
  8
Nr0001-Geometrie
 62
253
 10
358.998596
 20
20.174999
 11
358.284302
 21
19.460735
  0
LINE
  8
Nr0001-Geometrie
 62
253
 10
358.998596
 20
18.032150
 11
358.284302
 21
17.674999
  0
LINE
  8
Nr0001-Geometrie
 62
253
 10
358.284302
 20
17.674999
 11
357.927216
 21
16.960735
  0
LINE
  8
Nr0001-Geometrie
 62
253
 10
357.927216
 20
16.960735
 11
357.927216
 21
16.246433
  0
LINE
  8
Nr0001-Geometrie
 62
253
 10
357.927216
 20
16.246433
 11
358.284302
 21
15.532150
  0
LINE
  8
Nr0001-Geometrie
 62
253
 10
358.284302
 20
15.532150
 11
358.998596
 21
15.174999
  0
LINE
  8
Nr0001-Geometrie
 62
253
 10
358.998596
 20
15.174999
 11
359.355774
 21
15.174999
  0
LINE
  8
Nr0001-Geometrie
 62
253
 10
359.355774
 20
15.174999
 11
360.070038
 21
15.532150
  0
LINE
  8
Nr0001-Geometrie
 62
253
 10
360.070038
 20
15.532150
 11
360.427216
 21
16.246433
  0
LINE
  8
Nr0001-Geometrie
 62
253
 10
360.427216
 20
16.246433
 11
360.427216
 21
16.960735
  0
LINE
  8
Nr0001-Geometrie
 62
253
 10
360.427216
 20
16.960735
 11
360.070038
 21
17.674999
  0
LINE
  8
Nr0001-Geometrie
 62
253
 10
360.070038
 20
17.674999
 11
359.355774
 21
18.032150
  0
LINE
  8
Nr0001-Geometrie
 62
253
 10
361.855774
 20
15.174999
 11
361.855774
 21
15.532150
  0
LINE
  8
Nr0001-Geometrie
 62
253
 10
361.855774
 20
15.532150
 11
361.498657
 21
15.532150
  0
LINE
  8
Nr0001-Geometrie
 62
253
 10
361.498657
 20
15.532150
 11
361.498657
 21
15.174999
  0
LINE
  8
Nr0001-Geometrie
 62
253
 10
361.498657
 20
15.174999
 11
361.855774
 21
15.174999
  0
LINE
  8
Nr0001-Geometrie
 62
253
 10
364.712891
 20
17.674999
 11
364.712891
 21
15.174999
  0
LINE
  8
Nr0001-Geometrie
 62
253
 10
364.355774
 20
20.174999
 11
362.927216
 21
16.246433
  0
LINE
  8
Nr0001-Geometrie
 62
253
 10
362.927216
 20
16.246433
 11
365.427216
 21
16.246433
  0
LINE
  8
Nr0001-Geometrie
 62
253
 10
368.284332
 20
17.674999
 11
368.284332
 21
15.174999
  0
LINE
  8
Nr0001-Geometrie
 62
253
 10
367.927216
 20
20.174999
 11
366.498657
 21
16.246433
  0
LINE
  8
Nr0001-Geometrie
 62
253
 10
366.498657
 20
16.246433
 11
368.998657
 21
16.246433
  0
LINE
  8
Nr0001-Geometrie
 62
253
 10
370.070068
 20
17.317867
 11
372.212952
 21
17.317867
  0
LINE
  8
Nr0001-Geometrie
 62
253
 10
373.284363
 20
18.746433
 11
374.712952
 21
20.174999
  0
LINE
  8
Nr0001-Geometrie
 62
253
 10
374.712952
 20
20.174999
 11
374.712952
 21
15.174999
  0
LINE
  8
Nr0001-Geometrie
 62
253
 10
378.284363
 20
16.960735
 11
378.284363
 21
18.389282
  0
LINE
  8
Nr0001-Geometrie
 62
253
 10
378.284363
 20
18.389282
 11
377.927246
 21
19.460735
  0
LINE
  8
Nr0001-Geometrie
 62
253
 10
377.927246
 20
19.460735
 11
377.212952
 21
20.174999
  0
LINE
  8
Nr0001-Geometrie
 62
253
 10
377.212952
 20
20.174999
 11
376.855774
 21
20.174999
  0
LINE
  8
Nr0001-Geometrie
 62
253
 10
376.855774
 20
20.174999
 11
376.141510
 21
19.460735
  0
LINE
  8
Nr0001-Geometrie
 62
253
 10
376.141510
 20
19.460735
 11
375.784363
 21
18.389282
  0
LINE
  8
Nr0001-Geometrie
 62
253
 10
375.784363
 20
18.389282
 11
375.784363
 21
16.960735
  0
LINE
  8
Nr0001-Geometrie
 62
253
 10
375.784363
 20
16.960735
 11
376.141510
 21
15.889282
  0
LINE
  8
Nr0001-Geometrie
 62
253
 10
376.141510
 20
15.889282
 11
376.855774
 21
15.174999
  0
LINE
  8
Nr0001-Geometrie
 62
253
 10
376.855774
 20
15.174999
 11
377.212952
 21
15.174999
  0
LINE
  8
Nr0001-Geometrie
 62
253
 10
377.212952
 20
15.174999
 11
377.927246
 21
15.889282
  0
LINE
  8
Nr0001-Geometrie
 62
253
 10
377.927246
 20
15.889282
 11
378.284363
 21
16.960735
  0
LINE
  8
Nr0001-Geometrie
 62
253
 10
381.855804
 20
16.960735
 11
381.855804
 21
18.389282
  0
LINE
  8
Nr0001-Geometrie
 62
253
 10
381.855804
 20
18.389282
 11
381.498688
 21
19.460735
  0
LINE
  8
Nr0001-Geometrie
 62
253
 10
381.498688
 20
19.460735
 11
380.784363
 21
20.174999
  0
LINE
  8
Nr0001-Geometrie
 62
253
 10
380.784363
 20
20.174999
 11
380.427246
 21
20.174999
  0
LINE
  8
Nr0001-Geometrie
 62
253
 10
380.427246
 20
20.174999
 11
379.712952
 21
19.460735
  0
LINE
  8
Nr0001-Geometrie
 62
253
 10
379.712952
 20
19.460735
 11
379.355804
 21
18.389282
  0
LINE
  8
Nr0001-Geometrie
 62
253
 10
379.355804
 20
18.389282
 11
379.355804
 21
16.960735
  0
LINE
  8
Nr0001-Geometrie
 62
253
 10
379.355804
 20
16.960735
 11
379.712952
 21
15.889282
  0
LINE
  8
Nr0001-Geometrie
 62
253
 10
379.712952
 20
15.889282
 11
380.427246
 21
15.174999
  0
LINE
  8
Nr0001-Geometrie
 62
253
 10
380.427246
 20
15.174999
 11
380.784363
 21
15.174999
  0
LINE
  8
Nr0001-Geometrie
 62
253
 10
380.784363
 20
15.174999
 11
381.498688
 21
15.889282
  0
LINE
  8
Nr0001-Geometrie
 62
253
 10
381.498688
 20
15.889282
 11
381.855804
 21
16.960735
  0
LINE
  8
Nr0001-Geometrie
 62
253
 10
385.427246
 20
16.960735
 11
385.427246
 21
18.389282
  0
LINE
  8
Nr0001-Geometrie
 62
253
 10
385.427246
 20
18.389282
 11
385.070129
 21
19.460735
  0
LINE
  8
Nr0001-Geometrie
 62
253
 10
385.070129
 20
19.460735
 11
384.355804
 21
20.174999
  0
LINE
  8
Nr0001-Geometrie
 62
253
 10
384.355804
 20
20.174999
 11
383.998688
 21
20.174999
  0
LINE
  8
Nr0001-Geometrie
 62
253
 10
383.998688
 20
20.174999
 11
383.284363
 21
19.460735
  0
LINE
  8
Nr0001-Geometrie
 62
253
 10
383.284363
 20
19.460735
 11
382.927246
 21
18.389282
  0
LINE
  8
Nr0001-Geometrie
 62
253
 10
382.927246
 20
18.389282
 11
382.927246
 21
16.960735
  0
LINE
  8
Nr0001-Geometrie
 62
253
 10
382.927246
 20
16.960735
 11
383.284363
 21
15.889282
  0
LINE
  8
Nr0001-Geometrie
 62
253
 10
383.284363
 20
15.889282
 11
383.998688
 21
15.174999
  0
LINE
  8
Nr0001-Geometrie
 62
253
 10
383.998688
 20
15.174999
 11
384.355804
 21
15.174999
  0
LINE
  8
Nr0001-Geometrie
 62
253
 10
384.355804
 20
15.174999
 11
385.070129
 21
15.889282
  0
LINE
  8
Nr0001-Geometrie
 62
253
 10
385.070129
 20
15.889282
 11
385.427246
 21
16.960735
  0
LINE
  8
Nr0001-Geometrie
 62
253
 10
348.920013
 20
36.595001
 11
348.920013
 21
41.595001
  0
LINE
  8
Nr0001-Geometrie
 62
253
 10
348.920013
 20
41.595001
 11
351.062897
 21
41.595001
  0
LINE
  8
Nr0001-Geometrie
 62
253
 10
348.920013
 20
39.095001
 11
351.062897
 21
39.095001
  0
LINE
  8
Nr0001-Geometrie
 62
253
 10
352.134338
 20
41.595001
 11
352.134338
 21
37.666435
  0
LINE
  8
Nr0001-Geometrie
 62
253
 10
352.134338
 20
37.666435
 11
352.491455
 21
36.952152
  0
LINE
  8
Nr0001-Geometrie
 62
253
 10
352.491455
 20
36.952152
 11
353.205719
 21
36.595001
  0
LINE
  8
Nr0001-Geometrie
 62
253
 10
356.062897
 20
36.952152
 11
356.062897
 21
40.166435
  0
LINE
  8
Nr0001-Geometrie
 62
253
 10
356.062897
 20
40.166435
 11
355.348572
 21
40.166435
  0
LINE
  8
Nr0001-Geometrie
 62
253
 10
355.348572
 20
40.166435
 11
354.634277
 21
39.809284
  0
LINE
  8
Nr0001-Geometrie
 62
253
 10
354.634277
 20
39.809284
 11
354.277191
 21
39.095001
  0
LINE
  8
Nr0001-Geometrie
 62
253
 10
354.277191
 20
39.095001
 11
354.277191
 21
37.666435
  0
LINE
  8
Nr0001-Geometrie
 62
253
 10
354.277191
 20
37.666435
 11
354.634277
 21
36.952152
  0
LINE
  8
Nr0001-Geometrie
 62
253
 10
354.634277
 20
36.952152
 11
355.348572
 21
36.595001
  0
LINE
  8
Nr0001-Geometrie
 62
253
 10
355.348572
 20
36.595001
 11
355.705719
 21
36.595001
  0
LINE
  8
Nr0001-Geometrie
 62
253
 10
355.705719
 20
36.595001
 11
356.062897
 21
36.952152
  0
LINE
  8
Nr0001-Geometrie
 62
253
 10
356.062897
 20
36.952152
 11
356.420013
 21
36.595001
  0
LINE
  8
Nr0001-Geometrie
 62
253
 10
357.491455
 20
38.380718
 11
359.277191
 21
38.380718
  0
LINE
  8
Nr0001-Geometrie
 62
253
 10
359.277191
 20
38.380718
 11
359.277191
 21
39.095001
  0
LINE
  8
Nr0001-Geometrie
 62
253
 10
359.277191
 20
39.095001
 11
358.920013
 21
39.809284
  0
LINE
  8
Nr0001-Geometrie
 62
253
 10
358.920013
 20
39.809284
 11
358.562897
 21
40.166435
  0
LINE
  8
Nr0001-Geometrie
 62
253
 10
358.562897
 20
40.166435
 11
358.205719
 21
40.166435
  0
LINE
  8
Nr0001-Geometrie
 62
253
 10
358.205719
 20
40.166435
 11
357.848572
 21
39.809284
  0
LINE
  8
Nr0001-Geometrie
 62
253
 10
357.848572
 20
39.809284
 11
357.491455
 21
39.095001
  0
LINE
  8
Nr0001-Geometrie
 62
253
 10
357.491455
 20
39.095001
 11
357.491455
 21
37.666435
  0
LINE
  8
Nr0001-Geometrie
 62
253
 10
357.491455
 20
37.666435
 11
357.848572
 21
36.952152
  0
LINE
  8
Nr0001-Geometrie
 62
253
 10
357.848572
 20
36.952152
 11
358.562897
 21
36.595001
  0
LINE
  8
Nr0001-Geometrie
 62
253
 10
358.562897
 20
36.595001
 11
359.277191
 21
36.595001
  0
LINE
  8
Nr0001-Geometrie
 62
253
 10
362.134338
 20
40.166435
 11
361.420013
 21
40.166435
  0
LINE
  8
Nr0001-Geometrie
 62
253
 10
361.420013
 20
40.166435
 11
360.705719
 21
39.809284
  0
LINE
  8
Nr0001-Geometrie
 62
253
 10
360.705719
 20
39.809284
 11
360.348633
 21
39.095001
  0
LINE
  8
Nr0001-Geometrie
 62
253
 10
360.348633
 20
39.095001
 11
360.348633
 21
37.666435
  0
LINE
  8
Nr0001-Geometrie
 62
253
 10
360.348633
 20
37.666435
 11
360.705719
 21
36.952152
  0
LINE
  8
Nr0001-Geometrie
 62
253
 10
360.705719
 20
36.952152
 11
361.420013
 21
36.595001
  0
LINE
  8
Nr0001-Geometrie
 62
253
 10
361.420013
 20
36.595001
 11
362.134338
 21
36.595001
  0
LINE
  8
Nr0001-Geometrie
 62
253
 10
363.205750
 20
36.595001
 11
363.205750
 21
41.595001
  0
LINE
  8
Nr0001-Geometrie
 62
253
 10
363.205750
 20
40.166435
 11
363.920013
 21
40.166435
  0
LINE
  8
Nr0001-Geometrie
 62
253
 10
363.920013
 20
40.166435
 11
364.634338
 21
39.809284
  0
LINE
  8
Nr0001-Geometrie
 62
253
 10
364.634338
 20
39.809284
 11
364.991455
 21
39.095001
  0
LINE
  8
Nr0001-Geometrie
 62
253
 10
364.991455
 20
39.095001
 11
364.991455
 21
36.595001
  0
LINE
  8
Nr0001-Geometrie
 62
253
 10
366.062927
 20
38.380718
 11
367.848633
 21
38.380718
  0
LINE
  8
Nr0001-Geometrie
 62
253
 10
367.848633
 20
38.380718
 11
367.848633
 21
39.095001
  0
LINE
  8
Nr0001-Geometrie
 62
253
 10
367.848633
 20
39.095001
 11
367.491455
 21
39.809284
  0
LINE
  8
Nr0001-Geometrie
 62
253
 10
367.491455
 20
39.809284
 11
367.134338
 21
40.166435
  0
LINE
  8
Nr0001-Geometrie
 62
253
 10
367.134338
 20
40.166435
 11
366.777191
 21
40.166435
  0
LINE
  8
Nr0001-Geometrie
 62
253
 10
366.777191
 20
40.166435
 11
366.420013
 21
39.809284
  0
LINE
  8
Nr0001-Geometrie
 62
253
 10
366.420013
 20
39.809284
 11
366.062927
 21
39.095001
  0
LINE
  8
Nr0001-Geometrie
 62
253
 10
366.062927
 20
39.095001
 11
366.062927
 21
37.666435
  0
LINE
  8
Nr0001-Geometrie
 62
253
 10
366.062927
 20
37.666435
 11
366.420013
 21
36.952152
  0
LINE
  8
Nr0001-Geometrie
 62
253
 10
366.420013
 20
36.952152
 11
367.134338
 21
36.595001
  0
LINE
  8
Nr0001-Geometrie
 62
253
 10
367.134338
 20
36.595001
 11
367.848633
 21
36.595001
  0
LINE
  8
Nr0001-Geometrie
 62
253
 10
368.920044
 20
36.595001
 11
368.920044
 21
40.166435
  0
LINE
  8
Nr0001-Geometrie
 62
253
 10
368.920044
 20
40.166435
 11
369.634338
 21
40.166435
  0
LINE
  8
Nr0001-Geometrie
 62
253
 10
369.634338
 20
40.166435
 11
370.348633
 21
39.809284
  0
LINE
  8
Nr0001-Geometrie
 62
253
 10
370.348633
 20
39.809284
 11
370.705750
 21
39.095001
  0
LINE
  8
Nr0001-Geometrie
 62
253
 10
370.705750
 20
39.095001
 11
370.705750
 21
36.595001
  0
LINE
  8
Nr0001-Geometrie
 62
253
 10
371.777191
 20
36.595001
 11
371.777191
 21
41.595001
  0
LINE
  8
Nr0001-Geometrie
 62
253
 10
371.777191
 20
40.166435
 11
372.491455
 21
40.166435
  0
LINE
  8
Nr0001-Geometrie
 62
253
 10
372.491455
 20
40.166435
 11
373.205750
 21
39.809284
  0
LINE
  8
Nr0001-Geometrie
 62
253
 10
373.205750
 20
39.809284
 11
373.562927
 21
39.095001
  0
LINE
  8
Nr0001-Geometrie
 62
253
 10
373.562927
 20
39.095001
 11
373.562927
 21
36.595001
  0
LINE
  8
Nr0001-Geometrie
 62
253
 10
376.420044
 20
36.952152
 11
376.420044
 21
40.166435
  0
LINE
  8
Nr0001-Geometrie
 62
253
 10
376.420044
 20
40.166435
 11
375.705750
 21
40.166435
  0
LINE
  8
Nr0001-Geometrie
 62
253
 10
375.705750
 20
40.166435
 11
374.991455
 21
39.809284
  0
LINE
  8
Nr0001-Geometrie
 62
253
 10
374.991455
 20
39.809284
 11
374.634369
 21
39.095001
  0
LINE
  8
Nr0001-Geometrie
 62
253
 10
374.634369
 20
39.095001
 11
374.634369
 21
37.666435
  0
LINE
  8
Nr0001-Geometrie
 62
253
 10
374.634369
 20
37.666435
 11
374.991455
 21
36.952152
  0
LINE
  8
Nr0001-Geometrie
 62
253
 10
374.991455
 20
36.952152
 11
375.705750
 21
36.595001
  0
LINE
  8
Nr0001-Geometrie
 62
253
 10
375.705750
 20
36.595001
 11
376.062927
 21
36.595001
  0
LINE
  8
Nr0001-Geometrie
 62
253
 10
376.062927
 20
36.595001
 11
376.420044
 21
36.952152
  0
LINE
  8
Nr0001-Geometrie
 62
253
 10
376.420044
 20
36.952152
 11
376.777191
 21
36.595001
  0
LINE
  8
Nr0001-Geometrie
 62
253
 10
378.205750
 20
36.595001
 11
378.205750
 21
40.523586
  0
LINE
  8
Nr0001-Geometrie
 62
253
 10
378.205750
 20
40.523586
 11
378.562927
 21
41.237850
  0
LINE
  8
Nr0001-Geometrie
 62
253
 10
378.562927
 20
41.237850
 11
378.920044
 21
41.595001
  0
LINE
  8
Nr0001-Geometrie
 62
253
 10
378.920044
 20
41.595001
 11
379.277191
 21
41.595001
  0
LINE
  8
Nr0001-Geometrie
 62
253
 10
377.848663
 20
40.166435
 11
379.277191
 21
40.166435
  0
LINE
  8
Nr0001-Geometrie
 62
253
 10
380.705750
 20
41.595001
 11
380.705750
 21
36.595001
  0
LINE
  8
Nr0001-Geometrie
 62
253
 10
380.348663
 20
40.166435
 11
381.777191
 21
40.166435
  0
LINE
  8
Nr0001-Geometrie
 62
253
 10
382.848663
 20
36.595001
 11
382.848663
 21
40.166435
  0
LINE
  8
Nr0001-Geometrie
 62
253
 10
382.848663
 20
40.166435
 11
384.277191
 21
40.166435
  0
LINE
  8
Nr0001-Geometrie
 62
253
 10
384.277191
 20
40.166435
 11
384.277191
 21
36.595001
  0
LINE
  8
Nr0001-Geometrie
 62
253
 10
384.277191
 20
40.166435
 11
384.634369
 21
40.166435
  0
LINE
  8
Nr0001-Geometrie
 62
253
 10
384.634369
 20
40.166435
 11
385.348663
 21
39.809284
  0
LINE
  8
Nr0001-Geometrie
 62
253
 10
385.348663
 20
39.809284
 11
385.705750
 21
39.095001
  0
LINE
  8
Nr0001-Geometrie
 62
253
 10
385.705750
 20
39.095001
 11
385.705750
 21
36.595001
  0
LINE
  8
Nr0001-Geometrie
 62
253
 10
388.562927
 20
36.952152
 11
388.562927
 21
40.166435
  0
LINE
  8
Nr0001-Geometrie
 62
253
 10
388.562927
 20
40.166435
 11
387.848633
 21
40.166435
  0
LINE
  8
Nr0001-Geometrie
 62
253
 10
387.848633
 20
40.166435
 11
387.134338
 21
39.809284
  0
LINE
  8
Nr0001-Geometrie
 62
253
 10
387.134338
 20
39.809284
 11
386.777191
 21
39.095001
  0
LINE
  8
Nr0001-Geometrie
 62
253
 10
386.777191
 20
39.095001
 11
386.777191
 21
37.666435
  0
LINE
  8
Nr0001-Geometrie
 62
253
 10
386.777191
 20
37.666435
 11
387.134338
 21
36.952152
  0
LINE
  8
Nr0001-Geometrie
 62
253
 10
387.134338
 20
36.952152
 11
387.848633
 21
36.595001
  0
LINE
  8
Nr0001-Geometrie
 62
253
 10
387.848633
 20
36.595001
 11
388.205750
 21
36.595001
  0
LINE
  8
Nr0001-Geometrie
 62
253
 10
388.205750
 20
36.595001
 11
388.562927
 21
36.952152
  0
LINE
  8
Nr0001-Geometrie
 62
253
 10
388.562927
 20
36.952152
 11
388.920044
 21
36.595001
  0
LINE
  8
Nr0001-Geometrie
 62
253
 10
389.991486
 20
35.166435
 11
390.705750
 21
35.166435
  0
LINE
  8
Nr0001-Geometrie
 62
253
 10
390.705750
 20
35.166435
 11
391.420044
 21
35.523586
  0
LINE
  8
Nr0001-Geometrie
 62
253
 10
391.420044
 20
35.523586
 11
391.777222
 21
36.237850
  0
LINE
  8
Nr0001-Geometrie
 62
253
 10
391.777222
 20
36.237850
 11
391.777222
 21
40.166435
  0
LINE
  8
Nr0001-Geometrie
 62
253
 10
391.777222
 20
40.166435
 11
391.062927
 21
40.166435
  0
LINE
  8
Nr0001-Geometrie
 62
253
 10
391.062927
 20
40.166435
 11
390.348633
 21
39.809284
  0
LINE
  8
Nr0001-Geometrie
 62
253
 10
390.348633
 20
39.809284
 11
389.991486
 21
39.095001
  0
LINE
  8
Nr0001-Geometrie
 62
253
 10
389.991486
 20
39.095001
 11
389.991486
 21
37.666435
  0
LINE
  8
Nr0001-Geometrie
 62
253
 10
389.991486
 20
37.666435
 11
390.348633
 21
36.952152
  0
LINE
  8
Nr0001-Geometrie
 62
253
 10
390.348633
 20
36.952152
 11
391.062927
 21
36.595001
  0
LINE
  8
Nr0001-Geometrie
 62
253
 10
391.062927
 20
36.595001
 11
391.777222
 21
36.595001
  0
LINE
  8
Nr0001-Geometrie
 62
253
 10
392.848663
 20
36.595001
 11
392.848663
 21
40.166435
  0
LINE
  8
Nr0001-Geometrie
 62
253
 10
392.848663
 20
40.166435
 11
393.562927
 21
40.166435
  0
LINE
  8
Nr0001-Geometrie
 62
253
 10
393.562927
 20
40.166435
 11
394.277222
 21
39.809284
  0
LINE
  8
Nr0001-Geometrie
 62
253
 10
394.277222
 20
39.809284
 11
394.634369
 21
39.095001
  0
LINE
  8
Nr0001-Geometrie
 62
253
 10
394.634369
 20
39.095001
 11
394.634369
 21
36.595001
  0
LINE
  8
Nr0001-Geometrie
 62
253
 10
395.705811
 20
38.380718
 11
397.491516
 21
38.380718
  0
LINE
  8
Nr0001-Geometrie
 62
253
 10
397.491516
 20
38.380718
 11
397.491516
 21
39.095001
  0
LINE
  8
Nr0001-Geometrie
 62
253
 10
397.491516
 20
39.095001
 11
397.134369
 21
39.809284
  0
LINE
  8
Nr0001-Geometrie
 62
253
 10
397.134369
 20
39.809284
 11
396.777222
 21
40.166435
  0
LINE
  8
Nr0001-Geometrie
 62
253
 10
396.777222
 20
40.166435
 11
396.420044
 21
40.166435
  0
LINE
  8
Nr0001-Geometrie
 62
253
 10
396.420044
 20
40.166435
 11
396.062927
 21
39.809284
  0
LINE
  8
Nr0001-Geometrie
 62
253
 10
396.062927
 20
39.809284
 11
395.705811
 21
39.095001
  0
LINE
  8
Nr0001-Geometrie
 62
253
 10
395.705811
 20
39.095001
 11
395.705811
 21
37.666435
  0
LINE
  8
Nr0001-Geometrie
 62
253
 10
395.705811
 20
37.666435
 11
396.062927
 21
36.952152
  0
LINE
  8
Nr0001-Geometrie
 62
253
 10
396.062927
 20
36.952152
 11
396.777222
 21
36.595001
  0
LINE
  8
Nr0001-Geometrie
 62
253
 10
396.777222
 20
36.595001
 11
397.491516
 21
36.595001
  0
LINE
  8
Nr0001-Geometrie
 62
253
 10
398.920044
 20
41.595001
 11
398.920044
 21
36.595001
  0
LINE
  8
Nr0001-Geometrie
 62
253
 10
398.562958
 20
40.166435
 11
399.991516
 21
40.166435
  0
LINE
  8
Nr0001-Geometrie
 62
253
 10
348.920013
 20
27.595005
 11
348.920013
 21
32.595005
  0
LINE
  8
Nr0001-Geometrie
 62
253
 10
348.920013
 20
32.595005
 11
350.348572
 21
30.452156
  0
LINE
  8
Nr0001-Geometrie
 62
253
 10
350.348572
 20
30.452156
 11
351.777161
 21
32.595005
  0
LINE
  8
Nr0001-Geometrie
 62
253
 10
351.777161
 20
32.595005
 11
351.777161
 21
27.595005
  0
LINE
  8
Nr0001-Geometrie
 62
253
 10
354.634277
 20
28.309288
 11
353.919983
 21
27.595005
  0
LINE
  8
Nr0001-Geometrie
 62
253
 10
353.919983
 20
27.595005
 11
353.562866
 21
27.595005
  0
LINE
  8
Nr0001-Geometrie
 62
253
 10
353.562866
 20
27.595005
 11
352.848572
 21
28.309288
  0
LINE
  8
Nr0001-Geometrie
 62
253
 10
352.848572
 20
28.309288
 11
352.848572
 21
30.452156
  0
LINE
  8
Nr0001-Geometrie
 62
253
 10
352.848572
 20
30.452156
 11
353.562866
 21
31.166439
  0
LINE
  8
Nr0001-Geometrie
 62
253
 10
353.562866
 20
31.166439
 11
353.919983
 21
31.166439
  0
LINE
  8
Nr0001-Geometrie
 62
253
 10
353.919983
 20
31.166439
 11
354.634277
 21
30.452156
  0
LINE
  8
Nr0001-Geometrie
 62
253
 10
354.634277
 20
30.452156
 11
354.634277
 21
28.309288
  0
LINE
  8
Nr0001-Geometrie
 62
253
 10
357.491455
 20
32.595005
 11
357.491455
 21
27.595005
  0
LINE
  8
Nr0001-Geometrie
 62
253
 10
357.491455
 20
27.595005
 11
356.777161
 21
27.595005
  0
LINE
  8
Nr0001-Geometrie
 62
253
 10
356.777161
 20
27.595005
 11
356.062866
 21
27.952156
  0
LINE
  8
Nr0001-Geometrie
 62
253
 10
356.062866
 20
27.952156
 11
355.705719
 21
28.666439
  0
LINE
  8
Nr0001-Geometrie
 62
253
 10
355.705719
 20
28.666439
 11
355.705719
 21
30.095005
  0
LINE
  8
Nr0001-Geometrie
 62
253
 10
355.705719
 20
30.095005
 11
356.062866
 21
30.809288
  0
LINE
  8
Nr0001-Geometrie
 62
253
 10
356.062866
 20
30.809288
 11
356.777161
 21
31.166439
  0
LINE
  8
Nr0001-Geometrie
 62
253
 10
356.777161
 20
31.166439
 11
357.491455
 21
31.166439
  0
LINE
  8
Nr0001-Geometrie
 62
253
 10
358.562897
 20
29.380722
 11
360.348572
 21
29.380722
  0
LINE
  8
Nr0001-Geometrie
 62
253
 10
360.348572
 20
29.380722
 11
360.348572
 21
30.095005
  0
LINE
  8
Nr0001-Geometrie
 62
253
 10
360.348572
 20
30.095005
 11
359.991455
 21
30.809288
  0
LINE
  8
Nr0001-Geometrie
 62
253
 10
359.991455
 20
30.809288
 11
359.634277
 21
31.166439
  0
LINE
  8
Nr0001-Geometrie
 62
253
 10
359.634277
 20
31.166439
 11
359.277161
 21
31.166439
  0
LINE
  8
Nr0001-Geometrie
 62
253
 10
359.277161
 20
31.166439
 11
358.919983
 21
30.809288
  0
LINE
  8
Nr0001-Geometrie
 62
253
 10
358.919983
 20
30.809288
 11
358.562897
 21
30.095005
  0
LINE
  8
Nr0001-Geometrie
 62
253
 10
358.562897
 20
30.095005
 11
358.562897
 21
28.666439
  0
LINE
  8
Nr0001-Geometrie
 62
253
 10
358.562897
 20
28.666439
 11
358.919983
 21
27.952156
  0
LINE
  8
Nr0001-Geometrie
 62
253
 10
358.919983
 20
27.952156
 11
359.634277
 21
27.595005
  0
LINE
  8
Nr0001-Geometrie
 62
253
 10
359.634277
 20
27.595005
 11
360.348572
 21
27.595005
  0
LINE
  8
Nr0001-Geometrie
 62
253
 10
361.420013
 20
32.595005
 11
361.420013
 21
28.666439
  0
LINE
  8
Nr0001-Geometrie
 62
253
 10
361.420013
 20
28.666439
 11
361.777161
 21
27.952156
  0
LINE
  8
Nr0001-Geometrie
 62
253
 10
361.777161
 20
27.952156
 11
362.491455
 21
27.595005
  0
LINE
  8
Nr0001-Geometrie
 62
253
 10
363.562897
 20
32.595005
 11
363.562897
 21
28.666439
  0
LINE
  8
Nr0001-Geometrie
 62
253
 10
363.562897
 20
28.666439
 11
363.919983
 21
27.952156
  0
LINE
  8
Nr0001-Geometrie
 62
253
 10
363.919983
 20
27.952156
 11
364.634277
 21
27.595005
  0
LINE
  8
Nr0001-Geometrie
 62
253
 10
367.491425
 20
31.880722
 11
367.491425
 21
31.166439
  0
LINE
  8
Nr0001-Geometrie
 62
253
 10
367.491425
 20
31.166439
 11
368.205719
 21
30.452156
  0
LINE
  8
Nr0001-Geometrie
 62
253
 10
368.205719
 20
30.452156
 11
368.562866
 21
30.452156
  0
LINE
  8
Nr0001-Geometrie
 62
253
 10
368.562866
 20
30.452156
 11
369.277161
 21
31.166439
  0
LINE
  8
Nr0001-Geometrie
 62
253
 10
369.277161
 20
31.166439
 11
369.277161
 21
31.880722
  0
LINE
  8
Nr0001-Geometrie
 62
253
 10
369.277161
 20
31.880722
 11
368.562866
 21
32.595005
  0
LINE
  8
Nr0001-Geometrie
 62
253
 10
368.562866
 20
32.595005
 11
368.205719
 21
32.595005
  0
LINE
  8
Nr0001-Geometrie
 62
253
 10
368.205719
 20
32.595005
 11
367.491425
 21
31.880722
  0
LINE
  8
Nr0001-Geometrie
 62
253
 10
368.205719
 20
30.452156
 11
367.491425
 21
30.095005
  0
LINE
  8
Nr0001-Geometrie
 62
253
 10
367.491425
 20
30.095005
 11
367.134277
 21
29.380722
  0
LINE
  8
Nr0001-Geometrie
 62
253
 10
367.134277
 20
29.380722
 11
367.134277
 21
28.666439
  0
LINE
  8
Nr0001-Geometrie
 62
253
 10
367.134277
 20
28.666439
 11
367.491425
 21
27.952156
  0
LINE
  8
Nr0001-Geometrie
 62
253
 10
367.491425
 20
27.952156
 11
368.205719
 21
27.595005
  0
LINE
  8
Nr0001-Geometrie
 62
253
 10
368.205719
 20
27.595005
 11
368.562866
 21
27.595005
  0
LINE
  8
Nr0001-Geometrie
 62
253
 10
368.562866
 20
27.595005
 11
369.277161
 21
27.952156
  0
LINE
  8
Nr0001-Geometrie
 62
253
 10
369.277161
 20
27.952156
 11
369.634277
 21
28.666439
  0
LINE
  8
Nr0001-Geometrie
 62
253
 10
369.634277
 20
28.666439
 11
369.634277
 21
29.380722
  0
LINE
  8
Nr0001-Geometrie
 62
253
 10
369.634277
 20
29.380722
 11
369.277161
 21
30.095005
  0
LINE
  8
Nr0001-Geometrie
 62
253
 10
369.277161
 20
30.095005
 11
368.562866
 21
30.452156
  0
LINE
  8
Nr0001-Geometrie
 62
253
 10
370.705719
 20
31.523571
 11
371.062866
 21
32.237854
  0
LINE
  8
Nr0001-Geometrie
 62
253
 10
371.062866
 20
32.237854
 11
371.777161
 21
32.595005
  0
LINE
  8
Nr0001-Geometrie
 62
253
 10
371.777161
 20
32.595005
 11
372.134277
 21
32.595005
  0
LINE
  8
Nr0001-Geometrie
 62
253
 10
372.134277
 20
32.595005
 11
372.848572
 21
32.237854
  0
LINE
  8
Nr0001-Geometrie
 62
253
 10
372.848572
 20
32.237854
 11
373.205719
 21
31.523571
  0
LINE
  8
Nr0001-Geometrie
 62
253
 10
373.205719
 20
31.523571
 11
372.848572
 21
30.809288
  0
LINE
  8
Nr0001-Geometrie
 62
253
 10
372.848572
 20
30.809288
 11
370.705719
 21
27.595005
  0
LINE
  8
Nr0001-Geometrie
 62
253
 10
370.705719
 20
27.595005
 11
373.205719
 21
27.595005
  0
LINE
  8
Nr0001-Geometrie
 62
253
 10
374.634277
 20
31.880722
 11
374.634277
 21
31.166439
  0
LINE
  8
Nr0001-Geometrie
 62
253
 10
374.634277
 20
31.166439
 11
375.348572
 21
30.452156
  0
LINE
  8
Nr0001-Geometrie
 62
253
 10
375.348572
 20
30.452156
 11
375.705719
 21
30.452156
  0
LINE
  8
Nr0001-Geometrie
 62
253
 10
375.705719
 20
30.452156
 11
376.420013
 21
31.166439
  0
LINE
  8
Nr0001-Geometrie
 62
253
 10
376.420013
 20
31.166439
 11
376.420013
 21
31.880722
  0
LINE
  8
Nr0001-Geometrie
 62
253
 10
376.420013
 20
31.880722
 11
375.705719
 21
32.595005
  0
LINE
  8
Nr0001-Geometrie
 62
253
 10
375.705719
 20
32.595005
 11
375.348572
 21
32.595005
  0
LINE
  8
Nr0001-Geometrie
 62
253
 10
375.348572
 20
32.595005
 11
374.634277
 21
31.880722
  0
LINE
  8
Nr0001-Geometrie
 62
253
 10
375.348572
 20
30.452156
 11
374.634277
 21
30.095005
  0
LINE
  8
Nr0001-Geometrie
 62
253
 10
374.634277
 20
30.095005
 11
374.277191
 21
29.380722
  0
LINE
  8
Nr0001-Geometrie
 62
253
 10
374.277191
 20
29.380722
 11
374.277191
 21
28.666439
  0
LINE
  8
Nr0001-Geometrie
 62
253
 10
374.277191
 20
28.666439
 11
374.634277
 21
27.952156
  0
LINE
  8
Nr0001-Geometrie
 62
253
 10
374.634277
 20
27.952156
 11
375.348572
 21
27.595005
  0
LINE
  8
Nr0001-Geometrie
 62
253
 10
375.348572
 20
27.595005
 11
375.705719
 21
27.595005
  0
LINE
  8
Nr0001-Geometrie
 62
253
 10
375.705719
 20
27.595005
 11
376.420013
 21
27.952156
  0
LINE
  8
Nr0001-Geometrie
 62
253
 10
376.420013
 20
27.952156
 11
376.777191
 21
28.666439
  0
LINE
  8
Nr0001-Geometrie
 62
253
 10
376.777191
 20
28.666439
 11
376.777191
 21
29.380722
  0
LINE
  8
Nr0001-Geometrie
 62
253
 10
376.777191
 20
29.380722
 11
376.420013
 21
30.095005
  0
LINE
  8
Nr0001-Geometrie
 62
253
 10
376.420013
 20
30.095005
 11
375.705719
 21
30.452156
  0
LINE
  8
Nr0001-Geometrie
 62
253
 10
377.848633
 20
29.737854
 11
379.991455
 21
29.737854
  0
LINE
  8
Nr0001-Geometrie
 62
253
 10
382.848633
 20
30.095005
 11
382.848633
 21
27.595005
  0
LINE
  8
Nr0001-Geometrie
 62
253
 10
382.491455
 20
32.595005
 11
381.062927
 21
28.666439
  0
LINE
  8
Nr0001-Geometrie
 62
253
 10
381.062927
 20
28.666439
 11
383.562927
 21
28.666439
  0
LINE
  8
Nr0001-Geometrie
 62
253
 10
386.420044
 20
30.095005
 11
386.420044
 21
27.595005
  0
LINE
  8
Nr0001-Geometrie
 62
253
 10
386.062927
 20
32.595005
 11
384.634369
 21
28.666439
  0
LINE
  8
Nr0001-Geometrie
 62
253
 10
384.634369
 20
28.666439
 11
387.134369
 21
28.666439
  0
LINE
  8
Nr0001-Geometrie
 62
50
 10
302.164856
 20
34.218273
 11
302.164856
 21
34.789715
  0
LINE
  8
Nr0001-Geometrie
 62
50
 10
302.164856
 20
34.789715
 11
302.022003
 21
35.218277
  0
LINE
  8
Nr0001-Geometrie
 62
50
 10
302.022003
 20
35.218277
 11
301.736267
 21
35.503998
  0
LINE
  8
Nr0001-Geometrie
 62
50
 10
301.736267
 20
35.503998
 11
301.593414
 21
35.503998
  0
LINE
  8
Nr0001-Geometrie
 62
50
 10
301.593414
 20
35.503998
 11
301.307709
 21
35.218277
  0
LINE
  8
Nr0001-Geometrie
 62
50
 10
301.307709
 20
35.218277
 11
301.164856
 21
34.789715
  0
LINE
  8
Nr0001-Geometrie
 62
50
 10
301.164856
 20
34.789715
 11
301.164856
 21
34.218273
  0
LINE
  8
Nr0001-Geometrie
 62
50
 10
301.164856
 20
34.218273
 11
301.307709
 21
33.789730
  0
LINE
  8
Nr0001-Geometrie
 62
50
 10
301.307709
 20
33.789730
 11
301.593414
 21
33.504009
  0
LINE
  8
Nr0001-Geometrie
 62
50
 10
301.593414
 20
33.504009
 11
301.736267
 21
33.504009
  0
LINE
  8
Nr0001-Geometrie
 62
50
 10
301.736267
 20
33.504009
 11
302.022003
 21
33.789730
  0
LINE
  8
Nr0001-Geometrie
 62
50
 10
302.022003
 20
33.789730
 11
302.164856
 21
34.218273
  0
LINE
  8
Nr0001-Geometrie
 62
50
 10
303.307709
 20
34.503994
 11
303.307709
 21
33.504009
  0
LINE
  8
Nr0001-Geometrie
 62
50
 10
303.164856
 20
35.503998
 11
302.593414
 21
33.932571
  0
LINE
  8
Nr0001-Geometrie
 62
50
 10
302.593414
 20
33.932571
 11
303.593414
 21
33.932571
  0
LINE
  8
Nr0001-Geometrie
 62
50
 10
304.164856
 20
33.504009
 11
304.164856
 21
33.646851
  0
LINE
  8
Nr0001-Geometrie
 62
50
 10
304.164856
 20
33.646851
 11
304.021973
 21
33.646851
  0
LINE
  8
Nr0001-Geometrie
 62
50
 10
304.021973
 20
33.646851
 11
304.021973
 21
33.504009
  0
LINE
  8
Nr0001-Geometrie
 62
50
 10
304.021973
 20
33.504009
 11
304.164856
 21
33.504009
  0
LINE
  8
Nr0001-Geometrie
 62
50
 10
305.593414
 20
34.218273
 11
305.593414
 21
34.789715
  0
LINE
  8
Nr0001-Geometrie
 62
50
 10
305.593414
 20
34.789715
 11
305.450562
 21
35.218277
  0
LINE
  8
Nr0001-Geometrie
 62
50
 10
305.450562
 20
35.218277
 11
305.164856
 21
35.503998
  0
LINE
  8
Nr0001-Geometrie
 62
50
 10
305.164856
 20
35.503998
 11
305.022003
 21
35.503998
  0
LINE
  8
Nr0001-Geometrie
 62
50
 10
305.022003
 20
35.503998
 11
304.736267
 21
35.218277
  0
LINE
  8
Nr0001-Geometrie
 62
50
 10
304.736267
 20
35.218277
 11
304.593445
 21
34.789715
  0
LINE
  8
Nr0001-Geometrie
 62
50
 10
304.593445
 20
34.789715
 11
304.593445
 21
34.218273
  0
LINE
  8
Nr0001-Geometrie
 62
50
 10
304.593445
 20
34.218273
 11
304.736267
 21
33.789730
  0
LINE
  8
Nr0001-Geometrie
 62
50
 10
304.736267
 20
33.789730
 11
305.022003
 21
33.504009
  0
LINE
  8
Nr0001-Geometrie
 62
50
 10
305.022003
 20
33.504009
 11
305.164856
 21
33.504009
  0
LINE
  8
Nr0001-Geometrie
 62
50
 10
305.164856
 20
33.504009
 11
305.450562
 21
33.789730
  0
LINE
  8
Nr0001-Geometrie
 62
50
 10
305.450562
 20
33.789730
 11
305.593414
 21
34.218273
  0
LINE
  8
Nr0001-Geometrie
 62
50
 10
306.022003
 20
35.503998
 11
306.307709
 21
35.503998
  0
LINE
  8
Nr0001-Geometrie
 62
50
 10
306.307709
 20
35.503998
 11
306.593414
 21
35.361156
  0
LINE
  8
Nr0001-Geometrie
 62
50
 10
306.593414
 20
35.361156
 11
306.736267
 21
35.075436
  0
LINE
  8
Nr0001-Geometrie
 62
50
 10
306.736267
 20
35.075436
 11
306.736267
 21
34.932575
  0
LINE
  8
Nr0001-Geometrie
 62
50
 10
306.736267
 20
34.932575
 11
306.593414
 21
34.646854
  0
LINE
  8
Nr0001-Geometrie
 62
50
 10
306.593414
 20
34.646854
 11
306.307709
 21
34.503994
  0
LINE
  8
Nr0001-Geometrie
 62
50
 10
306.307709
 20
34.503994
 11
306.164856
 21
34.503994
  0
LINE
  8
Nr0001-Geometrie
 62
50
 10
306.164856
 20
34.503994
 11
306.450562
 21
34.503994
  0
LINE
  8
Nr0001-Geometrie
 62
50
 10
306.450562
 20
34.503994
 11
306.736267
 21
34.361153
  0
LINE
  8
Nr0001-Geometrie
 62
50
 10
306.736267
 20
34.361153
 11
306.879150
 21
34.075432
  0
LINE
  8
Nr0001-Geometrie
 62
50
 10
306.879150
 20
34.075432
 11
306.879150
 21
33.932571
  0
LINE
  8
Nr0001-Geometrie
 62
50
 10
306.879150
 20
33.932571
 11
306.736267
 21
33.646851
  0
LINE
  8
Nr0001-Geometrie
 62
50
 10
306.736267
 20
33.646851
 11
306.450562
 21
33.504009
  0
LINE
  8
Nr0001-Geometrie
 62
50
 10
306.450562
 20
33.504009
 11
306.022003
 21
33.504009
  0
LINE
  8
Nr0001-Geometrie
 62
50
 10
307.450562
 20
33.504009
 11
307.450562
 21
33.646851
  0
LINE
  8
Nr0001-Geometrie
 62
50
 10
307.450562
 20
33.646851
 11
307.307709
 21
33.646851
  0
LINE
  8
Nr0001-Geometrie
 62
50
 10
307.307709
 20
33.646851
 11
307.307709
 21
33.504009
  0
LINE
  8
Nr0001-Geometrie
 62
50
 10
307.307709
 20
33.504009
 11
307.450562
 21
33.504009
  0
LINE
  8
Nr0001-Geometrie
 62
50
 10
308.164856
 20
33.504009
 11
308.450562
 21
33.646851
  0
LINE
  8
Nr0001-Geometrie
 62
50
 10
308.450562
 20
33.646851
 11
308.736298
 21
33.932571
  0
LINE
  8
Nr0001-Geometrie
 62
50
 10
308.736298
 20
33.932571
 11
308.879150
 21
34.218273
  0
LINE
  8
Nr0001-Geometrie
 62
50
 10
308.879150
 20
34.218273
 11
308.879150
 21
35.075436
  0
LINE
  8
Nr0001-Geometrie
 62
50
 10
308.879150
 20
35.075436
 11
308.736298
 21
35.361156
  0
LINE
  8
Nr0001-Geometrie
 62
50
 10
308.736298
 20
35.361156
 11
308.450562
 21
35.503998
  0
LINE
  8
Nr0001-Geometrie
 62
50
 10
308.450562
 20
35.503998
 11
308.307739
 21
35.503998
  0
LINE
  8
Nr0001-Geometrie
 62
50
 10
308.307739
 20
35.503998
 11
308.022003
 21
35.361156
  0
LINE
  8
Nr0001-Geometrie
 62
50
 10
308.022003
 20
35.361156
 11
307.879150
 21
35.075436
  0
LINE
  8
Nr0001-Geometrie
 62
50
 10
307.879150
 20
35.075436
 11
307.879150
 21
34.789715
  0
LINE
  8
Nr0001-Geometrie
 62
50
 10
307.879150
 20
34.789715
 11
308.022003
 21
34.503994
  0
LINE
  8
Nr0001-Geometrie
 62
50
 10
308.022003
 20
34.503994
 11
308.307739
 21
34.361153
  0
LINE
  8
Nr0001-Geometrie
 62
50
 10
308.307739
 20
34.361153
 11
308.879150
 21
34.361153
  0
LINE
  8
Nr0001-Geometrie
 62
50
 10
309.307709
 20
35.075436
 11
309.307709
 21
35.503998
  0
LINE
  8
Nr0001-Geometrie
 62
50
 10
309.307709
 20
35.503998
 11
310.307709
 21
35.503998
  0
LINE
  8
Nr0001-Geometrie
 62
50
 10
310.307709
 20
35.503998
 11
309.593445
 21
33.504009
  0
LINE
  8
Nr0001-Geometrie
 62
50
 10
320.526428
 20
32.932568
 11
320.812134
 21
32.932568
  0
LINE
  8
Nr0001-Geometrie
 62
50
 10
320.812134
 20
32.932568
 11
321.097870
 21
33.075428
  0
LINE
  8
Nr0001-Geometrie
 62
50
 10
321.097870
 20
33.075428
 11
321.240692
 21
33.361149
  0
LINE
  8
Nr0001-Geometrie
 62
50
 10
321.240692
 20
33.361149
 11
321.240692
 21
34.932575
  0
LINE
  8
Nr0001-Geometrie
 62
50
 10
321.240692
 20
34.932575
 11
320.955017
 21
34.932575
  0
LINE
  8
Nr0001-Geometrie
 62
50
 10
320.955017
 20
34.932575
 11
320.669281
 21
34.789715
  0
LINE
  8
Nr0001-Geometrie
 62
50
 10
320.669281
 20
34.789715
 11
320.526428
 21
34.503994
  0
LINE
  8
Nr0001-Geometrie
 62
50
 10
320.526428
 20
34.503994
 11
320.526428
 21
33.932571
  0
LINE
  8
Nr0001-Geometrie
 62
50
 10
320.526428
 20
33.932571
 11
320.669281
 21
33.646851
  0
LINE
  8
Nr0001-Geometrie
 62
50
 10
320.669281
 20
33.646851
 11
320.955017
 21
33.504009
  0
LINE
  8
Nr0001-Geometrie
 62
50
 10
320.955017
 20
33.504009
 11
321.240692
 21
33.504009
  0
LINE
  8
Nr0001-Geometrie
 62
50
 10
321.669281
 20
33.504009
 11
321.669281
 21
34.932575
  0
LINE
  8
Nr0001-Geometrie
 62
50
 10
321.669281
 20
34.932575
 11
321.954987
 21
34.932575
  0
LINE
  8
Nr0001-Geometrie
 62
50
 10
321.954987
 20
34.932575
 11
322.240723
 21
34.789715
  0
LINE
  8
Nr0001-Geometrie
 62
50
 10
322.240723
 20
34.789715
 11
322.383575
 21
34.503994
  0
LINE
  8
Nr0001-Geometrie
 62
50
 10
322.812134
 20
35.075436
 11
322.954987
 21
35.361156
  0
LINE
  8
Nr0001-Geometrie
 62
50
 10
322.954987
 20
35.361156
 11
323.240692
 21
35.503998
  0
LINE
  8
Nr0001-Geometrie
 62
50
 10
323.240692
 20
35.503998
 11
323.383545
 21
35.503998
  0
LINE
  8
Nr0001-Geometrie
 62
50
 10
323.383545
 20
35.503998
 11
323.669281
 21
35.361156
  0
LINE
  8
Nr0001-Geometrie
 62
50
 10
323.669281
 20
35.361156
 11
323.812134
 21
35.075436
  0
LINE
  8
Nr0001-Geometrie
 62
50
 10
323.812134
 20
35.075436
 11
323.669281
 21
34.789715
  0
LINE
  8
Nr0001-Geometrie
 62
50
 10
323.669281
 20
34.789715
 11
322.812134
 21
33.504009
  0
LINE
  8
Nr0001-Geometrie
 62
50
 10
322.812134
 20
33.504009
 11
323.812134
 21
33.504009
  0
LINE
  8
Nr0001-Geometrie
 62
50
 10
204.153000
 20
235.285019
 11
208.153000
 21
235.285019
  0
LINE
  8
Nr0001-Geometrie
 62
50
 10
208.940506
 20
235.285019
 11
209.115509
 21
235.285019
  0
LINE
  8
Nr0001-Geometrie
 62
50
 10
209.903015
 20
235.285019
 11
213.903015
 21
235.285019
  0
LINE
  8
Nr0001-Geometrie
 62
50
 10
214.690521
 20
235.285019
 11
214.865509
 21
235.285019
  0
LINE
  8
Nr0001-Geometrie
 62
50
 10
215.653015
 20
235.285019
 11
219.653030
 21
235.285019
  0
LINE
  8
Nr0001-Geometrie
 62
50
 10
211.903000
 20
227.535019
 11
211.903000
 21
231.535019
  0
LINE
  8
Nr0001-Geometrie
 62
50
 10
211.903000
 20
232.322510
 11
211.903000
 21
232.497528
  0
LINE
  8
Nr0001-Geometrie
 62
50
 10
211.903000
 20
233.285004
 11
211.903000
 21
237.285004
  0
LINE
  8
Nr0001-Geometrie
 62
50
 10
211.903000
 20
238.072510
 11
211.903000
 21
238.247513
  0
LINE
  8
Nr0001-Geometrie
 62
50
 10
211.903000
 20
239.035019
 11
211.903000
 21
243.035004
  0
LINE
  8
Nr0001-Geometrie
 62
50
 10
204.153000
 20
253.285004
 11
208.153000
 21
253.285004
  0
LINE
  8
Nr0001-Geometrie
 62
50
 10
208.940506
 20
253.285004
 11
209.115509
 21
253.285004
  0
LINE
  8
Nr0001-Geometrie
 62
50
 10
209.903015
 20
253.285004
 11
213.903015
 21
253.285004
  0
LINE
  8
Nr0001-Geometrie
 62
50
 10
214.690521
 20
253.285004
 11
214.865509
 21
253.285004
  0
LINE
  8
Nr0001-Geometrie
 62
50
 10
215.653015
 20
253.285004
 11
219.653030
 21
253.285004
  0
LINE
  8
Nr0001-Geometrie
 62
50
 10
211.903000
 20
245.535004
 11
211.903000
 21
249.535004
  0
LINE
  8
Nr0001-Geometrie
 62
50
 10
211.903000
 20
250.322510
 11
211.903000
 21
250.497513
  0
LINE
  8
Nr0001-Geometrie
 62
50
 10
211.903000
 20
251.285019
 11
211.903000
 21
255.285019
  0
LINE
  8
Nr0001-Geometrie
 62
50
 10
211.903000
 20
256.072510
 11
211.903000
 21
256.247528
  0
LINE
  8
Nr0001-Geometrie
 62
50
 10
211.903000
 20
257.035004
 11
211.903000
 21
261.035004
  0
LINE
  8
Nr0001-Geometrie
 62
50
 10
326.652985
 20
235.285019
 11
330.653015
 21
235.285019
  0
LINE
  8
Nr0001-Geometrie
 62
50
 10
331.440491
 20
235.285019
 11
331.615479
 21
235.285019
  0
LINE
  8
Nr0001-Geometrie
 62
50
 10
332.402985
 20
235.285019
 11
336.403015
 21
235.285019
  0
LINE
  8
Nr0001-Geometrie
 62
50
 10
337.190521
 20
235.285019
 11
337.365479
 21
235.285019
  0
LINE
  8
Nr0001-Geometrie
 62
50
 10
338.153015
 20
235.285019
 11
342.153015
 21
235.285019
  0
LINE
  8
Nr0001-Geometrie
 62
50
 10
334.403015
 20
227.535019
 11
334.403015
 21
231.535019
  0
LINE
  8
Nr0001-Geometrie
 62
50
 10
334.403015
 20
232.322510
 11
334.403015
 21
232.497528
  0
LINE
  8
Nr0001-Geometrie
 62
50
 10
334.403015
 20
233.285004
 11
334.403015
 21
237.285004
  0
LINE
  8
Nr0001-Geometrie
 62
50
 10
334.403015
 20
238.072510
 11
334.403015
 21
238.247513
  0
LINE
  8
Nr0001-Geometrie
 62
50
 10
334.403015
 20
239.035019
 11
334.403015
 21
243.035004
  0
LINE
  8
Nr0001-Geometrie
 62
50
 10
97.153000
 20
253.285004
 11
93.152992
 21
253.285004
  0
LINE
  8
Nr0001-Geometrie
 62
50
 10
92.365494
 20
253.285004
 11
92.190491
 21
253.285004
  0
LINE
  8
Nr0001-Geometrie
 62
50
 10
91.402985
 20
253.285004
 11
87.402992
 21
253.285004
  0
LINE
  8
Nr0001-Geometrie
 62
50
 10
86.615494
 20
253.285004
 11
86.440498
 21
253.285004
  0
LINE
  8
Nr0001-Geometrie
 62
50
 10
85.652992
 20
253.285004
 11
81.652992
 21
253.285004
  0
LINE
  8
Nr0001-Geometrie
 62
50
 10
89.402992
 20
261.035004
 11
89.402992
 21
257.035004
  0
LINE
  8
Nr0001-Geometrie
 62
50
 10
89.402992
 20
256.247528
 11
89.402992
 21
256.072510
  0
LINE
  8
Nr0001-Geometrie
 62
50
 10
89.402992
 20
255.285019
 11
89.402992
 21
251.285019
  0
LINE
  8
Nr0001-Geometrie
 62
50
 10
89.402992
 20
250.497513
 11
89.402992
 21
250.322510
  0
LINE
  8
Nr0001-Geometrie
 62
50
 10
89.402992
 20
249.535004
 11
89.402992
 21
245.535004
  0
LINE
  8
Nr0001-Geometrie
 62
50
 10
97.153000
 20
235.285019
 11
93.152992
 21
235.285019
  0
LINE
  8
Nr0001-Geometrie
 62
50
 10
92.365494
 20
235.285019
 11
92.190491
 21
235.285019
  0
LINE
  8
Nr0001-Geometrie
 62
50
 10
91.402985
 20
235.285019
 11
87.402992
 21
235.285019
  0
LINE
  8
Nr0001-Geometrie
 62
50
 10
86.615494
 20
235.285019
 11
86.440498
 21
235.285019
  0
LINE
  8
Nr0001-Geometrie
 62
50
 10
85.652992
 20
235.285019
 11
81.652992
 21
235.285019
  0
LINE
  8
Nr0001-Geometrie
 62
50
 10
89.402992
 20
227.535019
 11
89.402992
 21
231.535019
  0
LINE
  8
Nr0001-Geometrie
 62
50
 10
89.402992
 20
232.322510
 11
89.402992
 21
232.497528
  0
LINE
  8
Nr0001-Geometrie
 62
50
 10
89.402992
 20
233.285004
 11
89.402992
 21
237.285004
  0
LINE
  8
Nr0001-Geometrie
 62
50
 10
89.402992
 20
238.072510
 11
89.402992
 21
238.247513
  0
LINE
  8
Nr0001-Geometrie
 62
50
 10
89.402992
 20
239.035019
 11
89.402992
 21
243.035004
  0
LINE
  8
Nr0001-Geometrie
 62
50
 10
326.652985
 20
253.285004
 11
330.653015
 21
253.285004
  0
LINE
  8
Nr0001-Geometrie
 62
50
 10
331.440491
 20
253.285004
 11
331.615479
 21
253.285004
  0
LINE
  8
Nr0001-Geometrie
 62
50
 10
332.402985
 20
253.285004
 11
336.403015
 21
253.285004
  0
LINE
  8
Nr0001-Geometrie
 62
50
 10
337.190521
 20
253.285004
 11
337.365479
 21
253.285004
  0
LINE
  8
Nr0001-Geometrie
 62
50
 10
338.153015
 20
253.285004
 11
342.153015
 21
253.285004
  0
LINE
  8
Nr0001-Geometrie
 62
50
 10
334.403015
 20
261.035004
 11
334.403015
 21
257.035004
  0
LINE
  8
Nr0001-Geometrie
 62
50
 10
334.403015
 20
256.247528
 11
334.403015
 21
256.072510
  0
LINE
  8
Nr0001-Geometrie
 62
50
 10
334.403015
 20
255.285019
 11
334.403015
 21
251.285019
  0
LINE
  8
Nr0001-Geometrie
 62
50
 10
334.403015
 20
250.497513
 11
334.403015
 21
250.322510
  0
LINE
  8
Nr0001-Geometrie
 62
50
 10
334.403015
 20
249.535004
 11
334.403015
 21
245.535004
  0
LINE
  8
Nr0001-Geometrie
 62
50
 10
304.502991
 20
247.285004
 11
309.902985
 21
247.285004
  0
LINE
  8
Nr0001-Geometrie
 62
50
 10
310.848022
 20
247.285004
 11
311.058014
 21
247.285004
  0
LINE
  8
Nr0001-Geometrie
 62
50
 10
312.003021
 20
247.285004
 11
317.403015
 21
247.285004
  0
LINE
  8
Nr0001-Geometrie
 62
50
 10
318.348022
 20
247.285004
 11
318.558014
 21
247.285004
  0
LINE
  8
Nr0001-Geometrie
 62
50
 10
319.503021
 20
247.285004
 11
324.903015
 21
247.285004
  0
LINE
  8
Nr0001-Geometrie
 62
50
 10
314.703003
 20
237.085022
 11
314.703003
 21
242.485016
  0
LINE
  8
Nr0001-Geometrie
 62
50
 10
314.703003
 20
243.430008
 11
314.703003
 21
243.639999
  0
LINE
  8
Nr0001-Geometrie
 62
50
 10
314.703003
 20
244.585022
 11
314.703003
 21
249.985016
  0
LINE
  8
Nr0001-Geometrie
 62
50
 10
314.703003
 20
250.930008
 11
314.703003
 21
251.139999
  0
LINE
  8
Nr0001-Geometrie
 62
50
 10
314.703003
 20
252.084991
 11
314.703003
 21
257.485016
  0
LINE
  8
Nr0001-Geometrie
 62
50
 10
71.202995
 20
244.285004
 11
74.602997
 21
244.285004
  0
LINE
  8
Nr0001-Geometrie
 62
50
 10
75.322998
 20
244.285004
 11
75.482994
 21
244.285004
  0
LINE
  8
Nr0001-Geometrie
 62
50
 10
76.202995
 20
244.285004
 11
79.602997
 21
244.285004
  0
LINE
  8
Nr0001-Geometrie
 62
50
 10
80.322990
 20
244.285004
 11
80.483002
 21
244.285004
  0
LINE
  8
Nr0001-Geometrie
 62
50
 10
81.202995
 20
244.285004
 11
84.602997
 21
244.285004
  0
LINE
  8
Nr0001-Geometrie
 62
50
 10
339.203003
 20
244.285004
 11
342.602997
 21
244.285004
  0
LINE
  8
Nr0001-Geometrie
 62
50
 10
343.322998
 20
244.285004
 11
343.482971
 21
244.285004
  0
LINE
  8
Nr0001-Geometrie
 62
50
 10
344.203003
 20
244.285004
 11
347.602997
 21
244.285004
  0
LINE
  8
Nr0001-Geometrie
 62
50
 10
348.322998
 20
244.285004
 11
348.482971
 21
244.285004
  0
LINE
  8
Nr0001-Geometrie
 62
50
 10
349.203003
 20
244.285004
 11
352.602997
 21
244.285004
  0
LINE
  8
Nr0001-Geometrie
 62
50
 10
72.186996
 20
255.285019
 11
75.618988
 21
255.285019
  0
LINE
  8
Nr0001-Geometrie
 62
50
 10
77.678192
 20
255.285019
 11
78.135796
 21
255.285019
  0
LINE
  8
Nr0001-Geometrie
 62
50
 10
80.194992
 20
255.285019
 11
83.626999
 21
255.285019
  0
LINE
  8
Nr0001-Geometrie
 62
50
 10
72.186996
 20
233.285004
 11
75.618988
 21
233.285004
  0
LINE
  8
Nr0001-Geometrie
 62
50
 10
77.678192
 20
233.285004
 11
78.135796
 21
233.285004
  0
LINE
  8
Nr0001-Geometrie
 62
50
 10
80.194992
 20
233.285004
 11
83.626999
 21
233.285004
  0
LINE
  8
Nr0001-Geometrie
 62
50
 10
77.902992
 20
226.585007
 11
77.902992
 21
231.985016
  0
LINE
  8
Nr0001-Geometrie
 62
50
 10
77.902992
 20
232.930008
 11
77.902992
 21
233.140015
  0
LINE
  8
Nr0001-Geometrie
 62
50
 10
77.902992
 20
234.085007
 11
77.902992
 21
239.485016
  0
LINE
  8
Nr0001-Geometrie
 62
50
 10
77.902992
 20
240.430008
 11
77.902992
 21
240.640015
  0
LINE
  8
Nr0001-Geometrie
 62
50
 10
77.902992
 20
241.585007
 11
77.902992
 21
246.985016
  0
LINE
  8
Nr0001-Geometrie
 62
50
 10
77.902992
 20
247.930008
 11
77.902992
 21
248.140015
  0
LINE
  8
Nr0001-Geometrie
 62
50
 10
77.902992
 20
249.085007
 11
77.902992
 21
254.485016
  0
LINE
  8
Nr0001-Geometrie
 62
50
 10
77.902992
 20
255.430008
 11
77.902992
 21
255.640015
  0
LINE
  8
Nr0001-Geometrie
 62
50
 10
77.902992
 20
256.585022
 11
77.902992
 21
261.985016
  0
LINE
  8
Nr0001-Geometrie
 62
50
 10
340.187012
 20
255.285019
 11
343.619019
 21
255.285019
  0
LINE
  8
Nr0001-Geometrie
 62
50
 10
345.678223
 20
255.285019
 11
346.135834
 21
255.285019
  0
LINE
  8
Nr0001-Geometrie
 62
50
 10
348.195038
 20
255.285019
 11
351.627045
 21
255.285019
  0
LINE
  8
Nr0001-Geometrie
 62
50
 10
340.187012
 20
233.285004
 11
343.619019
 21
233.285004
  0
LINE
  8
Nr0001-Geometrie
 62
50
 10
345.678223
 20
233.285004
 11
346.135834
 21
233.285004
  0
LINE
  8
Nr0001-Geometrie
 62
50
 10
348.195038
 20
233.285004
 11
351.627045
 21
233.285004
  0
LINE
  8
Nr0001-Geometrie
 62
50
 10
345.903015
 20
226.585007
 11
345.903015
 21
231.985016
  0
LINE
  8
Nr0001-Geometrie
 62
50
 10
345.903015
 20
232.930008
 11
345.903015
 21
233.140015
  0
LINE
  8
Nr0001-Geometrie
 62
50
 10
345.903015
 20
234.085007
 11
345.903015
 21
239.485016
  0
LINE
  8
Nr0001-Geometrie
 62
50
 10
345.903015
 20
240.430008
 11
345.903015
 21
240.640015
  0
LINE
  8
Nr0001-Geometrie
 62
50
 10
345.903015
 20
241.585007
 11
345.903015
 21
246.985016
  0
LINE
  8
Nr0001-Geometrie
 62
50
 10
345.903015
 20
247.930008
 11
345.903015
 21
248.140015
  0
LINE
  8
Nr0001-Geometrie
 62
50
 10
345.903015
 20
249.085007
 11
345.903015
 21
254.485016
  0
LINE
  8
Nr0001-Geometrie
 62
50
 10
345.903015
 20
255.430008
 11
345.903015
 21
255.640015
  0
LINE
  8
Nr0001-Geometrie
 62
50
 10
345.903015
 20
256.585022
 11
345.903015
 21
261.985016
  0
LINE
  8
Nr0001-Geometrie
 62
50
 10
345.903015
 20
98.334778
 11
345.903015
 21
100.235229
  0
LINE
  8
Nr0001-Geometrie
 62
50
 10
345.903015
 20
101.375511
 11
345.903015
 21
101.628906
  0
LINE
  8
Nr0001-Geometrie
 62
50
 10
345.903015
 20
102.769173
 11
345.903015
 21
104.669640
  0
LINE
  8
Nr0001-Geometrie
 62
50
 10
77.902992
 20
98.334778
 11
77.902992
 21
100.235229
  0
LINE
  8
Nr0001-Geometrie
 62
50
 10
77.902992
 20
101.375511
 11
77.902992
 21
101.628906
  0
LINE
  8
Nr0001-Geometrie
 62
50
 10
77.902992
 20
102.769173
 11
77.902992
 21
104.669640
  0
LINE
  8
Nr0001-Geometrie
 62
50
 10
314.703003
 20
154.985016
 11
314.703003
 21
158.585007
  0
LINE
  8
Nr0001-Geometrie
 62
50
 10
314.703003
 20
159.327515
 11
314.703003
 21
159.492508
  0
LINE
  8
Nr0001-Geometrie
 62
50
 10
314.703003
 20
160.235001
 11
314.703003
 21
163.835007
  0
LINE
  8
Nr0001-Geometrie
 62
50
 10
314.703003
 20
164.577499
 11
314.703003
 21
164.742508
  0
LINE
  8
Nr0001-Geometrie
 62
50
 10
314.703003
 20
165.485001
 11
314.703003
 21
169.085007
  0
LINE
  8
Nr0001-Geometrie
 62
50
 10
211.903000
 20
158.215500
 11
211.903000
 21
161.554504
  0
LINE
  8
Nr0001-Geometrie
 62
50
 10
211.903000
 20
162.267639
 11
211.903000
 21
162.426132
  0
LINE
  8
Nr0001-Geometrie
 62
50
 10
211.903000
 20
163.139267
 11
211.903000
 21
166.478271
  0
LINE
  8
Nr0001-Geometrie
 62
50
 10
211.903000
 20
167.191406
 11
211.903000
 21
167.349884
  0
LINE
  8
Nr0001-Geometrie
 62
50
 10
211.903000
 20
168.063034
 11
211.903000
 21
171.402039
  0
LINE
  8
Nr0001-Geometrie
 62
50
 10
334.403015
 20
158.215500
 11
334.403015
 21
161.554504
  0
LINE
  8
Nr0001-Geometrie
 62
50
 10
334.403015
 20
162.267639
 11
334.403015
 21
162.426132
  0
LINE
  8
Nr0001-Geometrie
 62
50
 10
334.403015
 20
163.139267
 11
334.403015
 21
166.478271
  0
LINE
  8
Nr0001-Geometrie
 62
50
 10
334.403015
 20
167.191406
 11
334.403015
 21
167.349884
  0
LINE
  8
Nr0001-Geometrie
 62
50
 10
334.403015
 20
168.063034
 11
334.403015
 21
171.402039
  0
LINE
  8
Nr0001-Geometrie
 62
50
 10
89.402992
 20
158.215500
 11
89.402992
 21
161.554504
  0
LINE
  8
Nr0001-Geometrie
 62
50
 10
89.402992
 20
162.267639
 11
89.402992
 21
162.426132
  0
LINE
  8
Nr0001-Geometrie
 62
50
 10
89.402992
 20
163.139267
 11
89.402992
 21
166.478271
  0
LINE
  8
Nr0001-Geometrie
 62
50
 10
89.402992
 20
167.191406
 11
89.402992
 21
167.349884
  0
LINE
  8
Nr0001-Geometrie
 62
50
 10
89.402992
 20
168.063034
 11
89.402992
 21
171.402039
  0
LINE
  8
Nr0001-Geometrie
 62
50
 10
345.903015
 20
152.669037
 11
345.903015
 21
157.041031
  0
LINE
  8
Nr0001-Geometrie
 62
50
 10
345.903015
 20
157.870361
 11
345.903015
 21
158.054672
  0
LINE
  8
Nr0001-Geometrie
 62
50
 10
345.903015
 20
158.884033
 11
345.903015
 21
163.256012
  0
LINE
  8
Nr0001-Geometrie
 62
50
 10
345.903015
 20
164.085373
 11
345.903015
 21
164.269653
  0
LINE
  8
Nr0001-Geometrie
 62
50
 10
345.903015
 20
165.099014
 11
345.903015
 21
169.470993
  0
LINE
  8
Nr0001-Geometrie
 62
50
 10
77.902992
 20
152.669037
 11
77.902992
 21
157.041031
  0
LINE
  8
Nr0001-Geometrie
 62
50
 10
77.902992
 20
157.870361
 11
77.902992
 21
158.054672
  0
LINE
  8
Nr0001-Geometrie
 62
50
 10
77.902992
 20
158.884033
 11
77.902992
 21
163.256012
  0
LINE
  8
Nr0001-Geometrie
 62
50
 10
77.902992
 20
164.085373
 11
77.902992
 21
164.269653
  0
LINE
  8
Nr0001-Geometrie
 62
50
 10
77.902992
 20
165.099014
 11
77.902992
 21
169.470993
  0
LINE
  8
Nr0001-Geometrie
 62
50
 10
284.687012
 20
129.285004
 11
288.119019
 21
129.285004
  0
LINE
  8
Nr0001-Geometrie
 62
50
 10
290.178223
 20
129.285004
 11
290.635803
 21
129.285004
  0
LINE
  8
Nr0001-Geometrie
 62
50
 10
292.695007
 20
129.285004
 11
296.127014
 21
129.285004
  0
LINE
  8
Nr0001-Geometrie
 62
50
 10
290.403015
 20
123.569000
 11
290.403015
 21
127.001007
  0
LINE
  8
Nr0001-Geometrie
 62
50
 10
290.403015
 20
129.060196
 11
290.403015
 21
129.517807
  0
LINE
  8
Nr0001-Geometrie
 62
50
 10
290.403015
 20
131.577011
 11
290.403015
 21
135.009003
  0
ENDSEC
  0
EOF
