  0
SECTION
  2
HEADER
  9
$ACADVER
  1
AC1012
  9
$DWGCODEPAGE
  3
ansi_1252
  9
$INSBASE
 10
0.0
 20
0.0
 30
0.0
  9
$EXTMIN
 10
0.0
 20
0.0
 30
0.0
  9
$EXTMAX
 10
210.0
 20
297.0
 30
0.0
  9
$LIMMIN
 10
0.0
 20
0.0
  9
$LIMMAX
 10
210.0
 20
297.0
  9
$ORTHOMODE
 70
     0
  9
$REGENMODE
 70
     1
  9
$FILLMODE
 70
     1
  9
$QTEXTMODE
 70
     0
  9
$MIRRTEXT
 70
     1
  9
$DRAGMODE
 70
     2
  9
$LTSCALE
 40
1.0
  9
$OSMODE
 70
    37
  9
$ATTMODE
 70
     1
  9
$TEXTSIZE
 40
0.2
  9
$TRACEWID
 40
0.05
  9
$TEXTSTYLE
  7
STANDARD
  9
$CLAYER
  8
0
  9
$CELTYPE
  6
BYLAYER
  9
$CECOLOR
 62
   256
  9
$CELTSCALE
 40
25.4
  9
$DELOBJ
 70
     1
  9
$DISPSILH
 70
     0
  9
$DIMSCALE
 40
1.0
  9
$DIMASZ
 40
0.18
  9
$DIMEXO
 40
0.0625
  9
$DIMDLI
 40
0.38
  9
$DIMRND
 40
0.0
  9
$DIMDLE
 40
0.0
  9
$DIMEXE
 40
0.18
  9
$DIMTP
 40
0.0
  9
$DIMTM
 40
0.0
  9
$DIMTXT
 40
0.18
  9
$DIMCEN
 40
0.09
  9
$DIMTSZ
 40
0.0
  9
$DIMTOL
 70
     0
  9
$DIMLIM
 70
     0
  9
$DIMTIH
 70
     1
  9
$DIMTOH
 70
     1
  9
$DIMSE1
 70
     0
  9
$DIMSE2
 70
     0
  9
$DIMTAD
 70
     0
  9
$DIMZIN
 70
     0
  9
$DIMBLK
  1

  9
$DIMASO
 70
     1
  9
$DIMSHO
 70
     1
  9
$DIMPOST
  1

  9
$DIMAPOST
  1

  9
$DIMALT
 70
     0
  9
$DIMALTD
 70
     2
  9
$DIMALTF
 40
25.4
  9
$DIMLFAC
 40
1.0
  9
$DIMTOFL
 70
     0
  9
$DIMTVP
 40
0.0
  9
$DIMTIX
 70
     0
  9
$DIMSOXD
 70
     0
  9
$DIMSAH
 70
     0
  9
$DIMBLK1
  1

  9
$DIMBLK2
  1

  9
$DIMSTYLE
  2
STANDARD
  9
$DIMCLRD
 70
     0
  9
$DIMCLRE
 70
     0
  9
$DIMCLRT
 70
     0
  9
$DIMTFAC
 40
1.0
  9
$DIMGAP
 40
0.09
  9
$DIMJUST
 70
     0
  9
$DIMSD1
 70
     0
  9
$DIMSD2
 70
     0
  9
$DIMTOLJ
 70
     1
  9
$DIMTZIN
 70
     0
  9
$DIMALTZ
 70
     0
  9
$DIMALTTZ
 70
     0
  9
$DIMFIT
 70
     3
  9
$DIMUPT
 70
     0
  9
$DIMUNIT
 70
     2
  9
$DIMDEC
 70
     4
  9
$DIMTDEC
 70
     4
  9
$DIMALTU
 70
     2
  9
$DIMALTTD
 70
     2
  9
$DIMTXSTY
  7
STANDARD
  9
$DIMAUNIT
 70
     0
  9
$LUNITS
 70
     2
  9
$LUPREC
 70
     4
  9
$SKETCHINC
 40
0.1
  9
$FILLETRAD
 40
0.5
  9
$AUNITS
 70
     0
  9
$AUPREC
 70
     0
  9
$MENU
  1
.
  9
$ELEVATION
 40
0.0
  9
$PELEVATION
 40
0.0
  9
$THICKNESS
 40
0.0
  9
$LIMCHECK
 70
     0
  9
$CHAMFERA
 40
0.5
  9
$CHAMFERB
 40
0.5
  9
$CHAMFERC
 40
1.0
  9
$CHAMFERD
 40
0.0
  9
$SKPOLY
 70
     0
  9
$TDCREATE
 40
2453762.536637847
  9
$TDUPDATE
 40
2453762.536637859
  9
$TDINDWG
 40
0.0000000116
  9
$TDUSRTIMER
 40
0.0000000116
  9
$USRTIMER
 70
     1
  9
$ANGBASE
 50
0.0
  9
$ANGDIR
 70
     0
  9
$PDMODE
 70
     0
  9
$PDSIZE
 40
0.0
  9
$PLINEWID
 40
0.0
  9
$COORDS
 70
     1
  9
$SPLFRAME
 70
     0
  9
$SPLINETYPE
 70
     6
  9
$SPLINESEGS
 70
     8
  9
$ATTDIA
 70
     0
  9
$ATTREQ
 70
     1
  9
$HANDLING
 70
     1
  9
$HANDSEED
  5
D2
  9
$SURFTAB1
 70
     6
  9
$SURFTAB2
 70
     6
  9
$SURFTYPE
 70
     6
  9
$SURFU
 70
     6
  9
$SURFV
 70
     6
  9
$UCSNAME
  2

  9
$UCSORG
 10
0.0
 20
0.0
 30
0.0
  9
$UCSXDIR
 10
1.0
 20
0.0
 30
0.0
  9
$UCSYDIR
 10
0.0
 20
1.0
 30
0.0
  9
$PUCSNAME
  2

  9
$PUCSORG
 10
0.0
 20
0.0
 30
0.0
  9
$PUCSXDIR
 10
1.0
 20
0.0
 30
0.0
  9
$PUCSYDIR
 10
0.0
 20
1.0
 30
0.0
  9
$USERI1
 70
     0
  9
$USERI2
 70
     0
  9
$USERI3
 70
     0
  9
$USERI4
 70
     0
  9
$USERI5
 70
     0
  9
$USERR1
 40
0.0
  9
$USERR2
 40
0.0
  9
$USERR3
 40
0.0
  9
$USERR4
 40
0.0
  9
$USERR5
 40
0.0
  9
$WORLDVIEW
 70
     1
  9
$SHADEDGE
 70
     3
  9
$SHADEDIF
 70
    70
  9
$TILEMODE
 70
     1
  9
$MAXACTVP
 70
    64
  9
$PINSBASE
 10
0.0
 20
0.0
 30
0.0
  9
$PLIMCHECK
 70
     0
  9
$PEXTMIN
 10
0.0
 20
0.0
 30
0.0
  9
$PEXTMAX
 10
210.0
 20
297.0
 30
0.0
  9
$PLIMMIN
 10
0.0
 20
0.0
  9
$PLIMMAX
 10
12.0
 20
9.0
  9
$UNITMODE
 70
     0
  9
$VISRETAIN
 70
     1
  9
$PLINEGEN
 70
     0
  9
$PSLTSCALE
 70
     1
  9
$TREEDEPTH
 70
  3020
  9
$PICKSTYLE
 70
     1
  9
$CMLSTYLE
  2
STANDARD
  9
$CMLJUST
 70
     0
  9
$CMLSCALE
 40
1.0
  9
$SAVEIMAGES
 70
     1
  0
ENDSEC
  0
SECTION
  2
CLASSES
  0
CLASS
  1
ACDBDICTIONARYWDFLT
  2
AcDbDictionaryWithDefault
  3
ObjectDBX Classes
 90
        0
280
     0
281
     0
  0
CLASS
  1
TABLESTYLE
  2
AcDbTableStyle
  3
ObjectDBX Classes
 90
     2047
280
     0
281
     0
  0
CLASS
  1
DICTIONARYVAR
  2
AcDbDictionaryVar
  3
ObjectDBX Classes
 90
        0
280
     0
281
     0
  0
CLASS
  1
XRECORD
  2
AcDbXrecord
  3
AutoCAD 2000
 90
    32768
280
     0
281
     0
  0
CLASS
  1
LWPOLYLINE
  2
AcDbPolyline
  3
AutoCAD 2000
 90
    32768
280
     0
281
     1
  0
CLASS
  1
HATCH
  2
AcDbHatch
  3
AutoCAD 2000
 90
    32768
280
     0
281
     1
  0
CLASS
  1
ACDBPLACEHOLDER
  2
AcDbPlaceHolder
  3
ObjectDBX Classes
 90
        0
280
     0
281
     0
  0
CLASS
  1
LAYOUT
  2
AcDbLayout
  3
ObjectDBX Classes
 90
        0
280
     0
281
     0
  0
ENDSEC
  0
SECTION
  2
TABLES
  0
TABLE
  2
VPORT
  5
8
330
0
100
AcDbSymbolTable
 70
     2
  0
VPORT
  5
29
102
{ACAD_XDICTIONARY
360
D0
102
}
330
8
100
AcDbSymbolTableRecord
100
AcDbViewportTableRecord
  2
*ACTIVE
 70
     0
 10
0.0
 20
0.0
 11
1.0
 21
1.0
 12
10.4299065421
 22
4.5
 13
0.0
 23
0.0
 14
0.5
 24
0.5
 15
0.5
 25
0.5
 16
0.0
 26
0.0
 36
1.0
 17
0.0
 27
0.0
 37
0.0
 40
9.0
 41
1.9729729729
 42
50.0
 43
0.0
 44
0.0
 50
0.0
 51
0.0
 71
     0
 72
   100
 73
     1
 74
     3
 75
     0
 76
     0
 77
     0
 78
     0
  0
ENDTAB
  0
TABLE
  2
LTYPE
  5
5
330
0
100
AcDbSymbolTable
 70
     3
  0
LTYPE
  5
14
330
5
100
AcDbSymbolTableRecord
100
AcDbLinetypeTableRecord
  2
BYBLOCK
 70
     0
  3

 72
    65
 73
     0
 40
0.0
  0
LTYPE
  5
15
330
5
100
AcDbSymbolTableRecord
100
AcDbLinetypeTableRecord
  2
BYLAYER
 70
     0
  3

 72
    65
 73
     0
 40
0.0
  0
LTYPE
  5
16
330
5
100
AcDbSymbolTableRecord
100
AcDbLinetypeTableRecord
  2
CONTINUOUS
 70
     0
  3
Solid line
 72
    65
 73
     0
 40
0.0
  0
LTYPE
  5
31
330
5
100
AcDbSymbolTableRecord
100
AcDbLinetypeTableRecord
  2
CENTER2
 70
     0
  3
___ _ ___ _ ___ _ ___ _ ___ _ ___ _ ___ _ ___ _
 72
    65
 73
     4
 40
1.125
 49
0.75
 74
     4
 75
     0
340
0
 46
0.0
 50
0.0
 44
0.0
 45
0.0
 49
-0.125
 74
     4
 75
     0
340
0
 46
0.0
 50
0.0
 44
0.0
 45
0.0
 49
0.125
 74
     4
 75
     0
340
0
 46
0.0
 50
0.0
 44
0.0
 45
0.0
 49
-0.125
 74
     4
 75
     0
340
0
 46
0.0
 50
0.0
 44
0.0
 45
0.0
  0
LTYPE
  5
55
330
5
100
AcDbSymbolTableRecord
100
AcDbLinetypeTableRecord
  2
HIDDEN2
 70
     0
  3
_ _ _ _ _ _ _ _ _ _ _ _ _ _ _ _ _ _ _ _ _ _ _ _
 72
    65
 73
     2
 40
0.1875
 49
0.125
 74
     4
 75
     0
340
0
 46
0.0
 50
0.0
 44
0.0
 45
0.0
 49
-0.0625
 74
     4
 75
     0
340
0
 46
0.0
 50
0.0
 44
0.0
 45
0.0
  0
ENDTAB
  0
TABLE
  2
LAYER
  5
2
330
0
100
AcDbSymbolTable
 70
     7
  0
LAYER
  5
10
330
2
100
AcDbSymbolTableRecord
100
AcDbLayerTableRecord
  2
0
 70
     0
 62
     7
  6
CONTINUOUS
  0
LAYER
  5
30
330
2
100
AcDbSymbolTableRecord
100
AcDbLayerTableRecord
  2
DEFAULT
 70
     0
 62
     7
  6
CONTINUOUS
  0
LAYER
  5
38
330
2
100
AcDbSymbolTableRecord
100
AcDbLayerTableRecord
  2
MEGA_002244
 70
     0
 62
     7
  6
CONTINUOUS
  0
LAYER
  5
53
330
2
100
AcDbSymbolTableRecord
100
AcDbLayerTableRecord
  2
MEGA_002241
 70
     0
 62
     7
  6
CONTINUOUS
  0
LAYER
  5
62
330
2
100
AcDbSymbolTableRecord
100
AcDbLayerTableRecord
  2
MEGA_002251
 70
     0
 62
     7
  6
CONTINUOUS
  0
LAYER
  5
6D
330
2
100
AcDbSymbolTableRecord
100
AcDbLayerTableRecord
  2
STANDARD
 70
     0
 62
     7
  6
CONTINUOUS
  0
LAYER
  5
79
330
2
100
AcDbSymbolTableRecord
100
AcDbLayerTableRecord
  2
MEGA_002250
 70
     0
 62
     7
  6
CONTINUOUS
  0
ENDTAB
  0
TABLE
  2
STYLE
  5
3
330
0
100
AcDbSymbolTable
 70
     2
  0
STYLE
  5
11
330
3
100
AcDbSymbolTableRecord
100
AcDbTextStyleTableRecord
  2
STANDARD
 70
     0
 40
0.0
 41
1.0
 50
0.0
 71
     0
 42
0.2
  3
txt
  4

  0
STYLE
  5
9F
330
3
100
AcDbSymbolTableRecord
100
AcDbTextStyleTableRecord
  2
SEACAD_SEISO_TTF
 70
     0
 40
0.2
 41
1.0
 50
0.0
 71
     0
 42
0.2
  3
seiso.ttf
  4

  0
ENDTAB
  0
TABLE
  2
VIEW
  5
6
330
0
100
AcDbSymbolTable
 70
     0
  0
ENDTAB
  0
TABLE
  2
UCS
  5
7
330
0
100
AcDbSymbolTable
 70
     0
  0
ENDTAB
  0
TABLE
  2
APPID
  5
9
330
0
100
AcDbSymbolTable
 70
     1
  0
APPID
  5
12
330
9
100
AcDbSymbolTableRecord
100
AcDbRegAppTableRecord
  2
ACAD
 70
     0
  0
ENDTAB
  0
TABLE
  2
DIMSTYLE
  5
A
330
0
100
AcDbSymbolTable
 70
     1
  0
DIMSTYLE
105
27
330
A
100
AcDbSymbolTableRecord
100
AcDbDimStyleTableRecord
  2
STANDARD
 70
     0
  3

  4

  5

  6

  7

 40
1.0
 41
0.18
 42
0.0625
 43
0.38
 44
0.18
 45
0.0
 46
0.0
 47
0.0
 48
0.0
140
0.18
141
0.09
142
0.0
143
25.4
144
1.0
145
0.0
146
1.0
147
0.09
 71
     0
 72
     0
 73
     1
 74
     1
 75
     0
 76
     0
 77
     0
 78
     0
170
     0
171
     2
172
     0
173
     0
174
     0
175
     0
176
     0
177
     0
178
     0
270
     2
271
     4
272
     4
273
     2
274
     2
340
11
275
     0
280
     0
281
     0
282
     0
283
     1
284
     0
285
     0
286
     0
287
     3
288
     0
  0
ENDTAB
  0
TABLE
  2
BLOCK_RECORD
  5
1
330
0
100
AcDbSymbolTable
 70
     7
  0
BLOCK_RECORD
  5
1F
330
1
100
AcDbSymbolTableRecord
100
AcDbBlockTableRecord
  2
*MODEL_SPACE
  0
BLOCK_RECORD
  5
1B
330
1
100
AcDbSymbolTableRecord
100
AcDbBlockTableRecord
  2
*PAPER_SPACE
  0
BLOCK_RECORD
  5
2E
330
1
100
AcDbSymbolTableRecord
100
AcDbBlockTableRecord
  2
SE
  0
BLOCK_RECORD
  5
36
330
1
100
AcDbSymbolTableRecord
100
AcDbBlockTableRecord
  2
SE1
  0
BLOCK_RECORD
  5
71
330
1
100
AcDbSymbolTableRecord
100
AcDbBlockTableRecord
  2
SE2
  0
BLOCK_RECORD
  5
99
330
1
100
AcDbSymbolTableRecord
100
AcDbBlockTableRecord
  2
SE3
  0
BLOCK_RECORD
  5
A3
330
1
100
AcDbSymbolTableRecord
100
AcDbBlockTableRecord
  2
SE4
  0
BLOCK_RECORD
  5
AD
330
1
100
AcDbSymbolTableRecord
100
AcDbBlockTableRecord
  2
SE5
  0
ENDTAB
  0
ENDSEC
  0
SECTION
  2
BLOCKS
  0
BLOCK
  5
20
330
1F
100
AcDbEntity
  8
0
100
AcDbBlockBegin
  2
*MODEL_SPACE
 70
     0
 71
     0
 10
0.0
 20
0.0
 30
0.0
  3
*MODEL_SPACE
  1

  0
ENDBLK
  5
21
330
1F
100
AcDbEntity
  8
0
100
AcDbBlockEnd
  0
BLOCK
  5
1C
330
1B
100
AcDbEntity
 67
     1
  8
0
100
AcDbBlockBegin
  2
*PAPER_SPACE
 70
     0
 71
     0
 10
0.0
 20
0.0
 30
0.0
  3
*PAPER_SPACE
  1

  0
ENDBLK
  5
1D
330
1B
100
AcDbEntity
 67
     1
  8
0
100
AcDbBlockEnd
  0
BLOCK
  5
34
330
2E
100
AcDbEntity
  8
0
100
AcDbBlockBegin
  2
SE
 70
     0
 71
     0
 10
0.0
 20
0.0
 30
0.0
  3
SE
  1

  0
LINE
  5
32
330
2E
100
AcDbEntity
  8
DEFAULT
  6
CENTER2
 62
     7
 48
25.4
100
AcDbLine
 10
148.6802879719
 20
145.3008388468
 30
0.0
 11
136.6802878676
 21
145.3008388468
 31
0.0
  0
LINE
  5
33
330
2E
100
AcDbEntity
  8
DEFAULT
  6
CENTER2
 62
     7
 48
25.4
100
AcDbLine
 10
142.6802879197
 20
151.3008388989
 30
0.0
 11
142.6802879197
 21
139.3008387946
 31
0.0
  0
ENDBLK
  5
35
330
2E
100
AcDbEntity
  8
0
100
AcDbBlockEnd
  0
BLOCK
  5
6F
330
36
100
AcDbEntity
  8
0
100
AcDbBlockBegin
  2
SE1
 70
     0
 71
     0
 10
0.0
 20
0.0
 30
0.0
  3
SE1
  1

  0
ARC
  5
39
330
36
100
AcDbEntity
  8
MEGA_002244
  6
CONTINUOUS
 62
     7
 48
25.4
100
AcDbCircle
 10
142.6802879197
 20
145.3008388468
 30
0.0
 40
2.099999999999994
100
AcDbArc
 50
331.5631098511
 51
208.4368901489
  0
ARC
  5
3A
330
36
100
AcDbEntity
  8
MEGA_002244
  6
CONTINUOUS
 62
     7
 48
25.4
100
AcDbCircle
 10
142.6802879197
 20
145.3008388468
 30
0.0
 40
2.099999999999994
100
AcDbArc
 50
208.4368901489
 51
331.5631098511
  0
LINE
  5
3B
330
36
100
AcDbEntity
  8
MEGA_002244
  6
CONTINUOUS
 62
     7
 48
25.4
100
AcDbLine
 10
155.1802879197
 20
154.0508388468
 30
0.0
 11
155.1802879197
 21
172.5508388468
 31
0.0
  0
LINE
  5
3C
330
36
100
AcDbEntity
  8
MEGA_002244
  6
CONTINUOUS
 62
     7
 48
25.4
100
AcDbLine
 10
154.6802879197
 20
153.5508388468
 30
0.0
 11
155.1802879197
 21
154.0508388468
 31
0.0
  0
LINE
  5
3D
330
36
100
AcDbEntity
  8
MEGA_002244
  6
CONTINUOUS
 62
     7
 48
25.4
100
AcDbLine
 10
138.6302879197
 20
174.3008388468
 30
0.0
 11
135.1802879197
 21
174.3008388468
 31
0.0
  0
LINE
  5
3E
330
36
100
AcDbEntity
  8
MEGA_002244
  6
CONTINUOUS
 62
     7
 48
25.4
100
AcDbLine
 10
147.6802879197
 20
149.8008388468
 30
0.0
 11
138.6802879197
 21
149.8008388468
 31
0.0
  0
LINE
  5
3F
330
36
100
AcDbEntity
  8
MEGA_002244
  6
CONTINUOUS
 62
     7
 48
25.4
100
AcDbLine
 10
147.6872277056
 20
153.2013339084
 30
0.0
 11
147.6802879197
 21
149.8008388468
 31
0.0
  0
LINE
  5
40
330
36
100
AcDbEntity
  8
MEGA_002244
  6
CONTINUOUS
 62
     7
 48
25.4
100
AcDbLine
 10
138.6802879197
 20
149.8008388468
 30
0.0
 11
138.6733481339
 21
153.2013339084
 31
0.0
  0
LINE
  5
41
330
36
100
AcDbEntity
  8
MEGA_002244
  6
CONTINUOUS
 62
     7
 48
25.4
100
AcDbLine
 10
138.6724519932
 20
153.6404428188
 30
0.0
 11
138.6733481339
 21
153.2013339084
 31
0.0
  0
LINE
  5
42
330
36
100
AcDbEntity
  8
MEGA_002244
  6
CONTINUOUS
 62
     7
 48
25.4
100
AcDbLine
 10
147.6881238462
 20
153.6404428188
 30
0.0
 11
147.7302879197
 21
174.3008388468
 31
0.0
  0
LINE
  5
43
330
36
100
AcDbEntity
  8
MEGA_002244
  6
CONTINUOUS
 62
     7
 48
25.4
100
AcDbLine
 10
138.6724519932
 20
153.6404428188
 30
0.0
 11
138.6302879197
 21
174.3008388468
 31
0.0
  0
LINE
  5
44
330
36
100
AcDbEntity
  8
MEGA_002244
  6
CONTINUOUS
 62
     7
 48
25.4
100
AcDbLine
 10
154.6802879197
 20
173.0508388468
 30
0.0
 11
151.1802879197
 21
173.0508388468
 31
0.0
  0
LINE
  5
45
330
36
100
AcDbEntity
  8
MEGA_002244
  6
CONTINUOUS
 62
     7
 48
25.4
100
AcDbLine
 10
154.6802879197
 20
173.0508388468
 30
0.0
 11
154.6802879197
 21
153.5508388468
 31
0.0
  0
LINE
  5
46
330
36
100
AcDbEntity
  8
MEGA_002244
  6
CONTINUOUS
 62
     7
 48
25.4
100
AcDbLine
 10
135.1802879197
 20
153.2013339084
 30
0.0
 11
135.1802879197
 21
153.6404428188
 31
0.0
  0
LINE
  5
47
330
36
100
AcDbEntity
  8
MEGA_002244
  6
CONTINUOUS
 62
     7
 48
25.4
100
AcDbLine
 10
151.1802879197
 20
139.3008388468
 30
0.0
 11
151.1802879197
 21
144.3008388468
 31
0.0
  0
LINE
  5
48
330
36
100
AcDbEntity
  8
MEGA_002244
  6
CONTINUOUS
 62
     7
 48
25.4
100
AcDbLine
 10
151.1802879197
 20
144.3008388468
 30
0.0
 11
151.1802879197
 21
153.2013339084
 31
0.0
  0
LINE
  5
49
330
36
100
AcDbEntity
  8
MEGA_002244
  6
CONTINUOUS
 62
     7
 48
25.4
100
AcDbLine
 10
151.1802879197
 20
174.3008388468
 30
0.0
 11
151.1802879197
 21
153.6404428188
 31
0.0
  0
LINE
  5
4A
330
36
100
AcDbEntity
  8
MEGA_002244
  6
CONTINUOUS
 62
     7
 48
25.4
100
AcDbLine
 10
135.1802879197
 20
144.3008388468
 30
0.0
 11
135.1802879197
 21
153.2013339084
 31
0.0
  0
LINE
  5
4B
330
36
100
AcDbEntity
  8
MEGA_002244
  6
CONTINUOUS
 62
     7
 48
25.4
100
AcDbLine
 10
135.1802879197
 20
174.3008388468
 30
0.0
 11
135.1802879197
 21
153.6404428188
 31
0.0
  0
LINE
  5
4C
330
36
100
AcDbEntity
  8
MEGA_002244
  6
CONTINUOUS
 62
     7
 48
25.4
100
AcDbLine
 10
155.1802879197
 20
172.5508388468
 30
0.0
 11
154.6802879197
 21
173.0508388468
 31
0.0
  0
LINE
  5
4D
330
36
100
AcDbEntity
  8
MEGA_002244
  6
CONTINUOUS
 62
     7
 48
25.4
100
AcDbLine
 10
135.1802879197
 20
139.3008388468
 30
0.0
 11
151.1802879197
 21
139.3008388468
 31
0.0
  0
LINE
  5
4E
330
36
100
AcDbEntity
  8
MEGA_002244
  6
CONTINUOUS
 62
     7
 48
25.4
100
AcDbLine
 10
151.1802879197
 20
153.5508388468
 30
0.0
 11
154.6802879197
 21
153.5508388468
 31
0.0
  0
LINE
  5
4F
330
36
100
AcDbEntity
  8
MEGA_002244
  6
CONTINUOUS
 62
     7
 48
25.4
100
AcDbLine
 10
151.1802879197
 20
153.6404428188
 30
0.0
 11
151.1802879197
 21
153.2013339084
 31
0.0
  0
LINE
  5
50
330
36
100
AcDbEntity
  8
MEGA_002244
  6
CONTINUOUS
 62
     7
 48
25.4
100
AcDbLine
 10
147.6872277056
 20
153.2013339084
 30
0.0
 11
147.6881238462
 21
153.6404428188
 31
0.0
  0
LINE
  5
51
330
36
100
AcDbEntity
  8
MEGA_002244
  6
CONTINUOUS
 62
     7
 48
25.4
100
AcDbLine
 10
151.1802879197
 20
174.3008388468
 30
0.0
 11
147.7302879197
 21
174.3008388468
 31
0.0
  0
ARC
  5
52
330
36
100
AcDbEntity
  8
MEGA_002244
  6
CONTINUOUS
 62
     7
 48
25.4
100
AcDbCircle
 10
142.6802879197
 20
145.3008388468
 30
0.0
 40
2.5
100
AcDbArc
 50
255.0
 51
195.0
  0
LINE
  5
54
330
36
100
AcDbEntity
  8
MEGA_002241
  6
CONTINUOUS
 62
     7
 48
25.4
100
AcDbLine
 10
147.3166008285
 20
174.1579211114
 30
0.0
 11
138.6305434117
 21
174.1756477592
 31
0.0
  0
LINE
  5
56
330
36
100
AcDbEntity
  8
MEGA_002241
  6
HIDDEN2
 62
     7
 48
25.4
100
AcDbLine
 10
138.6305434117
 20
174.1756477592
 30
0.0
 11
138.5166191542
 21
174.1758802577
 31
0.0
  0
LINE
  5
57
330
36
100
AcDbEntity
  8
MEGA_002241
  6
CONTINUOUS
 62
     7
 48
25.4
100
AcDbLine
 10
147.3257619774
 20
178.6468840511
 30
0.0
 11
138.525780303
 21
178.6648431974
 31
0.0
  0
LINE
  5
58
330
36
100
AcDbEntity
  8
MEGA_002241
  6
CONTINUOUS
 62
     7
 48
25.4
100
AcDbLine
 10
147.3246076095
 20
178.0812438007
 30
0.0
 11
147.3189376828
 21
175.3029796958
 31
0.0
  0
LINE
  5
59
330
36
100
AcDbEntity
  8
MEGA_002241
  6
CONTINUOUS
 62
     7
 48
25.4
100
AcDbLine
 10
147.3166008285
 20
174.1579211114
 30
0.0
 11
147.2798662111
 21
156.1579585957
 31
0.0
  0
LINE
  5
5A
330
36
100
AcDbEntity
  8
MEGA_002241
  6
CONTINUOUS
 62
     7
 48
25.4
100
AcDbLine
 10
138.5246259352
 20
178.0992029469
 30
0.0
 11
138.5189560084
 21
175.320938842
 31
0.0
  0
LINE
  5
5B
330
36
100
AcDbEntity
  8
MEGA_002241
  6
CONTINUOUS
 62
     7
 48
25.4
100
AcDbLine
 10
147.3257619774
 20
178.6468840511
 30
0.0
 11
147.3246076095
 21
178.0812438007
 31
0.0
  0
LINE
  5
5C
330
36
100
AcDbEntity
  8
MEGA_002241
  6
CONTINUOUS
 62
     7
 48
25.4
100
AcDbLine
 10
138.5246259352
 20
178.0992029469
 30
0.0
 11
138.525780303
 21
178.6648431974
 31
0.0
  0
LINE
  5
5D
330
36
100
AcDbEntity
  8
MEGA_002241
  6
CONTINUOUS
 62
     7
 48
25.4
100
AcDbLine
 10
147.3189376828
 20
175.3029796958
 30
0.0
 11
147.3166008285
 21
174.1579211114
 31
0.0
  0
LINE
  5
5E
330
36
100
AcDbEntity
  8
MEGA_002241
  6
HIDDEN2
 62
     7
 48
25.4
100
AcDbLine
 10
138.5166191542
 20
174.1758802577
 30
0.0
 11
138.5168741717
 21
174.3008388468
 31
0.0
  0
LINE
  5
5F
330
36
100
AcDbEntity
  8
MEGA_002241
  6
CONTINUOUS
 62
     7
 48
25.4
100
AcDbLine
 10
138.5168741717
 20
174.3008388468
 30
0.0
 11
138.5189560084
 21
175.320938842
 31
0.0
  0
LINE
  5
60
330
36
100
AcDbEntity
  8
MEGA_002241
  6
HIDDEN2
 62
     7
 48
25.4
100
AcDbLine
 10
138.4798845368
 20
156.175917742
 30
0.0
 11
138.6672783351
 21
156.1755353056
 31
0.0
  0
LINE
  5
61
330
36
100
AcDbEntity
  8
MEGA_002241
  6
CONTINUOUS
 62
     7
 48
25.4
100
AcDbLine
 10
138.6672783351
 20
156.1755353056
 30
0.0
 11
147.2798662111
 21
156.1579585957
 31
0.0
  0
LINE
  5
63
330
36
100
AcDbEntity
  8
MEGA_002251
  6
CONTINUOUS
 62
     7
 48
25.4
100
AcDbLine
 10
109.6802879197
 20
174.2008388468
 30
0.0
 11
109.6802879197
 21
152.4008388468
 31
0.0
  0
LINE
  5
64
330
36
100
AcDbEntity
  8
MEGA_002251
  6
CONTINUOUS
 62
     7
 48
25.4
100
AcDbLine
 10
135.1802879197
 20
153.2013339084
 30
0.0
 11
135.1802879197
 21
144.2008388468
 31
0.0
  0
LINE
  5
65
330
36
100
AcDbEntity
  8
MEGA_002251
  6
CONTINUOUS
 62
     7
 48
25.4
100
AcDbLine
 10
135.1802879197
 20
139.2008388468
 30
0.0
 11
135.1802879197
 21
144.2008388468
 31
0.0
  0
ARC
  5
66
330
36
100
AcDbEntity
  8
MEGA_002251
  6
CONTINUOUS
 62
     7
 48
25.4
100
AcDbCircle
 10
129.1802879197
 20
150.4008388468
 30
0.0
 40
2.0
100
AcDbArc
 50
0.0
 51
90.0
  0
LINE
  5
67
330
36
100
AcDbEntity
  8
MEGA_002251
  6
CONTINUOUS
 62
     7
 48
25.4
100
AcDbLine
 10
135.1802879197
 20
174.2008388468
 30
0.0
 11
109.6802879197
 21
174.2008388468
 31
0.0
  0
LINE
  5
68
330
36
100
AcDbEntity
  8
MEGA_002251
  6
CONTINUOUS
 62
     7
 48
25.4
100
AcDbLine
 10
109.6802879197
 20
152.4008388468
 30
0.0
 11
129.1802879197
 21
152.4008388468
 31
0.0
  0
LINE
  5
69
330
36
100
AcDbEntity
  8
MEGA_002251
  6
CONTINUOUS
 62
     7
 48
25.4
100
AcDbLine
 10
131.1802879197
 20
139.7008388468
 30
0.0
 11
131.1802879197
 21
144.2008388468
 31
0.0
  0
LINE
  5
6A
330
36
100
AcDbEntity
  8
MEGA_002251
  6
CONTINUOUS
 62
     7
 48
25.4
100
AcDbLine
 10
131.1802879197
 20
144.2008388468
 30
0.0
 11
131.1802879197
 21
151.211173839
 31
0.0
  0
ARC
  5
6B
330
36
100
AcDbEntity
  8
MEGA_002251
  6
CONTINUOUS
 62
     7
 48
25.4
100
AcDbCircle
 10
131.6802879197
 20
139.7008388468
 30
0.0
 40
0.5
100
AcDbArc
 50
180.0
 51
270.0
  0
LINE
  5
6C
330
36
100
AcDbEntity
  8
MEGA_002251
  6
CONTINUOUS
 62
     7
 48
25.4
100
AcDbLine
 10
131.6802879197
 20
139.2008388468
 30
0.0
 11
135.1802879197
 21
139.2008388468
 31
0.0
  0
LINE
  5
6E
330
36
100
AcDbEntity
  8
STANDARD
  6
CENTER2
 62
     7
 48
25.4
100
AcDbLine
 10
107.3036587993
 20
163.3008388468
 30
0.0
 11
157.4876976762
 21
163.3008388468
 31
0.0
  0
ENDBLK
  5
70
330
36
100
AcDbEntity
  8
0
100
AcDbBlockEnd
  0
BLOCK
  5
97
330
71
100
AcDbEntity
  8
0
100
AcDbBlockBegin
  2
SE2
 70
     0
 71
     0
 10
0.0
 20
0.0
 30
0.0
  3
SE2
  1

  0
ARC
  5
73
330
71
100
AcDbEntity
  8
MEGA_002244
  6
CONTINUOUS
 62
     7
 48
25.4
100
AcDbCircle
 10
85.6223850079
 20
152.9633787876
 30
0.0
 40
0.5
100
AcDbArc
 50
118.5718781423
 51
180.0
  0
ARC
  5
74
330
71
100
AcDbEntity
  8
MEGA_002244
  6
CONTINUOUS
 62
     7
 48
25.4
100
AcDbCircle
 10
74.6223850079
 20
152.9633787876
 30
0.0
 40
0.5
100
AcDbArc
 50
0.0
 51
61.4281218577
  0
LINE
  5
75
330
71
100
AcDbEntity
  8
MEGA_002241
  6
HIDDEN2
 62
     7
 48
25.4
100
AcDbLine
 10
84.1882155129
 20
167.9077795785
 30
0.0
 11
84.1773263875
 21
167.8315567669
 31
0.0
  0
LINE
  5
76
330
71
100
AcDbEntity
  8
MEGA_002241
  6
CONTINUOUS
 62
     7
 48
25.4
100
AcDbLine
 10
83.254658043
 20
161.3729686614
 30
0.0
 11
83.2398854299
 21
161.2695618152
 31
0.0
  0
ARC
  5
77
330
71
100
AcDbEntity
  8
MEGA_002241
  6
HIDDEN2
 62
     7
 48
25.4
100
AcDbCircle
 10
70.139152026
 20
170.4566890393
 30
0.0
 40
2.4999913937
100
AcDbArc
 50
331.3216133232
 51
47.9951778988
  0
LINE
  5
78
330
71
100
AcDbEntity
  8
MEGA_002241
  6
HIDDEN2
 62
     7
 48
25.4
100
AcDbLine
 10
89.2284125905
 20
164.9199847328
 30
0.0
 11
89.2284125905
 21
164.937943879
 31
0.0
  0
LINE
  5
7A
330
71
100
AcDbEntity
  8
MEGA_002250
  6
CONTINUOUS
 62
     7
 48
25.4
100
AcDbLine
 10
79.7200289744
 20
161.3729686614
 30
0.0
 11
80.7200289744
 21
161.3729686614
 31
0.0
  0
LINE
  5
7B
330
71
100
AcDbEntity
  8
MEGA_002250
  6
CONTINUOUS
 62
     7
 48
25.4
100
AcDbLine
 10
79.7200289744
 20
161.3729686614
 30
0.0
 11
79.7200289744
 21
168.3729686614
 31
0.0
  0
LINE
  5
7C
330
71
100
AcDbEntity
  8
MEGA_002250
  6
CONTINUOUS
 62
     7
 48
25.4
100
AcDbLine
 10
80.7200289744
 20
168.3729686614
 30
0.0
 11
80.7200289744
 21
161.3729686614
 31
0.0
  0
LINE
  5
7D
330
71
100
AcDbEntity
  8
MEGA_002250
  6
CONTINUOUS
 62
     7
 48
25.4
100
AcDbLine
 10
76.7200289744
 20
161.3729686614
 30
0.0
 11
79.7200289744
 21
161.3729686614
 31
0.0
  0
LINE
  5
7E
330
71
100
AcDbEntity
  8
MEGA_002250
  6
CONTINUOUS
 62
     7
 48
25.4
100
AcDbLine
 10
76.7200289744
 20
168.3729686614
 30
0.0
 11
76.7200289744
 21
161.3729686614
 31
0.0
  0
LINE
  5
7F
330
71
100
AcDbEntity
  8
MEGA_002250
  6
CONTINUOUS
 62
     7
 48
25.4
100
AcDbLine
 10
80.7200289744
 20
161.3729686614
 30
0.0
 11
83.7200289744
 21
161.3729686614
 31
0.0
  0
LINE
  5
80
330
71
100
AcDbEntity
  8
MEGA_002250
  6
CONTINUOUS
 62
     7
 48
25.4
100
AcDbLine
 10
80.7200289744
 20
168.3729686614
 30
0.0
 11
79.7200289744
 21
168.3729686614
 31
0.0
  0
LINE
  5
81
330
71
100
AcDbEntity
  8
MEGA_002250
  6
CONTINUOUS
 62
     7
 48
25.4
100
AcDbLine
 10
79.7200289744
 20
168.3729686614
 30
0.0
 11
76.7200289744
 21
168.3729686614
 31
0.0
  0
LINE
  5
82
330
71
100
AcDbEntity
  8
MEGA_002250
  6
CONTINUOUS
 62
     7
 48
25.4
100
AcDbLine
 10
83.7200289744
 20
161.3729686614
 30
0.0
 11
83.7200289744
 21
168.3729686614
 31
0.0
  0
LINE
  5
83
330
71
100
AcDbEntity
  8
MEGA_002250
  6
CONTINUOUS
 62
     7
 48
25.4
100
AcDbLine
 10
83.7200289744
 20
168.3729686614
 30
0.0
 11
80.7200289744
 21
168.3729686614
 31
0.0
  0
CIRCLE
  5
84
330
71
100
AcDbEntity
  8
MEGA_002251
  6
CONTINUOUS
 62
     7
 48
25.4
100
AcDbCircle
 10
80.1223850079
 20
163.062883726
 30
0.0
 40
10.89999999999999
  0
CIRCLE
  5
85
330
71
100
AcDbEntity
  8
MEGA_002251
  6
CONTINUOUS
 62
     7
 48
25.4
100
AcDbCircle
 10
80.1223850079
 20
165.062883726
 30
0.0
 40
6.274999999999992
  0
LINE
  5
86
330
71
100
AcDbEntity
  8
MEGA_002251
  6
CONTINUOUS
 62
     7
 48
25.4
100
AcDbLine
 10
75.1223850079
 20
143.962883726
 30
0.0
 11
75.1223850079
 21
150.9732187182
 31
0.0
  0
LINE
  5
87
330
71
100
AcDbEntity
  8
MEGA_002251
  6
CONTINUOUS
 62
     7
 48
25.4
100
AcDbLine
 10
75.1223850079
 20
150.9732187182
 30
0.0
 11
75.1223850079
 21
153.0773942538
 31
0.0
  0
ARC
  5
88
330
71
100
AcDbEntity
  8
MEGA_002251
  6
CONTINUOUS
 62
     7
 48
25.4
100
AcDbCircle
 10
80.1223850079
 20
165.062883726
 30
0.0
 40
4.909999999999997
100
AcDbArc
 50
0.0
 51
226.1363777515
  0
ARC
  5
89
330
71
100
AcDbEntity
  8
MEGA_002251
  6
HIDDEN2
 62
     7
 48
25.4
100
AcDbCircle
 10
80.1223850079
 20
165.062883726
 30
0.0
 40
4.909999999999997
100
AcDbArc
 50
226.1363777515
 51
228.7213656461
  0
ARC
  5
8A
330
71
100
AcDbEntity
  8
MEGA_002251
  6
CONTINUOUS
 62
     7
 48
25.4
100
AcDbCircle
 10
80.1223850079
 20
165.062883726
 30
0.0
 40
4.909999999999997
100
AcDbArc
 50
228.7213656461
 51
311.2786343539
  0
ARC
  5
8B
330
71
100
AcDbEntity
  8
MEGA_002251
  6
HIDDEN2
 62
     7
 48
25.4
100
AcDbCircle
 10
80.1223850079
 20
165.062883726
 30
0.0
 40
4.909999999999997
100
AcDbArc
 50
311.2786343539
 51
317.1147159453
  0
ARC
  5
8C
330
71
100
AcDbEntity
  8
MEGA_002251
  6
CONTINUOUS
 62
     7
 48
25.4
100
AcDbCircle
 10
80.1223850079
 20
165.062883726
 30
0.0
 40
4.909999999999997
100
AcDbArc
 50
317.1147159453
 51
360.0
  0
LINE
  5
8D
330
71
100
AcDbEntity
  8
MEGA_002251
  6
CONTINUOUS
 62
     7
 48
25.4
100
AcDbLine
 10
85.1223850079
 20
150.9732187182
 30
0.0
 11
85.1223850079
 21
143.962883726
 31
0.0
  0
LINE
  5
8E
330
71
100
AcDbEntity
  8
MEGA_002251
  6
CONTINUOUS
 62
     7
 48
25.4
100
AcDbLine
 10
85.1223850079
 20
153.0773942538
 30
0.0
 11
85.1223850079
 21
150.9732187182
 31
0.0
  0
ARC
  5
8F
330
71
100
AcDbEntity
  8
MEGA_002251
  6
CONTINUOUS
 62
     7
 48
25.4
100
AcDbCircle
 10
80.1223850079
 20
143.962883726
 30
0.0
 40
5.0
100
AcDbArc
 50
180.0
 51
360.0
  0
ARC
  5
90
330
71
100
AcDbEntity
  8
MEGA_002251
  6
CONTINUOUS
 62
     7
 48
25.4
100
AcDbCircle
 10
74.6223850079
 20
153.0773942538
 30
0.0
 40
0.5
100
AcDbArc
 50
0.0
 51
61.1540603431
  0
ARC
  5
91
330
71
100
AcDbEntity
  8
MEGA_002251
  6
CONTINUOUS
 62
     7
 48
25.4
100
AcDbCircle
 10
85.6223850079
 20
153.0773942538
 30
0.0
 40
0.5
100
AcDbArc
 50
118.8459396569
 51
180.0
  0
LINE
  5
92
330
71
100
AcDbEntity
  8
STANDARD
  6
CENTER2
 62
     7
 48
25.4
100
AcDbLine
 10
80.1223850079
 20
137.9831947592
 30
0.0
 11
80.1223850079
 21
175.2839217195
 31
0.0
  0
LINE
  5
93
330
71
100
AcDbEntity
  8
STANDARD
  6
CENTER2
 62
     7
 48
25.4
100
AcDbLine
 10
80.1223850079
 20
165.062883726
 30
0.0
 11
86.3973850079
 21
165.062883726
 31
0.0
  0
LINE
  5
94
330
71
100
AcDbEntity
  8
STANDARD
  6
CENTER2
 62
     7
 48
25.4
100
AcDbLine
 10
80.1223850079
 20
165.062883726
 30
0.0
 11
73.8473850079
 21
165.062883726
 31
0.0
  0
LINE
  5
95
330
71
100
AcDbEntity
  8
STANDARD
  6
CENTER2
 62
     7
 48
25.4
100
AcDbLine
 10
67.8512447321
 20
163.062883726
 30
0.0
 11
92.2935252836
 21
163.062883726
 31
0.0
  0
LINE
  5
96
330
71
100
AcDbEntity
  8
STANDARD
  6
CENTER2
 62
     7
 48
25.4
100
AcDbLine
 10
74.1426960411
 20
143.962883726
 30
0.0
 11
86.1020739746
 21
143.962883726
 31
0.0
  0
ENDBLK
  5
98
330
71
100
AcDbEntity
  8
0
100
AcDbBlockEnd
  0
BLOCK
  5
A1
330
99
100
AcDbEntity
  8
0
100
AcDbBlockBegin
  2
SE3
 70
     0
 71
     0
 10
0.0
 20
0.0
 30
0.0
  3
SE3
  1

  0
POLYLINE
  5
9B
330
99
100
AcDbEntity
  8
DEFAULT
  6
CONTINUOUS
 62
     7
 48
25.4
100
AcDb2dPolyline
 66
     1
 10
0.0
 20
0.0
 30
0.0
 70
     1
  0
VERTEX
  5
B8
330
9B
100
AcDbEntity
  8
DEFAULT
  6
CONTINUOUS
 62
     7
100
AcDbVertex
100
AcDb2dVertex
 10
152.1802878936
 20
115.6141532266
 30
0.0
  0
VERTEX
  5
B9
330
9B
100
AcDbEntity
  8
DEFAULT
  6
CONTINUOUS
 62
     7
100
AcDbVertex
100
AcDb2dVertex
 10
155.1802879197
 20
116.114153231
 30
0.0
  0
VERTEX
  5
BA
330
9B
100
AcDbEntity
  8
DEFAULT
  6
CONTINUOUS
 62
     7
100
AcDbVertex
100
AcDb2dVertex
 10
152.1802878936
 20
116.6141532353
 30
0.0
  0
VERTEX
  5
BB
330
9B
100
AcDbEntity
  8
DEFAULT
  6
CONTINUOUS
 62
     7
100
AcDbVertex
100
AcDb2dVertex
 10
152.1802878936
 20
115.6141532266
 30
0.0
  0
SEQEND
  5
B7
330
9B
100
AcDbEntity
  8
DEFAULT
  6
CONTINUOUS
 62
     7
 48
25.4
  0
LINE
  5
9C
330
99
100
AcDbEntity
  8
DEFAULT
  6
CONTINUOUS
 62
     7
 48
25.4
100
AcDbLine
 10
109.6802879197
 20
152.4008388468
 30
0.0
 11
109.6802879197
 21
114.6141532179
 31
0.0
  0
LINE
  5
9D
330
99
100
AcDbEntity
  8
DEFAULT
  6
CONTINUOUS
 62
     7
 48
25.4
100
AcDbLine
 10
155.1802879197
 20
154.0508388468
 30
0.0
 11
155.1802879197
 21
114.6141532179
 31
0.0
  0
LINE
  5
9E
330
99
100
AcDbEntity
  8
DEFAULT
  6
CONTINUOUS
 62
     7
 48
25.4
100
AcDbLine
 10
109.6802879197
 20
116.114153231
 30
0.0
 11
155.1802869959
 21
116.114153231
 31
0.0
  0
TEXT
  5
A0
330
99
100
AcDbEntity
  8
DEFAULT
  6
CONTINUOUS
 62
     7
 48
25.4
100
AcDbText
 10
130.5416510941
 20
116.864153231
 30
0.0
 40
3.0
  1
45
  7
SEACAD_SEISO_TTF
 11
130.5416510941
 21
119.864153231
 31
0.0
100
AcDbText
 73
     3
  0
ENDBLK
  5
A2
330
99
100
AcDbEntity
  8
0
100
AcDbBlockEnd
  0
BLOCK
  5
AB
330
A3
100
AcDbEntity
  8
0
100
AcDbBlockBegin
  2
SE4
 70
     0
 71
     0
 10
0.0
 20
0.0
 30
0.0
  3
SE4
  1

  0
POLYLINE
  5
A5
330
A3
100
AcDbEntity
  8
DEFAULT
  6
CONTINUOUS
 62
     7
 48
25.4
100
AcDb2dPolyline
 66
     1
 10
0.0
 20
0.0
 30
0.0
 70
     1
  0
VERTEX
  5
BD
330
A5
100
AcDbEntity
  8
DEFAULT
  6
CONTINUOUS
 62
     7
100
AcDbVertex
100
AcDb2dVertex
 10
72.2223850339
 20
115.7281578351
 30
0.0
  0
VERTEX
  5
BE
330
A5
100
AcDbEntity
  8
DEFAULT
  6
CONTINUOUS
 62
     7
100
AcDbVertex
100
AcDb2dVertex
 10
69.2223850079
 20
116.2281578394
 30
0.0
  0
VERTEX
  5
BF
330
A5
100
AcDbEntity
  8
DEFAULT
  6
CONTINUOUS
 62
     7
100
AcDbVertex
100
AcDb2dVertex
 10
72.2223850339
 20
116.7281578437
 30
0.0
  0
VERTEX
  5
C0
330
A5
100
AcDbEntity
  8
DEFAULT
  6
CONTINUOUS
 62
     7
100
AcDbVertex
100
AcDb2dVertex
 10
72.2223850339
 20
115.7281578351
 30
0.0
  0
SEQEND
  5
BC
330
A5
100
AcDbEntity
  8
DEFAULT
  6
CONTINUOUS
 62
     7
 48
25.4
  0
POLYLINE
  5
A6
330
A3
100
AcDbEntity
  8
DEFAULT
  6
CONTINUOUS
 62
     7
 48
25.4
100
AcDb2dPolyline
 66
     1
 10
0.0
 20
0.0
 30
0.0
 70
     1
  0
VERTEX
  5
C2
330
A6
100
AcDbEntity
  8
DEFAULT
  6
CONTINUOUS
 62
     7
100
AcDbVertex
100
AcDb2dVertex
 10
88.0223849818
 20
115.7281578351
 30
0.0
  0
VERTEX
  5
C3
330
A6
100
AcDbEntity
  8
DEFAULT
  6
CONTINUOUS
 62
     7
100
AcDbVertex
100
AcDb2dVertex
 10
91.0223850079
 20
116.2281578394
 30
0.0
  0
VERTEX
  5
C4
330
A6
100
AcDbEntity
  8
DEFAULT
  6
CONTINUOUS
 62
     7
100
AcDbVertex
100
AcDb2dVertex
 10
88.0223849818
 20
116.7281578437
 30
0.0
  0
VERTEX
  5
C5
330
A6
100
AcDbEntity
  8
DEFAULT
  6
CONTINUOUS
 62
     7
100
AcDbVertex
100
AcDb2dVertex
 10
88.0223849818
 20
115.7281578351
 30
0.0
  0
SEQEND
  5
C1
330
A6
100
AcDbEntity
  8
DEFAULT
  6
CONTINUOUS
 62
     7
 48
25.4
  0
LINE
  5
A7
330
A3
100
AcDbEntity
  8
DEFAULT
  6
CONTINUOUS
 62
     7
 48
25.4
100
AcDbLine
 10
69.2223850079
 20
163.062883726
 30
0.0
 11
69.2223850079
 21
114.7281578264
 31
0.0
  0
LINE
  5
A8
330
A3
100
AcDbEntity
  8
DEFAULT
  6
CONTINUOUS
 62
     7
 48
25.4
100
AcDbLine
 10
91.0223850079
 20
163.062883726
 30
0.0
 11
91.0223850079
 21
114.7281578264
 31
0.0
  0
LINE
  5
A9
330
A3
100
AcDbEntity
  8
DEFAULT
  6
CONTINUOUS
 62
     7
 48
25.4
100
AcDbLine
 10
69.2223850079
 20
116.2281578394
 30
0.0
 11
91.0223852284
 21
116.2281578394
 31
0.0
  0
TEXT
  5
AA
330
A3
100
AcDbEntity
  8
DEFAULT
  6
CONTINUOUS
 62
     7
 48
25.4
100
AcDbText
 10
78.2814760272
 20
116.9781578394
 30
0.0
 40
3.0
  1
22
  7
SEACAD_SEISO_TTF
 11
78.2814760272
 21
119.9781578394
 31
0.0
100
AcDbText
 73
     3
  0
ENDBLK
  5
AC
330
A3
100
AcDbEntity
  8
0
100
AcDbBlockEnd
  0
BLOCK
  5
B5
330
AD
100
AcDbEntity
  8
0
100
AcDbBlockBegin
  2
SE5
 70
     0
 71
     0
 10
0.0
 20
0.0
 30
0.0
  3
SE5
  1

  0
POLYLINE
  5
AF
330
AD
100
AcDbEntity
  8
DEFAULT
  6
CONTINUOUS
 62
     7
 48
25.4
100
AcDb2dPolyline
 66
     1
 10
0.0
 20
0.0
 30
0.0
 70
     1
  0
VERTEX
  5
C7
330
AF
100
AcDbEntity
  8
DEFAULT
  6
CONTINUOUS
 62
     7
100
AcDbVertex
100
AcDb2dVertex
 10
112.6802879458
 20
127.516241526
 30
0.0
  0
VERTEX
  5
C8
330
AF
100
AcDbEntity
  8
DEFAULT
  6
CONTINUOUS
 62
     7
100
AcDbVertex
100
AcDb2dVertex
 10
109.6802879197
 20
128.0162415304
 30
0.0
  0
VERTEX
  5
C9
330
AF
100
AcDbEntity
  8
DEFAULT
  6
CONTINUOUS
 62
     7
100
AcDbVertex
100
AcDb2dVertex
 10
112.6802879458
 20
128.5162415347
 30
0.0
  0
VERTEX
  5
CA
330
AF
100
AcDbEntity
  8
DEFAULT
  6
CONTINUOUS
 62
     7
100
AcDbVertex
100
AcDb2dVertex
 10
112.6802879458
 20
127.516241526
 30
0.0
  0
SEQEND
  5
C6
330
AF
100
AcDbEntity
  8
DEFAULT
  6
CONTINUOUS
 62
     7
 48
25.4
  0
POLYLINE
  5
B0
330
AD
100
AcDbEntity
  8
DEFAULT
  6
CONTINUOUS
 62
     7
 48
25.4
100
AcDb2dPolyline
 66
     1
 10
0.0
 20
0.0
 30
0.0
 70
     1
  0
VERTEX
  5
CC
330
B0
100
AcDbEntity
  8
DEFAULT
  6
CONTINUOUS
 62
     7
100
AcDbVertex
100
AcDb2dVertex
 10
139.6802878936
 20
127.516241526
 30
0.0
  0
VERTEX
  5
CD
330
B0
100
AcDbEntity
  8
DEFAULT
  6
CONTINUOUS
 62
     7
100
AcDbVertex
100
AcDb2dVertex
 10
142.6802879197
 20
128.0162415304
 30
0.0
  0
VERTEX
  5
CE
330
B0
100
AcDbEntity
  8
DEFAULT
  6
CONTINUOUS
 62
     7
100
AcDbVertex
100
AcDb2dVertex
 10
139.6802878936
 20
128.5162415347
 30
0.0
  0
VERTEX
  5
CF
330
B0
100
AcDbEntity
  8
DEFAULT
  6
CONTINUOUS
 62
     7
100
AcDbVertex
100
AcDb2dVertex
 10
139.6802878936
 20
127.516241526
 30
0.0
  0
SEQEND
  5
CB
330
B0
100
AcDbEntity
  8
DEFAULT
  6
CONTINUOUS
 62
     7
 48
25.4
  0
LINE
  5
B1
330
AD
100
AcDbEntity
  8
DEFAULT
  6
CONTINUOUS
 62
     7
 48
25.4
100
AcDbLine
 10
109.6802879197
 20
152.4008388468
 30
0.0
 11
109.6802879197
 21
126.5162415173
 31
0.0
  0
LINE
  5
B2
330
AD
100
AcDbEntity
  8
DEFAULT
  6
CONTINUOUS
 62
     7
 48
25.4
100
AcDbLine
 10
142.6802879197
 20
145.3008388468
 30
0.0
 11
142.6802879197
 21
126.5162415173
 31
0.0
  0
LINE
  5
B3
330
AD
100
AcDbEntity
  8
DEFAULT
  6
CONTINUOUS
 62
     7
 48
25.4
100
AcDbLine
 10
109.6802879197
 20
128.0162415304
 30
0.0
 11
142.6802877409
 21
128.0162415304
 31
0.0
  0
TEXT
  5
B4
330
AD
100
AcDbEntity
  8
DEFAULT
  6
CONTINUOUS
 62
     7
 48
25.4
100
AcDbText
 10
124.6121060121
 20
128.7662415304
 30
0.0
 40
3.0
  1
33
  7
SEACAD_SEISO_TTF
 11
124.6121060121
 21
131.7662415304
 31
0.0
100
AcDbText
 73
     3
  0
ENDBLK
  5
B6
330
AD
100
AcDbEntity
  8
0
100
AcDbBlockEnd
  0
ENDSEC
  0
SECTION
  2
ENTITIES
  0
INSERT
  5
2F
330
1F
100
AcDbEntity
  8
0
100
AcDbBlockReference
  2
SE
 10
0.0
 20
0.0
 30
0.0
  0
INSERT
  5
37
330
1F
100
AcDbEntity
  8
0
100
AcDbBlockReference
  2
SE1
 10
0.0
 20
0.0
 30
0.0
  0
INSERT
  5
72
330
1F
100
AcDbEntity
  8
0
100
AcDbBlockReference
  2
SE2
 10
0.0
 20
0.0
 30
0.0
  0
INSERT
  5
9A
330
1F
100
AcDbEntity
  8
0
100
AcDbBlockReference
  2
SE3
 10
0.0
 20
0.0
 30
0.0
  0
INSERT
  5
A4
330
1F
100
AcDbEntity
  8
0
100
AcDbBlockReference
  2
SE4
 10
0.0
 20
0.0
 30
0.0
  0
INSERT
  5
AE
330
1F
100
AcDbEntity
  8
0
100
AcDbBlockReference
  2
SE5
 10
0.0
 20
0.0
 30
0.0
  0
ENDSEC
  0
SECTION
  2
OBJECTS
  0
DICTIONARY
  5
C
330
0
100
AcDbDictionary
  3
ACAD_GROUP
350
D
  3
ACAD_LAYOUT
350
1A
  3
ACAD_MLINESTYLE
350
17
  3
ACAD_PLOTSETTINGS
350
19
  3
ACAD_TABLESTYLE
350
2A
  3
ACDBVARIABLEDICTIONARY
350
2C
1001
ACAD
1000
TREAT_AS_HARD
1070
     0
  0
DICTIONARY
  5
D0
330
29
100
AcDbDictionary
  3
ACAD_XREC_ROUNDTRIP
360
D1
  0
DICTIONARY
  5
D
102
{ACAD_REACTORS
330
C
102
}
330
C
100
AcDbDictionary
1001
ACAD
1000
TREAT_AS_HARD
1070
     0
  0
DICTIONARY
  5
1A
102
{ACAD_REACTORS
330
C
102
}
330
C
100
AcDbDictionary
1001
ACAD
1000
TREAT_AS_HARD
1070
     0
  0
DICTIONARY
  5
17
102
{ACAD_REACTORS
330
C
102
}
330
C
100
AcDbDictionary
  3
STANDARD
350
18
1001
ACAD
1000
TREAT_AS_HARD
1070
     0
  0
DICTIONARY
  5
19
102
{ACAD_REACTORS
330
C
102
}
330
C
100
AcDbDictionary
1001
ACAD
1000
TREAT_AS_HARD
1070
     0
  0
DICTIONARY
  5
2A
102
{ACAD_REACTORS
330
C
102
}
330
C
100
AcDbDictionary
  3
STANDARD
350
2B
1001
ACAD
1000
TREAT_AS_HARD
1070
     0
  0
DICTIONARY
  5
2C
102
{ACAD_REACTORS
330
C
102
}
330
C
100
AcDbDictionary
  3
CTABLESTYLE
350
2D
1001
ACAD
1000
TREAT_AS_HARD
1070
     0
  0
XRECORD
  5
D1
102
{ACAD_REACTORS
330
D0
102
}
330
D0
100
AcDbXrecord
102
UCS
 74
     0
 71
     1
 10
0.0
 20
0.0
 30
0.0
 10
1.0
 20
0.0
 30
0.0
 10
0.0
 20
1.0
 30
0.0
146
0.0
 79
     0
102
VIEW
281
     0
  0
MLINESTYLE
  5
18
102
{ACAD_REACTORS
330
17
102
}
330
17
100
AcDbMlineStyle
  2
Standard
 70
     0
  3

 62
   256
 51
90.0
 52
90.0
 71
     2
 49
0.5
 62
   256
  6
BYLAYER
 49
-0.5
 62
   256
  6
BYLAYER
  0
TABLESTYLE
  5
2B
102
{ACAD_REACTORS
330
2A
102
}
330
2A
100
AcDbTableStyle
  3
Standard
 70
     0
 71
     0
 40
0.06
 41
0.06
280
     0
281
     0
  7
STANDARD
140
0.18
170
     2
 62
     0
 63
     7
283
     0
274
    -2
284
     1
 64
     0
275
    -2
285
     1
 65
     0
276
    -2
286
     1
 66
     0
277
    -2
287
     1
 67
     0
278
    -2
288
     1
 68
     0
279
    -2
289
     1
 69
     0
  7
STANDARD
140
0.25
170
     5
 62
     0
 63
     7
283
     0
274
    -2
284
     1
 64
     0
275
    -2
285
     1
 65
     0
276
    -2
286
     1
 66
     0
277
    -2
287
     1
 67
     0
278
    -2
288
     1
 68
     0
279
    -2
289
     1
 69
     0
  7
STANDARD
140
0.18
170
     5
 62
     0
 63
     7
283
     0
274
    -2
284
     1
 64
     0
275
    -2
285
     1
 65
     0
276
    -2
286
     1
 66
     0
277
    -2
287
     1
 67
     0
278
    -2
288
     1
 68
     0
279
    -2
289
     1
 69
     0
  0
DICTIONARYVAR
  5
2D
102
{ACAD_REACTORS
330
2C
102
}
330
2C
100
DictionaryVariables
280
     0
  1
Standard
  0
ENDSEC
  0
EOF
