  0
SECTION
  2
HEADER
  9
$ACADVER
  1
AC1012
  9
$DWGCODEPAGE
  3
ansi_1252
  9
$INSBASE
 10
0.0
 20
0.0
 30
0.0
  9
$EXTMIN
 10
0.0
 20
0.0
 30
0.0
  9
$EXTMAX
 10
210.0
 20
297.0
 30
0.0
  9
$LIMMIN
 10
0.0
 20
0.0
  9
$LIMMAX
 10
210.0
 20
297.0
  9
$ORTHOMODE
 70
     0
  9
$REGENMODE
 70
     1
  9
$FILLMODE
 70
     1
  9
$QTEXTMODE
 70
     0
  9
$MIRRTEXT
 70
     1
  9
$DRAGMODE
 70
     2
  9
$LTSCALE
 40
1.0
  9
$OSMODE
 70
    37
  9
$ATTMODE
 70
     1
  9
$TEXTSIZE
 40
0.2
  9
$TRACEWID
 40
0.05
  9
$TEXTSTYLE
  7
STANDARD
  9
$CLAYER
  8
0
  9
$CELTYPE
  6
BYLAYER
  9
$CECOLOR
 62
   256
  9
$CELTSCALE
 40
25.4
  9
$DELOBJ
 70
     1
  9
$DISPSILH
 70
     0
  9
$DIMSCALE
 40
1.0
  9
$DIMASZ
 40
0.18
  9
$DIMEXO
 40
0.0625
  9
$DIMDLI
 40
0.38
  9
$DIMRND
 40
0.0
  9
$DIMDLE
 40
0.0
  9
$DIMEXE
 40
0.18
  9
$DIMTP
 40
0.0
  9
$DIMTM
 40
0.0
  9
$DIMTXT
 40
0.18
  9
$DIMCEN
 40
0.09
  9
$DIMTSZ
 40
0.0
  9
$DIMTOL
 70
     0
  9
$DIMLIM
 70
     0
  9
$DIMTIH
 70
     1
  9
$DIMTOH
 70
     1
  9
$DIMSE1
 70
     0
  9
$DIMSE2
 70
     0
  9
$DIMTAD
 70
     0
  9
$DIMZIN
 70
     0
  9
$DIMBLK
  1

  9
$DIMASO
 70
     1
  9
$DIMSHO
 70
     1
  9
$DIMPOST
  1

  9
$DIMAPOST
  1

  9
$DIMALT
 70
     0
  9
$DIMALTD
 70
     2
  9
$DIMALTF
 40
25.4
  9
$DIMLFAC
 40
1.0
  9
$DIMTOFL
 70
     0
  9
$DIMTVP
 40
0.0
  9
$DIMTIX
 70
     0
  9
$DIMSOXD
 70
     0
  9
$DIMSAH
 70
     0
  9
$DIMBLK1
  1

  9
$DIMBLK2
  1

  9
$DIMSTYLE
  2
STANDARD
  9
$DIMCLRD
 70
     0
  9
$DIMCLRE
 70
     0
  9
$DIMCLRT
 70
     0
  9
$DIMTFAC
 40
1.0
  9
$DIMGAP
 40
0.09
  9
$DIMJUST
 70
     0
  9
$DIMSD1
 70
     0
  9
$DIMSD2
 70
     0
  9
$DIMTOLJ
 70
     1
  9
$DIMTZIN
 70
     0
  9
$DIMALTZ
 70
     0
  9
$DIMALTTZ
 70
     0
  9
$DIMFIT
 70
     3
  9
$DIMUPT
 70
     0
  9
$DIMUNIT
 70
     2
  9
$DIMDEC
 70
     4
  9
$DIMTDEC
 70
     4
  9
$DIMALTU
 70
     2
  9
$DIMALTTD
 70
     2
  9
$DIMTXSTY
  7
STANDARD
  9
$DIMAUNIT
 70
     0
  9
$LUNITS
 70
     2
  9
$LUPREC
 70
     4
  9
$SKETCHINC
 40
0.1
  9
$FILLETRAD
 40
0.5
  9
$AUNITS
 70
     0
  9
$AUPREC
 70
     0
  9
$MENU
  1
.
  9
$ELEVATION
 40
0.0
  9
$PELEVATION
 40
0.0
  9
$THICKNESS
 40
0.0
  9
$LIMCHECK
 70
     0
  9
$CHAMFERA
 40
0.5
  9
$CHAMFERB
 40
0.5
  9
$CHAMFERC
 40
1.0
  9
$CHAMFERD
 40
0.0
  9
$SKPOLY
 70
     0
  9
$TDCREATE
 40
2453762.546252998
  9
$TDUPDATE
 40
2453762.546253009
  9
$TDINDWG
 40
0.0000000116
  9
$TDUSRTIMER
 40
0.0000000116
  9
$USRTIMER
 70
     1
  9
$ANGBASE
 50
0.0
  9
$ANGDIR
 70
     0
  9
$PDMODE
 70
     0
  9
$PDSIZE
 40
0.0
  9
$PLINEWID
 40
0.0
  9
$COORDS
 70
     1
  9
$SPLFRAME
 70
     0
  9
$SPLINETYPE
 70
     6
  9
$SPLINESEGS
 70
     8
  9
$ATTDIA
 70
     0
  9
$ATTREQ
 70
     1
  9
$HANDLING
 70
     1
  9
$HANDSEED
  5
199
  9
$SURFTAB1
 70
     6
  9
$SURFTAB2
 70
     6
  9
$SURFTYPE
 70
     6
  9
$SURFU
 70
     6
  9
$SURFV
 70
     6
  9
$UCSNAME
  2

  9
$UCSORG
 10
0.0
 20
0.0
 30
0.0
  9
$UCSXDIR
 10
1.0
 20
0.0
 30
0.0
  9
$UCSYDIR
 10
0.0
 20
1.0
 30
0.0
  9
$PUCSNAME
  2

  9
$PUCSORG
 10
0.0
 20
0.0
 30
0.0
  9
$PUCSXDIR
 10
1.0
 20
0.0
 30
0.0
  9
$PUCSYDIR
 10
0.0
 20
1.0
 30
0.0
  9
$USERI1
 70
     0
  9
$USERI2
 70
     0
  9
$USERI3
 70
     0
  9
$USERI4
 70
     0
  9
$USERI5
 70
     0
  9
$USERR1
 40
0.0
  9
$USERR2
 40
0.0
  9
$USERR3
 40
0.0
  9
$USERR4
 40
0.0
  9
$USERR5
 40
0.0
  9
$WORLDVIEW
 70
     1
  9
$SHADEDGE
 70
     3
  9
$SHADEDIF
 70
    70
  9
$TILEMODE
 70
     1
  9
$MAXACTVP
 70
    64
  9
$PINSBASE
 10
0.0
 20
0.0
 30
0.0
  9
$PLIMCHECK
 70
     0
  9
$PEXTMIN
 10
0.0
 20
0.0
 30
0.0
  9
$PEXTMAX
 10
210.0
 20
297.0
 30
0.0
  9
$PLIMMIN
 10
0.0
 20
0.0
  9
$PLIMMAX
 10
12.0
 20
9.0
  9
$UNITMODE
 70
     0
  9
$VISRETAIN
 70
     1
  9
$PLINEGEN
 70
     0
  9
$PSLTSCALE
 70
     1
  9
$TREEDEPTH
 70
  3020
  9
$PICKSTYLE
 70
     1
  9
$CMLSTYLE
  2
STANDARD
  9
$CMLJUST
 70
     0
  9
$CMLSCALE
 40
1.0
  9
$SAVEIMAGES
 70
     1
  0
ENDSEC
  0
SECTION
  2
CLASSES
  0
CLASS
  1
ACDBDICTIONARYWDFLT
  2
AcDbDictionaryWithDefault
  3
ObjectDBX Classes
 90
        0
280
     0
281
     0
  0
CLASS
  1
TABLESTYLE
  2
AcDbTableStyle
  3
ObjectDBX Classes
 90
     2047
280
     0
281
     0
  0
CLASS
  1
DICTIONARYVAR
  2
AcDbDictionaryVar
  3
ObjectDBX Classes
 90
        0
280
     0
281
     0
  0
CLASS
  1
XRECORD
  2
AcDbXrecord
  3
AutoCAD 2000
 90
    32768
280
     0
281
     0
  0
CLASS
  1
LWPOLYLINE
  2
AcDbPolyline
  3
AutoCAD 2000
 90
    32768
280
     0
281
     1
  0
CLASS
  1
HATCH
  2
AcDbHatch
  3
AutoCAD 2000
 90
    32768
280
     0
281
     1
  0
CLASS
  1
ACDBPLACEHOLDER
  2
AcDbPlaceHolder
  3
ObjectDBX Classes
 90
        0
280
     0
281
     0
  0
CLASS
  1
LAYOUT
  2
AcDbLayout
  3
ObjectDBX Classes
 90
        0
280
     0
281
     0
  0
ENDSEC
  0
SECTION
  2
TABLES
  0
TABLE
  2
VPORT
  5
8
330
0
100
AcDbSymbolTable
 70
     2
  0
VPORT
  5
29
102
{ACAD_XDICTIONARY
360
197
102
}
330
8
100
AcDbSymbolTableRecord
100
AcDbViewportTableRecord
  2
*ACTIVE
 70
     0
 10
0.0
 20
0.0
 11
1.0
 21
1.0
 12
10.4299065421
 22
4.5
 13
0.0
 23
0.0
 14
0.5
 24
0.5
 15
0.5
 25
0.5
 16
0.0
 26
0.0
 36
1.0
 17
0.0
 27
0.0
 37
0.0
 40
9.0
 41
1.9729729729
 42
50.0
 43
0.0
 44
0.0
 50
0.0
 51
0.0
 71
     0
 72
   100
 73
     1
 74
     3
 75
     0
 76
     0
 77
     0
 78
     0
  0
ENDTAB
  0
TABLE
  2
LTYPE
  5
5
330
0
100
AcDbSymbolTable
 70
     2
  0
LTYPE
  5
14
330
5
100
AcDbSymbolTableRecord
100
AcDbLinetypeTableRecord
  2
BYBLOCK
 70
     0
  3

 72
    65
 73
     0
 40
0.0
  0
LTYPE
  5
15
330
5
100
AcDbSymbolTableRecord
100
AcDbLinetypeTableRecord
  2
BYLAYER
 70
     0
  3

 72
    65
 73
     0
 40
0.0
  0
LTYPE
  5
16
330
5
100
AcDbSymbolTableRecord
100
AcDbLinetypeTableRecord
  2
CONTINUOUS
 70
     0
  3
Solid line
 72
    65
 73
     0
 40
0.0
  0
LTYPE
  5
33
330
5
100
AcDbSymbolTableRecord
100
AcDbLinetypeTableRecord
  2
CENTER2
 70
     0
  3
___ _ ___ _ ___ _ ___ _ ___ _ ___ _ ___ _ ___ _
 72
    65
 73
     4
 40
1.125
 49
0.75
 74
     4
 75
     0
340
0
 46
0.0
 50
0.0
 44
0.0
 45
0.0
 49
-0.125
 74
     4
 75
     0
340
0
 46
0.0
 50
0.0
 44
0.0
 45
0.0
 49
0.125
 74
     4
 75
     0
340
0
 46
0.0
 50
0.0
 44
0.0
 45
0.0
 49
-0.125
 74
     4
 75
     0
340
0
 46
0.0
 50
0.0
 44
0.0
 45
0.0
  0
ENDTAB
  0
TABLE
  2
LAYER
  5
2
330
0
100
AcDbSymbolTable
 70
     8
  0
LAYER
  5
10
330
2
100
AcDbSymbolTableRecord
100
AcDbLayerTableRecord
  2
0
 70
     0
 62
     7
  6
CONTINUOUS
  0
LAYER
  5
30
330
2
100
AcDbSymbolTableRecord
100
AcDbLayerTableRecord
  2
DEFAULT
 70
     0
 62
     7
  6
CONTINUOUS
  0
LAYER
  5
48
330
2
100
AcDbSymbolTableRecord
100
AcDbLayerTableRecord
  2
MEGA_002286
 70
     0
 62
     7
  6
CONTINUOUS
  0
LAYER
  5
59
330
2
100
AcDbSymbolTableRecord
100
AcDbLayerTableRecord
  2
MEGA_000915
 70
     0
 62
     7
  6
CONTINUOUS
  0
LAYER
  5
5E
330
2
100
AcDbSymbolTableRecord
100
AcDbLayerTableRecord
  2
MEGA_002278
 70
     0
 62
     7
  6
CONTINUOUS
  0
LAYER
  5
67
330
2
100
AcDbSymbolTableRecord
100
AcDbLayerTableRecord
  2
MEGA_002203
 70
     0
 62
     7
  6
CONTINUOUS
  0
LAYER
  5
7C
330
2
100
AcDbSymbolTableRecord
100
AcDbLayerTableRecord
  2
STANDARD
 70
     0
 62
     7
  6
CONTINUOUS
  0
LAYER
  5
103
330
2
100
AcDbSymbolTableRecord
100
AcDbLayerTableRecord
  2
MEGA_002282
 70
     0
 62
     7
  6
CONTINUOUS
  0
ENDTAB
  0
TABLE
  2
STYLE
  5
3
330
0
100
AcDbSymbolTable
 70
     3
  0
STYLE
  5
11
330
3
100
AcDbSymbolTableRecord
100
AcDbTextStyleTableRecord
  2
STANDARD
 70
     0
 40
0.0
 41
1.0
 50
0.0
 71
     0
 42
0.2
  3
txt
  4

  0
STYLE
  5
2E
330
3
100
AcDbSymbolTableRecord
100
AcDbTextStyleTableRecord
  2
SEACAD_SEISO_TTF
 70
     0
 40
0.2
 41
1.0
 50
0.0
 71
     0
 42
0.2
  3
seiso.ttf
  4

  0
STYLE
  5
E8
330
3
100
AcDbSymbolTableRecord
100
AcDbTextStyleTableRecord
  2
SEACAD_SEMECI1_TTF
 70
     0
 40
0.2
 41
1.0
 50
0.0
 71
     0
 42
0.2
  3
semeci1.ttf
  4

  0
ENDTAB
  0
TABLE
  2
VIEW
  5
6
330
0
100
AcDbSymbolTable
 70
     0
  0
ENDTAB
  0
TABLE
  2
UCS
  5
7
330
0
100
AcDbSymbolTable
 70
     0
  0
ENDTAB
  0
TABLE
  2
APPID
  5
9
330
0
100
AcDbSymbolTable
 70
     1
  0
APPID
  5
12
330
9
100
AcDbSymbolTableRecord
100
AcDbRegAppTableRecord
  2
ACAD
 70
     0
  0
ENDTAB
  0
TABLE
  2
DIMSTYLE
  5
A
330
0
100
AcDbSymbolTable
 70
     1
  0
DIMSTYLE
105
27
330
A
100
AcDbSymbolTableRecord
100
AcDbDimStyleTableRecord
  2
STANDARD
 70
     0
  3

  4

  5

  6

  7

 40
1.0
 41
0.18
 42
0.0625
 43
0.38
 44
0.18
 45
0.0
 46
0.0
 47
0.0
 48
0.0
140
0.18
141
0.09
142
0.0
143
25.4
144
1.0
145
0.0
146
1.0
147
0.09
 71
     0
 72
     0
 73
     1
 74
     1
 75
     0
 76
     0
 77
     0
 78
     0
170
     0
171
     2
172
     0
173
     0
174
     0
175
     0
176
     0
177
     0
178
     0
270
     2
271
     4
272
     4
273
     2
274
     2
340
11
275
     0
280
     0
281
     0
282
     0
283
     1
284
     0
285
     0
286
     0
287
     3
288
     0
  0
ENDTAB
  0
TABLE
  2
BLOCK_RECORD
  5
1
330
0
100
AcDbSymbolTable
 70
    20
  0
BLOCK_RECORD
  5
1F
330
1
100
AcDbSymbolTableRecord
100
AcDbBlockTableRecord
  2
*MODEL_SPACE
  0
BLOCK_RECORD
  5
1B
330
1
100
AcDbSymbolTableRecord
100
AcDbBlockTableRecord
  2
*PAPER_SPACE
  0
BLOCK_RECORD
  5
31
330
1
100
AcDbSymbolTableRecord
100
AcDbBlockTableRecord
  2
SE
  0
BLOCK_RECORD
  5
37
330
1
100
AcDbSymbolTableRecord
100
AcDbBlockTableRecord
  2
SE1
  0
BLOCK_RECORD
  5
3C
330
1
100
AcDbSymbolTableRecord
100
AcDbBlockTableRecord
  2
SE2
  0
BLOCK_RECORD
  5
41
330
1
100
AcDbSymbolTableRecord
100
AcDbBlockTableRecord
  2
SE3
  0
BLOCK_RECORD
  5
46
330
1
100
AcDbSymbolTableRecord
100
AcDbBlockTableRecord
  2
SE4
  0
BLOCK_RECORD
  5
81
330
1
100
AcDbSymbolTableRecord
100
AcDbBlockTableRecord
  2
SE5
  0
BLOCK_RECORD
  5
9B
330
1
100
AcDbSymbolTableRecord
100
AcDbBlockTableRecord
  2
SE6
  0
BLOCK_RECORD
  5
A4
330
1
100
AcDbSymbolTableRecord
100
AcDbBlockTableRecord
  2
SE7
  0
BLOCK_RECORD
  5
AE
330
1
100
AcDbSymbolTableRecord
100
AcDbBlockTableRecord
  2
SE8
  0
BLOCK_RECORD
  5
B8
330
1
100
AcDbSymbolTableRecord
100
AcDbBlockTableRecord
  2
SE9
  0
BLOCK_RECORD
  5
C2
330
1
100
AcDbSymbolTableRecord
100
AcDbBlockTableRecord
  2
SE10
  0
BLOCK_RECORD
  5
CC
330
1
100
AcDbSymbolTableRecord
100
AcDbBlockTableRecord
  2
SE11
  0
BLOCK_RECORD
  5
D6
330
1
100
AcDbSymbolTableRecord
100
AcDbBlockTableRecord
  2
SE12
  0
BLOCK_RECORD
  5
E0
330
1
100
AcDbSymbolTableRecord
100
AcDbBlockTableRecord
  2
SE13
  0
BLOCK_RECORD
  5
EC
330
1
100
AcDbSymbolTableRecord
100
AcDbBlockTableRecord
  2
SE14
  0
BLOCK_RECORD
  5
F7
330
1
100
AcDbSymbolTableRecord
100
AcDbBlockTableRecord
  2
SE15
  0
BLOCK_RECORD
  5
101
330
1
100
AcDbSymbolTableRecord
100
AcDbBlockTableRecord
  2
SE16
  0
BLOCK_RECORD
  5
10F
330
1
100
AcDbSymbolTableRecord
100
AcDbBlockTableRecord
  2
SE17
  0
BLOCK_RECORD
  5
11A
330
1
100
AcDbSymbolTableRecord
100
AcDbBlockTableRecord
  2
SE18
  0
ENDTAB
  0
ENDSEC
  0
SECTION
  2
BLOCKS
  0
BLOCK
  5
20
330
1F
100
AcDbEntity
  8
0
100
AcDbBlockBegin
  2
*MODEL_SPACE
 70
     0
 71
     0
 10
0.0
 20
0.0
 30
0.0
  3
*MODEL_SPACE
  1

  0
ENDBLK
  5
21
330
1F
100
AcDbEntity
  8
0
100
AcDbBlockEnd
  0
BLOCK
  5
1C
330
1B
100
AcDbEntity
 67
     1
  8
0
100
AcDbBlockBegin
  2
*PAPER_SPACE
 70
     0
 71
     0
 10
0.0
 20
0.0
 30
0.0
  3
*PAPER_SPACE
  1

  0
ENDBLK
  5
1D
330
1B
100
AcDbEntity
 67
     1
  8
0
100
AcDbBlockEnd
  0
BLOCK
  5
35
330
31
100
AcDbEntity
  8
0
100
AcDbBlockBegin
  2
SE
 70
     0
 71
     0
 10
0.0
 20
0.0
 30
0.0
  3
SE
  1

  0
LINE
  5
34
330
31
100
AcDbEntity
  8
DEFAULT
  6
CENTER2
 62
     7
 48
25.4
100
AcDbLine
 10
105.6278306358
 20
211.0153350509
 30
0.0
 11
186.3297465654
 21
211.0153350509
 31
0.0
  0
ENDBLK
  5
36
330
31
100
AcDbEntity
  8
0
100
AcDbBlockEnd
  0
BLOCK
  5
3A
330
37
100
AcDbEntity
  8
0
100
AcDbBlockBegin
  2
SE1
 70
     0
 71
     0
 10
0.0
 20
0.0
 30
0.0
  3
SE1
  1

  0
LINE
  5
39
330
37
100
AcDbEntity
  8
DEFAULT
  6
CENTER2
 62
     7
 48
25.4
100
AcDbLine
 10
49.0301590655
 20
253.7399528247
 30
0.0
 11
49.0301590655
 21
73.8549348249
 31
0.0
  0
ENDBLK
  5
3B
330
37
100
AcDbEntity
  8
0
100
AcDbBlockEnd
  0
BLOCK
  5
3F
330
3C
100
AcDbEntity
  8
0
100
AcDbBlockBegin
  2
SE2
 70
     0
 71
     0
 10
0.0
 20
0.0
 30
0.0
  3
SE2
  1

  0
LINE
  5
3E
330
3C
100
AcDbEntity
  8
DEFAULT
  6
CENTER2
 62
     7
 48
25.4
100
AcDbLine
 10
205.0450264214
 20
189.5153350509
 30
0.0
 11
149.8159143335
 21
189.5153350509
 31
0.0
  0
ENDBLK
  5
40
330
3C
100
AcDbEntity
  8
0
100
AcDbBlockEnd
  0
BLOCK
  5
44
330
41
100
AcDbEntity
  8
0
100
AcDbBlockBegin
  2
SE3
 70
     0
 71
     0
 10
0.0
 20
0.0
 30
0.0
  3
SE3
  1

  0
LINE
  5
43
330
41
100
AcDbEntity
  8
DEFAULT
  6
CENTER2
 62
     7
 48
25.4
100
AcDbLine
 10
204.2876432161
 20
232.5153350509
 30
0.0
 11
149.8159143335
 21
232.5153350509
 31
0.0
  0
ENDBLK
  5
45
330
41
100
AcDbEntity
  8
0
100
AcDbBlockEnd
  0
BLOCK
  5
7F
330
46
100
AcDbEntity
  8
0
100
AcDbBlockBegin
  2
SE4
 70
     0
 71
     0
 10
0.0
 20
0.0
 30
0.0
  3
SE4
  1

  0
LINE
  5
49
330
46
100
AcDbEntity
  8
MEGA_002286
  6
CONTINUOUS
 62
     7
 48
25.4
100
AcDbLine
 10
109.1444916452
 20
81.0153350509
 30
0.0
 11
109.1444916452
 21
226.5601044447
 31
0.0
  0
LINE
  5
4A
330
46
100
AcDbEntity
  8
MEGA_002286
  6
CONTINUOUS
 62
     7
 48
25.4
100
AcDbLine
 10
113.2467094139
 20
77.0153350509
 30
0.0
 11
115.1444916452
 21
77.0153350509
 31
0.0
  0
LINE
  5
4B
330
46
100
AcDbEntity
  8
MEGA_002286
  6
CONTINUOUS
 62
     7
 48
25.4
100
AcDbLine
 10
140.1444916452
 20
245.0153350509
 30
0.0
 11
140.1444916452
 21
232.3288040779
 31
0.0
  0
LINE
  5
4C
330
46
100
AcDbEntity
  8
MEGA_002286
  6
CONTINUOUS
 62
     7
 48
25.4
100
AcDbLine
 10
139.1444916452
 20
177.0153350509
 30
0.0
 11
140.1444916452
 21
177.0153350509
 31
0.0
  0
LINE
  5
4D
330
46
100
AcDbEntity
  8
MEGA_002286
  6
CONTINUOUS
 62
     7
 48
25.4
100
AcDbLine
 10
119.1444916452
 20
81.0153350509
 30
0.0
 11
119.1444916452
 21
157.0153350509
 31
0.0
  0
ARC
  5
4E
330
46
100
AcDbEntity
  8
MEGA_002286
  6
CONTINUOUS
 62
     7
 48
25.4
100
AcDbCircle
 10
139.1444916452
 20
157.0153350509
 30
0.0
 40
20.0
100
AcDbArc
 50
90.0
 51
180.0
  0
ARC
  5
4F
330
46
100
AcDbEntity
  8
MEGA_002286
  6
CONTINUOUS
 62
     7
 48
25.4
100
AcDbCircle
 10
115.1444916452
 20
81.0153350509
 30
0.0
 40
4.0
100
AcDbArc
 50
270.0
 51
360.0
  0
ARC
  5
50
330
46
100
AcDbEntity
  8
MEGA_002286
  6
CONTINUOUS
 62
     7
 48
25.4
100
AcDbCircle
 10
113.1444916452
 20
81.0153350509
 30
0.0
 40
4.0
100
AcDbArc
 50
180.0
 51
270.0
  0
ARC
  5
51
330
46
100
AcDbEntity
  8
MEGA_002286
  6
CONTINUOUS
 62
     7
 48
25.4
100
AcDbCircle
 10
113.153726025
 20
235.1471478897
 30
0.0
 40
4.009241999799998
100
AcDbArc
 50
102.2149240602
 51
180.1117076182
  0
LINE
  5
52
330
46
100
AcDbEntity
  8
MEGA_002286
  6
CONTINUOUS
 62
     7
 48
25.4
100
AcDbLine
 10
140.1444916452
 20
177.0153350509
 30
0.0
 11
140.1444916452
 21
180.0691222058
 31
0.0
  0
LINE
  5
53
330
46
100
AcDbEntity
  8
MEGA_002286
  6
CONTINUOUS
 62
     7
 48
25.4
100
AcDbLine
 10
140.1444916452
 20
183.4614215829
 30
0.0
 11
140.1444916452
 21
180.0691222058
 31
0.0
  0
LINE
  5
54
330
46
100
AcDbEntity
  8
MEGA_002286
  6
CONTINUOUS
 62
     7
 48
25.4
100
AcDbLine
 10
113.2467094139
 20
77.0153350509
 30
0.0
 11
113.1444916452
 21
77.0153350509
 31
0.0
  0
LINE
  5
55
330
46
100
AcDbEntity
  8
MEGA_002286
  6
CONTINUOUS
 62
     7
 48
25.4
100
AcDbLine
 10
109.1444916452
 20
226.5601044447
 30
0.0
 11
109.1444916452
 21
235.1393312129
 31
0.0
  0
ELLIPSE
  5
56
330
46
100
AcDbEntity
  8
MEGA_002286
  6
CONTINUOUS
 62
     7
 48
25.4
100
AcDbEllipse
 10
140.3626799568
 20
232.2824549724
 30
0.0
 11
358.1619254113955
 21
76.12966738656117
 31
0.0
210
0.0
220
0.0
230
1.0
 40
0.0341377577
 41
1.570796326794897
 42
1.641955233894725
  0
LINE
  5
57
330
46
100
AcDbEntity
  8
MEGA_002286
  6
CONTINUOUS
 62
     7
 48
25.4
100
AcDbLine
 10
137.7637838216
 20
244.5092999816
 30
0.0
 11
140.1444916452
 21
245.0153350509
 31
0.0
  0
LINE
  5
58
330
46
100
AcDbEntity
  8
MEGA_002286
  6
CONTINUOUS
 62
     7
 48
25.4
100
AcDbLine
 10
140.1444916452
 20
232.3288040779
 30
0.0
 11
140.1444916452
 21
183.4614215829
 31
0.0
  0
ARC
  5
5A
330
46
100
AcDbEntity
  8
MEGA_000915
  6
CONTINUOUS
 62
     7
 48
25.4
100
AcDbCircle
 10
141.6444916452
 20
220.5153350509
 30
0.0
 40
0.5
100
AcDbArc
 50
0.0
 51
90.0
  0
LINE
  5
5B
330
46
100
AcDbEntity
  8
MEGA_000915
  6
CONTINUOUS
 62
     7
 48
25.4
100
AcDbLine
 10
140.1444916452
 20
201.0153350509
 30
0.0
 11
141.6444916452
 21
201.0153350509
 31
0.0
  0
ARC
  5
5C
330
46
100
AcDbEntity
  8
MEGA_000915
  6
CONTINUOUS
 62
     7
 48
25.4
100
AcDbCircle
 10
141.6444916452
 20
201.5153350509
 30
0.0
 40
0.5
100
AcDbArc
 50
270.0
 51
360.0
  0
LINE
  5
5D
330
46
100
AcDbEntity
  8
MEGA_000915
  6
CONTINUOUS
 62
     7
 48
25.4
100
AcDbLine
 10
141.6444916452
 20
221.0153350509
 30
0.0
 11
140.1444916452
 21
221.0153350509
 31
0.0
  0
LINE
  5
5F
330
46
100
AcDbEntity
  8
MEGA_002278
  6
CONTINUOUS
 62
     7
 48
25.4
100
AcDbLine
 10
182.4331335867
 20
207.5153350509
 30
0.0
 11
154.1444916452
 21
207.5153350509
 31
0.0
  0
LINE
  5
60
330
46
100
AcDbEntity
  8
MEGA_002278
  6
CONTINUOUS
 62
     7
 48
25.4
100
AcDbLine
 10
182.4331335867
 20
214.5153350509
 30
0.0
 11
154.1444916452
 21
214.5153350509
 31
0.0
  0
LINE
  5
61
330
46
100
AcDbEntity
  8
MEGA_002278
  6
CONTINUOUS
 62
     7
 48
25.4
100
AcDbLine
 10
184.1444916452
 20
214.2537244607
 30
0.0
 11
184.1444916452
 21
207.7769456411
 31
0.0
  0
LINE
  5
62
330
46
100
AcDbEntity
  8
MEGA_002278
  6
CONTINUOUS
 62
     7
 48
25.4
100
AcDbLine
 10
184.1444916452
 20
214.2537244607
 30
0.0
 11
183.882881055
 21
214.5153350509
 31
0.0
  0
LINE
  5
63
330
46
100
AcDbEntity
  8
MEGA_002278
  6
CONTINUOUS
 62
     7
 48
25.4
100
AcDbLine
 10
183.8828808684
 20
214.5153350509
 30
0.0
 11
182.4331335867
 21
214.5153350509
 31
0.0
  0
LINE
  5
64
330
46
100
AcDbEntity
  8
MEGA_002278
  6
CONTINUOUS
 62
     7
 48
25.4
100
AcDbLine
 10
182.4331335867
 20
207.5153350509
 30
0.0
 11
183.8828808684
 21
207.5153350509
 31
0.0
  0
LINE
  5
65
330
46
100
AcDbEntity
  8
MEGA_002278
  6
CONTINUOUS
 62
     7
 48
25.4
100
AcDbLine
 10
183.882881055
 20
207.5153350509
 30
0.0
 11
184.1444916452
 21
207.7769456411
 31
0.0
  0
SPLINE
  5
66
330
46
100
AcDbEntity
  8
MEGA_002278
  6
CONTINUOUS
 62
     7
 48
25.4
100
AcDbSpline
210
0.0
220
0.0
230
1.0
 70
     8
 71
     3
 72
    17
 73
    13
 74
     0
 42
0.0000000001
 43
0.0000000001
 40
0.0
 40
0.0
 40
0.0
 40
0.0
 40
0.25
 40
0.25
 40
0.25
 40
0.5
 40
0.5
 40
0.5
 40
0.75
 40
0.75
 40
0.75
 40
1.0
 40
1.0
 40
1.0
 40
1.0
 10
182.433133586672
 20
207.5153350509162
 30
0.0
 10
182.8004800722038
 20
208.0348414328451
 30
0.0
 10
183.1506510281865
 20
208.5813054092029
 30
0.0
 10
183.4221654542723
 20
209.1613479771548
 30
0.0
 10
183.6936798803581
 20
209.7413905451068
 30
0.0
 10
183.8830906112948
 20
210.3741061515378
 30
0.0
 10
183.8828808684092
 20
211.0164778474369
 30
0.0
 10
183.8826711255235
 20
211.658849543336
 30
0.0
 10
183.6913070245257
 20
212.2963356946991
 30
0.0
 10
183.4183267747599
 20
212.8775086842815
 30
0.0
 10
183.1453465249941
 20
213.4586816738639
 30
0.0
 10
182.8012969839028
 20
213.9946733813841
 30
0.0
 10
182.4331335866728
 20
214.5153350509162
 30
0.0
  0
LINE
  5
68
330
46
100
AcDbEntity
  8
MEGA_002203
  6
CONTINUOUS
 62
     7
 48
25.4
100
AcDbLine
 10
154.1444916452
 20
184.6606046613
 30
0.0
 11
159.1619440516
 21
184.7481846189
 31
0.0
  0
LINE
  5
69
330
46
100
AcDbEntity
  8
MEGA_002203
  6
CONTINUOUS
 62
     7
 48
25.4
100
AcDbLine
 10
142.1444916452
 20
176.7806953752
 30
0.0
 11
142.1444916452
 21
189.5153350509
 31
0.0
  0
LINE
  5
6A
330
46
100
AcDbEntity
  8
MEGA_002203
  6
CONTINUOUS
 62
     7
 48
25.4
100
AcDbLine
 10
154.1444916452
 20
173.0153350509
 30
0.0
 11
154.1444916452
 21
189.5153350509
 31
0.0
  0
LINE
  5
6B
330
46
100
AcDbEntity
  8
MEGA_002203
  6
CONTINUOUS
 62
     7
 48
25.4
100
AcDbLine
 10
154.1444916452
 20
249.0153350509
 30
0.0
 11
154.1444916452
 21
232.5153350509
 31
0.0
  0
LINE
  5
6C
330
46
100
AcDbEntity
  8
MEGA_002203
  6
CONTINUOUS
 62
     7
 48
25.4
100
AcDbLine
 10
159.1619440516
 20
194.282485483
 30
0.0
 11
154.1444916452
 21
194.3700654405
 31
0.0
  0
LINE
  5
6D
330
46
100
AcDbEntity
  8
MEGA_002203
  6
CONTINUOUS
 62
     7
 48
25.4
100
AcDbLine
 10
160.1444916452
 20
228.748032314
 30
0.0
 11
160.1444916452
 21
236.2826377878
 31
0.0
  0
LINE
  5
6E
330
46
100
AcDbEntity
  8
MEGA_002203
  6
CONTINUOUS
 62
     7
 48
25.4
100
AcDbLine
 10
154.1444916452
 20
227.6606046613
 30
0.0
 11
159.1619440516
 21
227.7481846189
 31
0.0
  0
LINE
  5
6F
330
46
100
AcDbEntity
  8
MEGA_002203
  6
CONTINUOUS
 62
     7
 48
25.4
100
AcDbLine
 10
160.1444916452
 20
185.748032314
 30
0.0
 11
160.1444916452
 21
193.2826377878
 31
0.0
  0
LINE
  5
70
330
46
100
AcDbEntity
  8
MEGA_002203
  6
CONTINUOUS
 62
     7
 48
25.4
100
AcDbLine
 10
159.1619440516
 20
237.282485483
 30
0.0
 11
154.1444916452
 21
237.3700654405
 31
0.0
  0
LINE
  5
71
330
46
100
AcDbEntity
  8
MEGA_002203
  6
CONTINUOUS
 62
     7
 48
25.4
100
AcDbLine
 10
154.1444916452
 20
189.5153350509
 30
0.0
 11
154.1444916452
 21
232.5153350509
 31
0.0
  0
LINE
  5
72
330
46
100
AcDbEntity
  8
MEGA_002203
  6
CONTINUOUS
 62
     7
 48
25.4
100
AcDbLine
 10
154.1444916452
 20
249.0153350509
 30
0.0
 11
143.3326233904
 21
246.717195975
 31
0.0
  0
ARC
  5
73
330
46
100
AcDbEntity
  8
MEGA_002203
  6
CONTINUOUS
 62
     7
 48
25.4
100
AcDbCircle
 10
159.1444916452
 20
185.748032314
 30
0.0
 40
1.0
100
AcDbArc
 50
271.0
 51
360.0
  0
ARC
  5
74
330
46
100
AcDbEntity
  8
MEGA_002203
  6
CONTINUOUS
 62
     7
 48
25.4
100
AcDbCircle
 10
159.1444916452
 20
228.748032314
 30
0.0
 40
1.0
100
AcDbArc
 50
271.0
 51
360.0
  0
ARC
  5
75
330
46
100
AcDbEntity
  8
MEGA_002203
  6
CONTINUOUS
 62
     7
 48
25.4
100
AcDbCircle
 10
159.1444916452
 20
193.2826377878
 30
0.0
 40
1.0
100
AcDbArc
 50
0.0
 51
89.0
  0
ARC
  5
76
330
46
100
AcDbEntity
  8
MEGA_002203
  6
CONTINUOUS
 62
     7
 48
25.4
100
AcDbCircle
 10
159.1444916452
 20
236.2826377878
 30
0.0
 40
1.0
100
AcDbArc
 50
0.0
 51
89.0
  0
LINE
  5
77
330
46
100
AcDbEntity
  8
MEGA_002203
  6
CONTINUOUS
 62
     7
 48
25.4
100
AcDbLine
 10
142.1444916452
 20
245.2499747266
 30
0.0
 11
142.1444916452
 21
232.5153350509
 31
0.0
  0
LINE
  5
78
330
46
100
AcDbEntity
  8
MEGA_002203
  6
CONTINUOUS
 62
     7
 48
25.4
100
AcDbLine
 10
142.1444916452
 20
189.5153350509
 30
0.0
 11
142.1444916452
 21
232.5153350509
 31
0.0
  0
ARC
  5
79
330
46
100
AcDbEntity
  8
MEGA_002203
  6
CONTINUOUS
 62
     7
 48
25.4
100
AcDbCircle
 10
143.6444916452
 20
176.7806953752
 30
0.0
 40
1.5
100
AcDbArc
 50
180.0
 51
257.9999719388
  0
ARC
  5
7A
330
46
100
AcDbEntity
  8
MEGA_002203
  6
CONTINUOUS
 62
     7
 48
25.4
100
AcDbCircle
 10
143.6444916452
 20
245.2499747266
 30
0.0
 40
1.5
100
AcDbArc
 50
102.0000280612
 51
180.0
  0
LINE
  5
7B
330
46
100
AcDbEntity
  8
MEGA_002203
  6
CONTINUOUS
 62
     7
 48
25.4
100
AcDbLine
 10
143.3326233904
 20
175.3134741269
 30
0.0
 11
154.1444916452
 21
173.0153350509
 31
0.0
  0
LINE
  5
7D
330
46
100
AcDbEntity
  8
STANDARD
  6
CONTINUOUS
 62
     7
 48
25.4
100
AcDbLine
 10
184.1444916452
 20
214.0363570604
 30
0.0
 11
154.1444916452
 21
207.5153350509
 31
0.0
  0
LINE
  5
7E
330
46
100
AcDbEntity
  8
STANDARD
  6
CONTINUOUS
 62
     7
 48
25.4
100
AcDbLine
 10
184.1444916452
 20
207.9943130415
 30
0.0
 11
154.1444916452
 21
214.5153350509
 31
0.0
  0
ENDBLK
  5
80
330
46
100
AcDbEntity
  8
0
100
AcDbBlockEnd
  0
BLOCK
  5
99
330
81
100
AcDbEntity
  8
0
100
AcDbBlockBegin
  2
SE5
 70
     0
 71
     0
 10
0.0
 20
0.0
 30
0.0
  3
SE5
  1

  0
LINE
  5
83
330
81
100
AcDbEntity
  8
MEGA_002286
  6
CONTINUOUS
 62
     7
 48
25.4
100
AcDbLine
 10
56.584860112
 20
77.0153350509
 30
0.0
 11
41.4754580189
 21
77.0153350509
 31
0.0
  0
LINE
  5
84
330
81
100
AcDbEntity
  8
MEGA_002286
  6
CONTINUOUS
 62
     7
 48
25.4
100
AcDbLine
 10
37.4718884958
 20
157.0153350509
 30
0.0
 11
37.4718884958
 21
81.0153350509
 31
0.0
  0
LINE
  5
85
330
81
100
AcDbEntity
  8
MEGA_002286
  6
CONTINUOUS
 62
     7
 48
25.4
100
AcDbLine
 10
60.5884296351
 20
81.0153350509
 30
0.0
 11
60.5884296351
 21
157.0153350509
 31
0.0
  0
SPLINE
  5
86
330
81
100
AcDbEntity
  8
MEGA_002286
  6
CONTINUOUS
 62
     7
 48
25.4
100
AcDbSpline
210
0.0
220
0.0
230
1.0
 70
     8
 71
     3
 72
   158
 73
   154
 74
     0
 42
0.0000000001
 43
0.0000000001
 40
0.0
 40
0.0
 40
0.0
 40
0.0
 40
0.0067666233468656
 40
0.0067666233468656
 40
0.0067666233468656
 40
0.0191696786417943
 40
0.0191696786417943
 40
0.0191696786417943
 40
0.0326375417012125
 40
0.0326375417012125
 40
0.0326375417012125
 40
0.0471648336495645
 40
0.0471648336495645
 40
0.0471648336495645
 40
0.0627115484770475
 40
0.0627115484770475
 40
0.0627115484770475
 40
0.0792085447956723
 40
0.0792085447956723
 40
0.0792085447956723
 40
0.0965499517932748
 40
0.0965499517932748
 40
0.0965499517932748
 40
0.1148326801615824
 40
0.1148326801615824
 40
0.1148326801615824
 40
0.1334572392135229
 40
0.1334572392135229
 40
0.1334572392135229
 40
0.1525947724114183
 40
0.1525947724114183
 40
0.1525947724114183
 40
0.1721501623000459
 40
0.1721501623000459
 40
0.1721501623000459
 40
0.1920471807414524
 40
0.1920471807414524
 40
0.1920471807414524
 40
0.2122223269063082
 40
0.2122223269063082
 40
0.2122223269063082
 40
0.2326235621954169
 40
0.2326235621954169
 40
0.2326235621954169
 40
0.2532085979686101
 40
0.2532085979686101
 40
0.2532085979686101
 40
0.2739431944898771
 40
0.2739431944898771
 40
0.2739431944898771
 40
0.2947999455708768
 40
0.2947999455708768
 40
0.2947999455708768
 40
0.3158117804643595
 40
0.3158117804643595
 40
0.3158117804643595
 40
0.3366761694657152
 40
0.3366761694657152
 40
0.3366761694657152
 40
0.3577237254231882
 40
0.3577237254231882
 40
0.3577237254231882
 40
0.3789116534006027
 40
0.3789116534006027
 40
0.3789116534006027
 40
0.4002004601504096
 40
0.4002004601504096
 40
0.4002004601504096
 40
0.4215516740465144
 40
0.4215516740465144
 40
0.4215516740465144
 40
0.4429278937319507
 40
0.4429278937319507
 40
0.4429278937319507
 40
0.4642848701413063
 40
0.4642848701413063
 40
0.4642848701413063
 40
0.4855845650437914
 40
0.4855845650437914
 40
0.4855845650437914
 40
0.5068152062109755
 40
0.5068152062109755
 40
0.5068152062109755
 40
0.5280041602944505
 40
0.5280041602944505
 40
0.5280041602944505
 40
0.5492721470807271
 40
0.5492721470807271
 40
0.5492721470807271
 40
0.5706796481865882
 40
0.5706796481865882
 40
0.5706796481865882
 40
0.5921857560378577
 40
0.5921857560378577
 40
0.5921857560378577
 40
0.6137489432871909
 40
0.6137489432871909
 40
0.6137489432871909
 40
0.6353271792569244
 40
0.6353271792569244
 40
0.6353271792569244
 40
0.6568654252903752
 40
0.6568654252903752
 40
0.6568654252903752
 40
0.6783218796419451
 40
0.6783218796419451
 40
0.6783218796419451
 40
0.6996571311822071
 40
0.6996571311822071
 40
0.6996571311822071
 40
0.7208945356632266
 40
0.7208945356632266
 40
0.7208945356632266
 40
0.7421845148402045
 40
0.7421845148402045
 40
0.7421845148402045
 40
0.7636086341996662
 40
0.7636086341996662
 40
0.7636086341996662
 40
0.7851251932061855
 40
0.7851251932061855
 40
0.7851251932061855
 40
0.8067013893706054
 40
0.8067013893706054
 40
0.8067013893706054
 40
0.828303693507777
 40
0.828303693507777
 40
0.828303693507777
 40
0.8498922496295593
 40
0.8498922496295593
 40
0.8498922496295593
 40
0.8714285047331061
 40
0.8714285047331061
 40
0.8714285047331061
 40
0.8928800070627077
 40
0.8928800070627077
 40
0.8928800070627077
 40
0.9142199670914738
 40
0.9142199670914738
 40
0.9142199670914738
 40
0.9355300781204778
 40
0.9355300781204778
 40
0.9355300781204778
 40
0.956982267679252
 40
0.956982267679252
 40
0.956982267679252
 40
0.9784700828832389
 40
0.9784700828832389
 40
0.9784700828832389
 40
0.9999837543774146
 40
0.9999837543774146
 40
0.9999837543774146
 40
0.9999999999999999
 40
0.9999999999999999
 40
0.9999999999999999
 40
0.9999999999999999
 10
36.78423540510163
 20
182.2643070849119
 30
0.0
 10
36.78423471211376
 20
182.2643089676245
 30
0.0
 10
36.78446473692286
 20
182.2631694028264
 30
0.0
 10
36.78487942350915
 20
182.2609944215426
 30
0.0
 10
36.78563953389158
 20
182.2570077339813
 30
0.0
 10
36.78702007081055
 20
182.2495422546862
 30
0.0
 10
36.78883366590628
 20
182.2390853701946
 30
0.0
 10
36.79080295894044
 20
182.22773075756
 30
0.0
 10
36.79328285839
 20
182.2128490652713
 30
0.0
 10
36.79611675125004
 20
182.1948971510536
 30
0.0
 10
36.79917356796599
 20
182.1755330769076
 30
0.0
 10
36.80264226128565
 20
182.1525967538344
 30
0.0
 10
36.80639409976123
 20
182.1265133257367
 30
0.0
 10
36.81040921579702
 20
182.0985995466372
 30
0.0
 10
36.81474860952383
 20
182.0670814821407
 30
0.0
 10
36.81931238670241
 20
182.0323140218263
 30
0.0
 10
36.82415512139909
 20
181.9954214261121
 30
0.0
 10
36.82925050842994
 20
181.9548700604154
 30
0.0
 10
36.8345075207295
 20
181.9110815168746
 30
0.0
 10
36.84003361700286
 20
181.8650516250866
 30
0.0
 10
36.84573830781199
 20
181.8154446795442
 30
0.0
 10
36.85156786580904
 20
181.7624499112614
 30
0.0
 10
36.85771386223149
 20
181.7065784958919
 30
0.0
 10
36.8639986497747
 20
181.6469414818658
 30
0.0
 10
36.87037384340241
 20
181.5837768647988
 30
0.0
 10
36.87686823350625
 20
181.5194312640297
 30
0.0
 10
36.88345644192867
 20
181.4514249164451
 30
0.0
 10
36.89010193108618
 20
181.3799586460873
 30
0.0
 10
36.89693045620795
 20
181.3065239882417
 30
0.0
 10
36.90381946087237
 20
181.2294361903568
 30
0.0
 10
36.91074103391699
 20
181.1488658944684
 30
0.0
 10
36.91781373540524
 20
181.0665363939393
 30
0.0
 10
36.92492044302293
 20
180.9805706585976
 30
0.0
 10
36.93203935285485
 20
180.8911172238162
 30
0.0
 10
36.93928262854587
 20
180.8001010563233
 30
0.0
 10
36.94653853651539
 20
180.7054742662146
 30
0.0
 10
36.9537898865197
 20
180.6073677024708
 30
0.0
 10
36.96114259851825
 20
180.5078897696794
 30
0.0
 10
36.96849062423521
 20
180.4048341002539
 30
0.0
 10
36.97582016817173
 20
180.2983174648431
 30
0.0
 10
36.98323184931591
 20
180.1906071700348
 30
0.0
 10
36.99062463213323
 20
180.0793579052296
 30
0.0
 10
36.99798718705964
 20
179.9646784458212
 30
0.0
 10
37.00541607332043
 20
179.848965806811
 30
0.0
 10
37.01281418457361
 20
179.7297608875967
 30
0.0
 10
37.02017222514103
 20
179.6071566413374
 30
0.0
 10
37.0275837256132
 20
179.4836616129105
 30
0.0
 10
37.03495457101658
 20
179.3567176823187
 30
0.0
 10
37.04227622773778
 20
179.226443832546
 30
0.0
 10
37.04964101882874
 20
179.0954024952196
 30
0.0
 10
37.05695603995578
 20
178.9609918877651
 30
0.0
 10
37.06421314805007
 20
178.8232445271099
 30
0.0
 10
37.07152421756847
 20
178.6844729232365
 30
0.0
 10
37.07877650960836
 20
178.5423147597188
 30
0.0
 10
37.08596623673052
 20
178.3968588874464
 30
0.0
 10
37.09310551153688
 20
178.2524237195037
 30
0.0
 10
37.10018309641556
 20
178.1047369622997
 30
0.0
 10
37.1071932013981
 20
177.9539294546924
 30
0.0
 10
37.1142648475833
 20
177.8017980189256
 30
0.0
 10
37.12126782386951
 20
177.646490798558
 30
0.0
 10
37.12819759969177
 20
177.4881128427577
 30
0.0
 10
37.13517359212141
 20
177.3286786202055
 30
0.0
 10
37.14207540444257
 20
177.1661325664547
 30
0.0
 10
37.14889859064937
 20
177.000574916623
 30
0.0
 10
37.15575426302704
 20
176.8342290230095
 30
0.0
 10
37.16253055880752
 20
176.6648427877626
 30
0.0
 10
37.16922325628585
 20
176.4925070049884
 30
0.0
 10
37.1759355730954
 20
176.3196660278867
 30
0.0
 10
37.18256380075534
 20
176.1438581849883
 30
0.0
 10
37.18910378002804
 20
175.9651672873055
 30
0.0
 10
37.19565141869401
 20
175.7862671131401
 30
0.0
 10
37.2021106021449
 20
175.6044771271715
 30
0.0
 10
37.20847712768712
 20
175.4198741787907
 30
0.0
 10
37.21483792196298
 20
175.2354374134655
 30
0.0
 10
37.22110622507986
 20
175.048192748012
 30
0.0
 10
37.22727790934952
 20
174.8582127739164
 30
0.0
 10
37.23343304055624
 20
174.6687423447574
 30
0.0
 10
37.23949207050317
 20
174.4765512600118
 30
0.0
 10
37.24545024258989
 20
174.2817022299565
 30
0.0
 10
37.25138909824792
 20
174.0874849015949
 30
0.0
 10
37.25722774894923
 20
173.8906268341354
 30
0.0
 10
37.26296322037439
 20
173.6912003835263
 30
0.0
 10
37.26868743000696
 20
173.492165513514
 30
0.0
 10
37.27430886515758
 20
173.2905723366645
 30
0.0
 10
37.27982622244823
 20
173.0865649031757
 30
0.0
 10
37.28536415893582
 20
172.8817965421396
 30
0.0
 10
37.29079723971522
 20
172.6745958809997
 30
0.0
 10
37.2961236143928
 20
172.4650822467968
 30
0.0
 10
37.3014849291682
 20
172.2541942393438
 30
0.0
 10
37.30673813330287
 20
172.0409628138898
 30
0.0
 10
37.31188129990211
 20
171.8255035052935
 30
0.0
 10
37.3170481568385
 20
171.6090517529233
 30
0.0
 10
37.32210396020001
 20
171.3903515460925
 30
0.0
 10
37.32704651034577
 20
171.1695102522336
 30
0.0
 10
37.33200217852244
 20
170.9480828231146
 30
0.0
 10
37.33684399151446
 20
170.7245029265594
 30
0.0
 10
37.34156947943993
 20
170.4988719197775
 30
0.0
 10
37.34629826523347
 20
170.2730834475015
 30
0.0
 10
37.35091056353974
 20
170.0452410011036
 30
0.0
 10
37.35540358343227
 20
169.81544047689
 30
0.0
 10
37.35988827662101
 20
169.5860658312485
 30
0.0
 10
37.36425413309255
 20
169.3547403586942
 30
0.0
 10
37.36849806046308
 20
169.1215554077973
 30
0.0
 10
37.37272587148146
 20
168.8892559788362
 30
0.0
 10
37.37683267769417
 20
168.6551111674879
 30
0.0
 10
37.38081495048174
 20
168.4192088575879
 30
0.0
 10
37.3847747282825
 20
168.1846391081699
 30
0.0
 10
37.3886113756085
 20
167.9483316595695
 30
0.0
 10
37.39232137560916
 20
167.7103720971091
 30
0.0
 10
37.39601436092456
 20
167.473503857306
 30
0.0
 10
37.3995818579028
 20
167.2349986226393
 30
0.0
 10
37.40302406787116
 20
166.9949915472644
 30
0.0
 10
37.40647479927361
 20
166.7543903174096
 30
0.0
 10
37.40979962258464
 20
166.5122798018169
 30
0.0
 10
37.41299812200873
 20
166.268784772498
 30
0.0
 10
37.41621677397938
 20
166.023755572225
 30
0.0
 10
37.4193075052093
 20
165.7773243566591
 30
0.0
 10
37.42226978669728
 20
165.52961308857
 30
0.0
 10
37.42524484967936
 20
165.2808330091188
 30
0.0
 10
37.42809035207197
 20
165.0307618071091
 30
0.0
 10
37.43080548483041
 20
164.7795178078881
 30
0.0
 10
37.43352814308591
 20
164.5275774390453
 30
0.0
 10
37.43611970801818
 20
164.2744577627289
 30
0.0
 10
37.43857910819772
 20
164.020274215022
 30
0.0
 10
37.44104148433985
 20
163.7657830960876
 30
0.0
 10
37.44337137568751
 20
163.5102255295597
 30
0.0
 10
37.44556743303521
 20
163.2537160556963
 30
0.0
 10
37.44776209278059
 20
162.9973698281315
 30
0.0
 10
37.44982308881954
 20
162.7400729044603
 30
0.0
 10
37.45174876279555
 20
162.4819347716023
 30
0.0
 10
37.45366977158185
 20
162.224422011146
 30
0.0
 10
37.45545611318075
 20
161.9660721124379
 30
0.0
 10
37.45710593009272
 20
161.7070085315775
 30
0.0
 10
37.45874925439216
 20
161.4489644574512
 30
0.0
 10
37.46025712643608
 20
161.1902123073027
 30
0.0
 10
37.46162709358568
 20
160.9308225823451
 30
0.0
 10
37.46298993725808
 20
160.6727816173153
 30
0.0
 10
37.4642163064476
 20
160.4141096906885
 30
0.0
 10
37.46530556990575
 20
160.1550795481032
 30
0.0
 10
37.46639330977039
 20
159.8964117206607
 30
0.0
 10
37.46734432718523
 20
159.6373866786589
 30
0.0
 10
37.46816444195921
 20
159.3775750523777
 30
0.0
 10
37.46899002459307
 20
159.116031212978
 30
0.0
 10
37.46968295326208
 20
158.8536902657225
 30
0.0
 10
37.47022262457548
 20
158.5927440401563
 30
0.0
 10
37.47076319212089
 20
158.3313644612661
 30
0.0
 10
37.47114999285915
 20
158.0713842403394
 30
0.0
 10
37.47145994073451
 20
157.8051756369325
 30
0.0
 10
37.47177026157018
 20
157.5386467046864
 30
0.0
 10
37.47200354447755
 20
157.2658743917153
 30
0.0
 10
37.4718725686316
 20
157.0159419672467
 30
0.0
 10
37.47187246972779
 20
157.0157532357305
 30
0.0
 10
37.47187237061626
 20
157.0155645172382
 30
0.0
 10
37.47187225597581
 20
157.015345993549
 30
0.0
  0
SPLINE
  5
87
330
81
100
AcDbEntity
  8
MEGA_002286
  6
CONTINUOUS
 62
     7
 48
25.4
100
AcDbSpline
210
0.0
220
0.0
230
1.0
 70
     8
 71
     3
 72
   158
 73
   154
 74
     0
 42
0.0000000001
 43
0.0000000001
 40
0.0
 40
0.0
 40
0.0
 40
0.0
 40
0.0001655110566775
 40
0.0001655110566775
 40
0.0001655110566775
 40
0.0216337272793216
 40
0.0216337272793216
 40
0.0216337272793216
 40
0.0431175665553943
 40
0.0431175665553943
 40
0.0431175665553943
 40
0.0646134804901634
 40
0.0646134804901634
 40
0.0646134804901634
 40
0.0861177812840474
 40
0.0861177812840474
 40
0.0861177812840474
 40
0.1076263219158546
 40
0.1076263219158546
 40
0.1076263219158546
 40
0.1291342436053612
 40
0.1291342436053612
 40
0.1291342436053612
 40
0.1506376899643334
 40
0.1506376899643334
 40
0.1506376899643334
 40
0.1721329172535789
 40
0.1721329172535789
 40
0.1721329172535789
 40
0.193610940072954
 40
0.193610940072954
 40
0.193610940072954
 40
0.2150254351547693
 40
0.2150254351547693
 40
0.2150254351547693
 40
0.2364669478585836
 40
0.2364669478585836
 40
0.2364669478585836
 40
0.2579454537753852
 40
0.2579454537753852
 40
0.2579454537753852
 40
0.2794483987030519
 40
0.2794483987030519
 40
0.2794483987030519
 40
0.3009626893014412
 40
0.3009626893014412
 40
0.3009626893014412
 40
0.3224716634651006
 40
0.3224716634651006
 40
0.3224716634651006
 40
0.3439600550344438
 40
0.3439600550344438
 40
0.3439600550344438
 40
0.3654139545624217
 40
0.3654139545624217
 40
0.3654139545624217
 40
0.3868195468032553
 40
0.3868195468032553
 40
0.3868195468032553
 40
0.4081557971532766
 40
0.4081557971532766
 40
0.4081557971532766
 40
0.4294535446550409
 40
0.4294535446550409
 40
0.4294535446550409
 40
0.4508583368492219
 40
0.4508583368492219
 40
0.4508583368492219
 40
0.4723371634182765
 40
0.4723371634182765
 40
0.4723371634182765
 40
0.4938558296146638
 40
0.4938558296146638
 40
0.4938558296146638
 40
0.5153762895589547
 40
0.5153762895589547
 40
0.5153762895589547
 40
0.5368522517947385
 40
0.5368522517947385
 40
0.5368522517947385
 40
0.5582465917599795
 40
0.5582465917599795
 40
0.5582465917599795
 40
0.5795222139133537
 40
0.5795222139133537
 40
0.5795222139133537
 40
0.6006463335692006
 40
0.6006463335692006
 40
0.6006463335692006
 40
0.6216932747454887
 40
0.6216932747454887
 40
0.6216932747454887
 40
0.6428488095960048
 40
0.6428488095960048
 40
0.6428488095960048
 40
0.6640859765119848
 40
0.6640859765119848
 40
0.6640859765119848
 40
0.6853599153401345
 40
0.6853599153401345
 40
0.6853599153401345
 40
0.7066124748564385
 40
0.7066124748564385
 40
0.7066124748564385
 40
0.7277844101164258
 40
0.7277844101164258
 40
0.7277844101164258
 40
0.7488199621118586
 40
0.7488199621118586
 40
0.7488199621118586
 40
0.7696598967833733
 40
0.7696598967833733
 40
0.7696598967833733
 40
0.790240960871894
 40
0.790240960871894
 40
0.790240960871894
 40
0.8105026754323327
 40
0.8105026754323327
 40
0.8105026754323327
 40
0.8306607332216653
 40
0.8306607332216653
 40
0.8306607332216653
 40
0.8508048045078435
 40
0.8508048045078435
 40
0.8508048045078435
 40
0.8707333326665322
 40
0.8707333326665322
 40
0.8707333326665322
 40
0.8903425465409781
 40
0.8903425465409781
 40
0.8903425465409781
 40
0.9095112989097826
 40
0.9095112989097826
 40
0.9095112989097826
 40
0.9280999138033569
 40
0.9280999138033569
 40
0.9280999138033569
 40
0.9459521637001555
 40
0.9459521637001555
 40
0.9459521637001555
 40
0.9610192098830022
 40
0.9610192098830022
 40
0.9610192098830022
 40
0.9750773977442327
 40
0.9750773977442327
 40
0.9750773977442327
 40
0.9880646713877912
 40
0.9880646713877912
 40
0.9880646713877912
 40
0.9999643713768898
 40
0.9999643713768898
 40
0.9999643713768898
 40
1.0
 40
1.0
 40
1.0
 40
1.0
 10
60.58843441448905
 20
157.0153457771924
 30
0.0
 10
60.58843325771113
 20
157.0175712595427
 30
0.0
 10
60.58843226011857
 20
157.0194925994356
 30
0.0
 10
60.58843128401956
 20
157.0214152849862
 30
0.0
 10
60.5883046755316
 20
157.2708042379585
 30
0.0
 10
60.58853968156766
 20
157.5428329889311
 30
0.0
 10
60.58885207767571
 20
157.808676541726
 30
0.0
 10
60.58916470112363
 20
158.0747135567065
 30
0.0
 10
60.58955482732259
 20
158.3345563679319
 30
0.0
 10
60.59009836352957
 20
158.5957857688059
 30
0.0
 10
60.59064220522264
 20
158.8571619896135
 30
0.0
 10
60.59133962941563
 20
159.1199263591302
 30
0.0
 10
60.59216983627557
 20
159.381894516696
 30
0.0
 10
60.59300036704952
 20
159.6439648839208
 30
0.0
 10
60.59396378412376
 20
159.9052384177724
 30
0.0
 10
60.59506511710475
 20
160.1661495585319
 30
0.0
 10
60.59616666722712
 20
160.4271121411383
 30
0.0
 10
60.59740618764521
 20
160.687712187738
 30
0.0
 10
60.59878167300785
 20
160.9476822044481
 30
0.0
 10
60.60015711878872
 20
161.2076447401096
 30
0.0
 10
60.60166852168902
 20
161.4669772821414
 30
0.0
 10
60.60331567327932
 20
161.7256004549086
 30
0.0
 10
60.60496248213321
 20
161.9841698138207
 30
0.0
 10
60.60674498319029
 20
162.2420300986461
 30
0.0
 10
60.60866231052773
 20
162.499052256794
 30
0.0
 10
60.61057890502232
 20
162.7559761756642
 30
0.0
 10
60.61263022275008
 20
163.0120626084337
 30
0.0
 10
60.61481571034689
 20
163.2671938657882
 30
0.0
 10
60.61699944871095
 20
163.5221209197644
 30
0.0
 10
60.61931714225477
 20
163.7760943267309
 30
0.0
 10
60.62176812900525
 20
164.0289928917661
 30
0.0
 10
60.62421186622235
 20
164.2811434329351
 30
0.0
 10
60.62678810930248
 20
164.5322254811084
 30
0.0
 10
60.62949484416082
 20
164.7821309543339
 30
0.0
 10
60.63220499397426
 20
165.0323517210831
 30
0.0
 10
60.63504596504385
 20
165.2813929421573
 30
0.0
 10
60.63801608223285
 20
165.5291443496788
 30
0.0
 10
60.64099132378871
 20
165.7773232046809
 30
0.0
 10
60.64409615748208
 20
166.0242077916398
 30
0.0
 10
60.64732884618726
 20
166.2696883388439
 30
0.0
 10
60.65056521316107
 20
166.5154482025787
 30
0.0
 10
60.65392972626825
 20
166.7598008296078
 30
0.0
 10
60.65742069267696
 20
167.0026358048683
 30
0.0
 10
60.66091350103596
 20
167.2455989079586
 30
0.0
 10
60.66453289617369
 20
167.4870427573304
 30
0.0
 10
60.66827720674707
 20
167.726856022147
 30
0.0
 10
60.67202059205719
 20
167.9666100262798
 30
0.0
 10
60.67588883107445
 20
168.204734251631
 30
0.0
 10
60.67988024756846
 20
168.4411169027615
 30
0.0
 10
60.68386784455412
 20
168.6772733521135
 30
0.0
 10
60.68797838338477
 20
168.9116915587811
 30
0.0
 10
60.69221028525021
 20
169.1442562345954
 30
0.0
 10
60.69643539428827
 20
169.3764476097654
 30
0.0
 10
60.70078147706263
 20
169.606791399688
 30
0.0
 10
60.70524662477155
 20
169.8351790122826
 30
0.0
 10
60.70970171840277
 20
170.06305236937
 30
0.0
 10
60.71427534138025
 20
170.288978348577
 30
0.0
 10
60.71896678974166
 20
170.5128159228277
 30
0.0
 10
60.72364304049041
 20
170.7359283912062
 30
0.0
 10
60.72843635448566
 20
170.9569659631911
 30
0.0
 10
60.73334406038956
 20
171.1758428721127
 30
0.0
 10
60.73824290997369
 20
171.3943248013975
 30
0.0
 10
60.7432557389816
 20
171.6106538587367
 30
0.0
 10
60.74837860820306
 20
171.8247533305669
 30
0.0
 10
60.75352722549766
 20
172.0399288885938
 30
0.0
 10
60.75878699193271
 20
172.2528523925316
 30
0.0
 10
60.76415458511071
 20
172.4634400703177
 30
0.0
 10
60.76954074358951
 20
172.6747561236442
 30
0.0
 10
60.77503547599821
 20
172.8837201646779
 30
0.0
 10
60.78063553010099
 20
173.0902439906161
 30
0.0
 10
60.78624597136659
 20
173.2971508836753
 30
0.0
 10
60.79196212539681
 20
173.5016085008628
 30
0.0
 10
60.79778092606014
 20
173.7035221509285
 30
0.0
 10
60.80360021176569
 20
173.9054526320647
 30
0.0
 10
60.80952216121781
 20
174.1048387219426
 30
0.0
 10
60.81554382621061
 20
174.3015788711419
 30
0.0
 10
60.82155304024769
 20
174.4979122220743
 30
0.0
 10
60.82766155788948
 20
174.6916105630027
 30
0.0
 10
60.83386649392261
 20
174.8825636102906
 30
0.0
 10
60.84004784726538
 20
175.0727909149498
 30
0.0
 10
60.84632488749023
 20
175.2602937540255
 30
0.0
 10
60.85269480574699
 20
175.4449563048016
 30
0.0
 10
60.85902937714293
 20
175.6285941577371
 30
0.0
 10
60.86545579866486
 20
175.8094231565996
 30
0.0
 10
60.87197096690314
 20
175.9873063809515
 30
0.0
 10
60.87843974099825
 20
176.1639229089614
 30
0.0
 10
60.88499600238919
 20
176.3376354664729
 30
0.0
 10
60.89163736347179
 20
176.5083397171742
 30
0.0
 10
60.89825445986745
 20
176.6784202877061
 30
0.0
 10
60.90495603525511
 20
176.8455144933988
 30
0.0
 10
60.91173687853161
 20
177.0095917998732
 30
0.0
 10
60.91855270820728
 20
177.1745156786556
 30
0.0
 10
60.92544862586226
 20
177.3363914459548
 30
0.0
 10
60.93241918181081
 20
177.495158663976
 30
0.0
 10
60.93941663478105
 20
177.6545385110809
 30
0.0
 10
60.94648930316409
 20
177.8107857729399
 30
0.0
 10
60.95363161634356
 20
177.9638350033264
 30
0.0
 10
60.96078629635682
 20
178.1171492367087
 30
0.0
 10
60.96801086255362
 20
178.2672543543206
 30
0.0
 10
60.97529939567581
 20
178.414070860377
 30
0.0
 10
60.98258060416369
 20
178.5607398227231
 30
0.0
 10
60.98992565107402
 20
178.7041267799937
 30
0.0
 10
60.99732805996065
 20
178.8441379988514
 30
0.0
 10
61.00470238687857
 20
178.9836180675486
 30
0.0
 10
61.0121336413786
 20
179.119747961827
 30
0.0
 10
61.01961451608176
 20
179.2524179388705
 30
0.0
 10
61.02704720123111
 20
179.3842332956654
 30
0.0
 10
61.03452886936564
 20
179.5126331671552
 30
0.0
 10
61.04205082285932
 20
179.6374862064708
 30
0.0
 10
61.04950282694482
 20
179.761178191518
 30
0.0
 10
61.05699437061659
 20
179.8813890042573
 30
0.0
 10
61.06451523118306
 20
179.9979743223491
 30
0.0
 10
61.07194266873309
 20
180.1131114348809
 30
0.0
 10
61.07939869936127
 20
180.2247125640581
 30
0.0
 10
61.08686896453526
 20
180.3325734086983
 30
0.0
 10
61.09422331608845
 20
180.4387606124769
 30
0.0
 10
61.10159146386921
 20
180.5413227046844
 30
0.0
 10
61.10896510404137
 20
180.6402296385579
 30
0.0
 10
61.1163010214567
 20
180.7386305751045
 30
0.0
 10
61.1236423752102
 20
180.8334136564534
 30
0.0
 10
61.13096965798301
 20
180.9244748675943
 30
0.0
 10
61.13829185678072
 20
181.0154728966603
 30
0.0
 10
61.14560000411703
 20
181.1027542185048
 30
0.0
 10
61.15286991568163
 20
181.1861836806764
 30
0.0
 10
61.16006203862781
 20
181.2687204411222
 30
0.0
 10
61.16721673967603
 20
181.3474873312847
 30
0.0
 10
61.17430117741731
 20
181.4223056994771
 30
0.0
 10
61.18127210139837
 20
181.4959252549174
 30
0.0
 10
61.18817499568761
 20
181.5657218087891
 30
0.0
 10
61.19496502557634
 20
181.6314627050182
 30
0.0
 10
61.20160253804099
 20
181.6957269314368
 30
0.0
 10
61.20813219947329
 20
181.7561156500639
 30
0.0
 10
61.21449137465794
 20
181.8123265328435
 30
0.0
 10
61.22065809100307
 20
181.8668362073761
 30
0.0
 10
61.22666448438972
 20
181.9174171016563
 30
0.0
 10
61.23242295296593
 20
181.9636818196035
 30
0.0
 10
61.23795330692904
 20
182.0081138179492
 30
0.0
 10
61.24325498949531
 20
182.0485648267791
 30
0.0
 10
61.24820277507172
 20
182.0845363302013
 30
0.0
 10
61.25237863605358
 20
182.1148957698496
 30
0.0
 10
61.25630241192613
 20
182.1420644035778
 30
0.0
 10
61.25985581377269
 20
182.1656201266447
 30
0.0
 10
61.26317128716404
 20
182.1875986071021
 30
0.0
 10
61.26616432496838
 20
182.2064318049852
 30
0.0
 10
61.26868160479263
 20
182.2216237871475
 30
0.0
 10
61.27100712513975
 20
182.23565848575
 30
0.0
 10
61.27292661057298
 20
182.2465855944145
 30
0.0
 10
61.27426251368033
 20
182.2539095740935
 30
0.0
 10
61.27548654627009
 20
182.2606202327967
 30
0.0
 10
61.27622064419059
 20
182.2643059578623
 30
0.0
 10
61.27621181106906
 20
182.2642682773026
 30
0.0
 10
61.27621178462202
 20
182.2642681644841
 30
0.0
 10
61.27621175151496
 20
182.2642680182871
 30
0.0
 10
61.27621171174278
 20
182.2642678387093
 30
0.0
  0
ARC
  5
88
330
81
100
AcDbEntity
  8
MEGA_002286
  6
CONTINUOUS
 62
     7
 48
25.4
100
AcDbCircle
 10
41.4718884958
 20
81.0153350509
 30
0.0
 40
4.0
100
AcDbArc
 50
180.0
 51
270.0
  0
CIRCLE
  5
89
330
81
100
AcDbEntity
  8
MEGA_002286
  6
CONTINUOUS
 62
     7
 48
25.4
100
AcDbCircle
 10
49.0301590655
 20
188.5153350509
 30
0.0
 40
7.549999999999983
  0
ARC
  5
8A
330
81
100
AcDbEntity
  8
MEGA_002286
  6
CONTINUOUS
 62
     7
 48
25.4
100
AcDbCircle
 10
56.5884296351
 20
81.0153350509
 30
0.0
 40
4.0
100
AcDbArc
 50
270.0
 51
360.0
  0
ARC
  5
8B
330
81
100
AcDbEntity
  8
MEGA_002286
  6
CONTINUOUS
 62
     7
 48
25.4
100
AcDbCircle
 10
40.5694918163
 20
183.4816675893
 30
0.0
 40
4.039383489199999
100
AcDbArc
 50
180.2871763923
 51
237.6524811695
  0
LINE
  5
8C
330
81
100
AcDbEntity
  8
MEGA_002286
  6
CONTINUOUS
 62
     7
 48
25.4
100
AcDbLine
 10
41.4754580189
 20
77.0153350509
 30
0.0
 11
41.4718884958
 21
77.0153350509
 31
0.0
  0
LINE
  5
8D
330
81
100
AcDbEntity
  8
MEGA_002286
  6
CONTINUOUS
 62
     7
 48
25.4
100
AcDbLine
 10
56.5884296351
 20
77.0153350509
 30
0.0
 11
56.584860112
 21
77.0153350509
 31
0.0
  0
ELLIPSE
  5
8E
330
81
100
AcDbEntity
  8
MEGA_002286
  6
CONTINUOUS
 62
     7
 48
25.4
100
AcDbEllipse
 10
49.0225397617
 20
232.2360776151
 30
0.0
 11
-2.072930789029707
 21
-12.61756391708964
 31
0.0
210
0.0
220
0.0
230
1.0
 40
0.9775774746
 41
1.737298018249825
 42
3.300838268003944
  0
ELLIPSE
  5
8F
330
81
100
AcDbEntity
  8
MEGA_002286
  6
CONTINUOUS
 62
     7
 48
25.4
100
AcDbEllipse
 10
49.0377783692
 20
232.2360776151
 30
0.0
 11
2.072930789029707
 21
-12.61756391708964
 31
0.0
210
0.0
220
0.0
230
1.0
 40
0.9775774746
 41
2.982347039175642
 42
4.545887288929761
  0
LINE
  5
90
330
81
100
AcDbEntity
  8
MEGA_002286
  6
CONTINUOUS
 62
     7
 48
25.4
100
AcDbLine
 10
49.1132952146
 20
245.0153350509
 30
0.0
 11
48.9470229163
 21
245.0153350509
 31
0.0
  0
LINE
  5
91
330
81
100
AcDbEntity
  8
MEGA_002286
  6
CONTINUOUS
 62
     7
 48
25.4
100
AcDbLine
 10
61.5301590655
 20
232.3288040779
 30
0.0
 11
61.5301590655
 21
183.4614215829
 31
0.0
  0
LINE
  5
92
330
81
100
AcDbEntity
  8
MEGA_002286
  6
CONTINUOUS
 62
     7
 48
25.4
100
AcDbLine
 10
36.5301590655
 20
232.3288040779
 30
0.0
 11
36.5301590655
 21
183.4614215829
 31
0.0
  0
ARC
  5
93
330
81
100
AcDbEntity
  8
MEGA_002203
  6
CONTINUOUS
 62
     7
 48
25.4
100
AcDbCircle
 10
49.0301590655
 20
232.5153350509
 30
0.0
 40
16.5
100
AcDbArc
 50
0.0
 51
180.0
  0
LINE
  5
94
330
81
100
AcDbEntity
  8
MEGA_002203
  6
CONTINUOUS
 62
     7
 48
25.4
100
AcDbLine
 10
65.5301590655
 20
189.5153350509
 30
0.0
 11
65.5301590655
 21
232.5153350509
 31
0.0
  0
ARC
  5
95
330
81
100
AcDbEntity
  8
MEGA_002203
  6
CONTINUOUS
 62
     7
 48
25.4
100
AcDbCircle
 10
49.0301590655
 20
189.5153350509
 30
0.0
 40
16.5
100
AcDbArc
 50
180.0
 51
360.0
  0
LINE
  5
96
330
81
100
AcDbEntity
  8
MEGA_002203
  6
CONTINUOUS
 62
     7
 48
25.4
100
AcDbLine
 10
32.5301590655
 20
232.5153350509
 30
0.0
 11
32.5301590655
 21
189.5153350509
 31
0.0
  0
CIRCLE
  5
97
330
81
100
AcDbEntity
  8
MEGA_002203
  6
CONTINUOUS
 62
     7
 48
25.4
100
AcDbCircle
 10
49.0301590655
 20
189.5153350509
 30
0.0
 40
2.749999999999993
  0
CIRCLE
  5
98
330
81
100
AcDbEntity
  8
MEGA_002203
  6
CONTINUOUS
 62
     7
 48
25.4
100
AcDbCircle
 10
49.0301590655
 20
189.5153350509
 30
0.0
 40
4.500000000000001
  0
ENDBLK
  5
9A
330
81
100
AcDbEntity
  8
0
100
AcDbBlockEnd
  0
BLOCK
  5
A2
330
9B
100
AcDbEntity
  8
0
100
AcDbBlockBegin
  2
SE6
 70
     0
 71
     0
 10
0.0
 20
0.0
 30
0.0
  3
SE6
  1

  0
POLYLINE
  5
9D
330
9B
100
AcDbEntity
  8
DEFAULT
  6
CONTINUOUS
 62
     7
 48
25.4
100
AcDb2dPolyline
 66
     1
 10
0.0
 20
0.0
 30
0.0
 70
     1
  0
VERTEX
  5
125
330
9D
100
AcDbEntity
  8
DEFAULT
  6
CONTINUOUS
 62
     7
100
AcDbVertex
100
AcDb2dVertex
 10
19.1049738874
 20
246.0153350248
 30
0.0
  0
VERTEX
  5
126
330
9D
100
AcDbEntity
  8
DEFAULT
  6
CONTINUOUS
 62
     7
100
AcDbVertex
100
AcDb2dVertex
 10
19.6049738917
 20
249.0153350509
 30
0.0
  0
VERTEX
  5
127
330
9D
100
AcDbEntity
  8
DEFAULT
  6
CONTINUOUS
 62
     7
100
AcDbVertex
100
AcDb2dVertex
 10
20.1049738961
 20
246.0153350248
 30
0.0
  0
VERTEX
  5
128
330
9D
100
AcDbEntity
  8
DEFAULT
  6
CONTINUOUS
 62
     7
100
AcDbVertex
100
AcDb2dVertex
 10
19.1049738874
 20
246.0153350248
 30
0.0
  0
SEQEND
  5
124
330
9D
100
AcDbEntity
  8
DEFAULT
  6
CONTINUOUS
 62
     7
 48
25.4
  0
LINE
  5
9E
330
9B
100
AcDbEntity
  8
DEFAULT
  6
CONTINUOUS
 62
     7
 48
25.4
100
AcDbLine
 10
49.0301590655
 20
173.0153350509
 30
0.0
 11
18.1049738787
 21
173.0153350509
 31
0.0
  0
LINE
  5
9F
330
9B
100
AcDbEntity
  8
DEFAULT
  6
CONTINUOUS
 62
     7
 48
25.4
100
AcDbLine
 10
49.0301590655
 20
249.0153350509
 30
0.0
 11
18.1049738787
 21
249.0153350509
 31
0.0
  0
LINE
  5
A0
330
9B
100
AcDbEntity
  8
DEFAULT
  6
CONTINUOUS
 62
     7
 48
25.4
100
AcDbLine
 10
19.6049738917
 20
173.0153350509
 30
0.0
 11
19.6049738917
 21
249.0153326071
 31
0.0
  0
TEXT
  5
A1
330
9B
100
AcDbEntity
  8
DEFAULT
  6
CONTINUOUS
 62
     7
 48
25.4
100
AcDbText
 10
18.8549738917
 20
209.140333829
 30
0.0
 40
3.0
  1
76
 50
90.0
  7
SEACAD_SEISO_TTF
 11
15.8549738917
 21
209.140333829
 31
0.0
100
AcDbText
 73
     3
  0
ENDBLK
  5
A3
330
9B
100
AcDbEntity
  8
0
100
AcDbBlockEnd
  0
BLOCK
  5
AC
330
A4
100
AcDbEntity
  8
0
100
AcDbBlockBegin
  2
SE7
 70
     0
 71
     0
 10
0.0
 20
0.0
 30
0.0
  3
SE7
  1

  0
POLYLINE
  5
A6
330
A4
100
AcDbEntity
  8
DEFAULT
  6
CONTINUOUS
 62
     7
 48
25.4
100
AcDb2dPolyline
 66
     1
 10
0.0
 20
0.0
 30
0.0
 70
     1
  0
VERTEX
  5
12A
330
A6
100
AcDbEntity
  8
DEFAULT
  6
CONTINUOUS
 62
     7
100
AcDbVertex
100
AcDb2dVertex
 10
35.5301590915
 20
270.1163207015
 30
0.0
  0
VERTEX
  5
12B
330
A6
100
AcDbEntity
  8
DEFAULT
  6
CONTINUOUS
 62
     7
100
AcDbVertex
100
AcDb2dVertex
 10
32.5301590655
 20
269.6163206972
 30
0.0
  0
VERTEX
  5
12C
330
A6
100
AcDbEntity
  8
DEFAULT
  6
CONTINUOUS
 62
     7
100
AcDbVertex
100
AcDb2dVertex
 10
35.5301590915
 20
269.1163206928
 30
0.0
  0
VERTEX
  5
12D
330
A6
100
AcDbEntity
  8
DEFAULT
  6
CONTINUOUS
 62
     7
100
AcDbVertex
100
AcDb2dVertex
 10
35.5301590915
 20
270.1163207015
 30
0.0
  0
SEQEND
  5
129
330
A6
100
AcDbEntity
  8
DEFAULT
  6
CONTINUOUS
 62
     7
 48
25.4
  0
POLYLINE
  5
A7
330
A4
100
AcDbEntity
  8
DEFAULT
  6
CONTINUOUS
 62
     7
 48
25.4
100
AcDb2dPolyline
 66
     1
 10
0.0
 20
0.0
 30
0.0
 70
     1
  0
VERTEX
  5
12F
330
A7
100
AcDbEntity
  8
DEFAULT
  6
CONTINUOUS
 62
     7
100
AcDbVertex
100
AcDb2dVertex
 10
62.5301590394
 20
270.1163207015
 30
0.0
  0
VERTEX
  5
130
330
A7
100
AcDbEntity
  8
DEFAULT
  6
CONTINUOUS
 62
     7
100
AcDbVertex
100
AcDb2dVertex
 10
65.5301590655
 20
269.6163206972
 30
0.0
  0
VERTEX
  5
131
330
A7
100
AcDbEntity
  8
DEFAULT
  6
CONTINUOUS
 62
     7
100
AcDbVertex
100
AcDb2dVertex
 10
62.5301590394
 20
269.1163206928
 30
0.0
  0
VERTEX
  5
132
330
A7
100
AcDbEntity
  8
DEFAULT
  6
CONTINUOUS
 62
     7
100
AcDbVertex
100
AcDb2dVertex
 10
62.5301590394
 20
270.1163207015
 30
0.0
  0
SEQEND
  5
12E
330
A7
100
AcDbEntity
  8
DEFAULT
  6
CONTINUOUS
 62
     7
 48
25.4
  0
LINE
  5
A8
330
A4
100
AcDbEntity
  8
DEFAULT
  6
CONTINUOUS
 62
     7
 48
25.4
100
AcDbLine
 10
32.5301590655
 20
232.5153350509
 30
0.0
 11
32.5301590655
 21
271.1163207102
 31
0.0
  0
LINE
  5
A9
330
A4
100
AcDbEntity
  8
DEFAULT
  6
CONTINUOUS
 62
     7
 48
25.4
100
AcDbLine
 10
65.5301590655
 20
232.5153350509
 30
0.0
 11
65.5301590655
 21
271.1163207102
 31
0.0
  0
LINE
  5
AA
330
A4
100
AcDbEntity
  8
DEFAULT
  6
CONTINUOUS
 62
     7
 48
25.4
100
AcDbLine
 10
32.5301590655
 20
269.6163206972
 30
0.0
 11
65.5301588866
 21
269.6163206972
 31
0.0
  0
TEXT
  5
AB
330
A4
100
AcDbEntity
  8
DEFAULT
  6
CONTINUOUS
 62
     7
 48
25.4
100
AcDbText
 10
47.4619771579
 20
270.3663206972
 30
0.0
 40
3.0
  1
33
  7
SEACAD_SEISO_TTF
 11
47.4619771579
 21
273.3663206972
 31
0.0
100
AcDbText
 73
     3
  0
ENDBLK
  5
AD
330
A4
100
AcDbEntity
  8
0
100
AcDbBlockEnd
  0
BLOCK
  5
B6
330
AE
100
AcDbEntity
  8
0
100
AcDbBlockBegin
  2
SE8
 70
     0
 71
     0
 10
0.0
 20
0.0
 30
0.0
  3
SE8
  1

  0
POLYLINE
  5
B0
330
AE
100
AcDbEntity
  8
DEFAULT
  6
CONTINUOUS
 62
     7
 48
25.4
100
AcDb2dPolyline
 66
     1
 10
0.0
 20
0.0
 30
0.0
 70
     1
  0
VERTEX
  5
134
330
B0
100
AcDbEntity
  8
DEFAULT
  6
CONTINUOUS
 62
     7
100
AcDbVertex
100
AcDb2dVertex
 10
40.4718885219
 20
53.1380953424
 30
0.0
  0
VERTEX
  5
135
330
B0
100
AcDbEntity
  8
DEFAULT
  6
CONTINUOUS
 62
     7
100
AcDbVertex
100
AcDb2dVertex
 10
37.4718884958
 20
53.6380953468
 30
0.0
  0
VERTEX
  5
136
330
B0
100
AcDbEntity
  8
DEFAULT
  6
CONTINUOUS
 62
     7
100
AcDbVertex
100
AcDb2dVertex
 10
40.4718885219
 20
54.1380953511
 30
0.0
  0
VERTEX
  5
137
330
B0
100
AcDbEntity
  8
DEFAULT
  6
CONTINUOUS
 62
     7
100
AcDbVertex
100
AcDb2dVertex
 10
40.4718885219
 20
53.1380953424
 30
0.0
  0
SEQEND
  5
133
330
B0
100
AcDbEntity
  8
DEFAULT
  6
CONTINUOUS
 62
     7
 48
25.4
  0
POLYLINE
  5
B1
330
AE
100
AcDbEntity
  8
DEFAULT
  6
CONTINUOUS
 62
     7
 48
25.4
100
AcDb2dPolyline
 66
     1
 10
0.0
 20
0.0
 30
0.0
 70
     1
  0
VERTEX
  5
139
330
B1
100
AcDbEntity
  8
DEFAULT
  6
CONTINUOUS
 62
     7
100
AcDbVertex
100
AcDb2dVertex
 10
57.588429609
 20
53.1380953424
 30
0.0
  0
VERTEX
  5
13A
330
B1
100
AcDbEntity
  8
DEFAULT
  6
CONTINUOUS
 62
     7
100
AcDbVertex
100
AcDb2dVertex
 10
60.5884296351
 20
53.6380953468
 30
0.0
  0
VERTEX
  5
13B
330
B1
100
AcDbEntity
  8
DEFAULT
  6
CONTINUOUS
 62
     7
100
AcDbVertex
100
AcDb2dVertex
 10
57.588429609
 20
54.1380953511
 30
0.0
  0
VERTEX
  5
13C
330
B1
100
AcDbEntity
  8
DEFAULT
  6
CONTINUOUS
 62
     7
100
AcDbVertex
100
AcDb2dVertex
 10
57.588429609
 20
53.1380953424
 30
0.0
  0
SEQEND
  5
138
330
B1
100
AcDbEntity
  8
DEFAULT
  6
CONTINUOUS
 62
     7
 48
25.4
  0
LINE
  5
B2
330
AE
100
AcDbEntity
  8
DEFAULT
  6
CONTINUOUS
 62
     7
 48
25.4
100
AcDbLine
 10
37.4718884958
 20
77.0153350509
 30
0.0
 11
37.4718884958
 21
52.1380953338
 31
0.0
  0
LINE
  5
B3
330
AE
100
AcDbEntity
  8
DEFAULT
  6
CONTINUOUS
 62
     7
 48
25.4
100
AcDbLine
 10
60.5884296351
 20
77.0153350509
 30
0.0
 11
60.5884296351
 21
52.1380953338
 31
0.0
  0
LINE
  5
B4
330
AE
100
AcDbEntity
  8
DEFAULT
  6
CONTINUOUS
 62
     7
 48
25.4
100
AcDbLine
 10
37.4718884958
 20
53.6380953468
 30
0.0
 11
60.5884305222
 21
53.6380953468
 31
0.0
  0
TEXT
  5
B5
330
AE
100
AcDbEntity
  8
DEFAULT
  6
CONTINUOUS
 62
     7
 48
25.4
100
AcDbText
 10
47.3256140544
 20
54.3880953468
 30
0.0
 40
3.0
  1
23
  7
SEACAD_SEISO_TTF
 11
47.3256140544
 21
57.3880953468
 31
0.0
100
AcDbText
 73
     3
  0
ENDBLK
  5
B7
330
AE
100
AcDbEntity
  8
0
100
AcDbBlockEnd
  0
BLOCK
  5
C0
330
B8
100
AcDbEntity
  8
0
100
AcDbBlockBegin
  2
SE9
 70
     0
 71
     0
 10
0.0
 20
0.0
 30
0.0
  3
SE9
  1

  0
POLYLINE
  5
BA
330
B8
100
AcDbEntity
  8
DEFAULT
  6
CONTINUOUS
 62
     7
 48
25.4
100
AcDb2dPolyline
 66
     1
 10
0.0
 20
0.0
 30
0.0
 70
     1
  0
VERTEX
  5
13E
330
BA
100
AcDbEntity
  8
DEFAULT
  6
CONTINUOUS
 62
     7
100
AcDbVertex
100
AcDb2dVertex
 10
89.2666183096
 20
80.015335077
 30
0.0
  0
VERTEX
  5
13F
330
BA
100
AcDbEntity
  8
DEFAULT
  6
CONTINUOUS
 62
     7
100
AcDbVertex
100
AcDb2dVertex
 10
89.7666183139
 20
77.0153350509
 30
0.0
  0
VERTEX
  5
140
330
BA
100
AcDbEntity
  8
DEFAULT
  6
CONTINUOUS
 62
     7
100
AcDbVertex
100
AcDb2dVertex
 10
90.2666183182
 20
80.015335077
 30
0.0
  0
VERTEX
  5
141
330
BA
100
AcDbEntity
  8
DEFAULT
  6
CONTINUOUS
 62
     7
100
AcDbVertex
100
AcDb2dVertex
 10
89.2666183096
 20
80.015335077
 30
0.0
  0
SEQEND
  5
13D
330
BA
100
AcDbEntity
  8
DEFAULT
  6
CONTINUOUS
 62
     7
 48
25.4
  0
POLYLINE
  5
BB
330
B8
100
AcDbEntity
  8
DEFAULT
  6
CONTINUOUS
 62
     7
 48
25.4
100
AcDb2dPolyline
 66
     1
 10
0.0
 20
0.0
 30
0.0
 70
     1
  0
VERTEX
  5
143
330
BB
100
AcDbEntity
  8
DEFAULT
  6
CONTINUOUS
 62
     7
100
AcDbVertex
100
AcDb2dVertex
 10
89.2666183096
 20
242.0153350248
 30
0.0
  0
VERTEX
  5
144
330
BB
100
AcDbEntity
  8
DEFAULT
  6
CONTINUOUS
 62
     7
100
AcDbVertex
100
AcDb2dVertex
 10
89.7666183139
 20
245.0153350509
 30
0.0
  0
VERTEX
  5
145
330
BB
100
AcDbEntity
  8
DEFAULT
  6
CONTINUOUS
 62
     7
100
AcDbVertex
100
AcDb2dVertex
 10
90.2666183182
 20
242.0153350248
 30
0.0
  0
VERTEX
  5
146
330
BB
100
AcDbEntity
  8
DEFAULT
  6
CONTINUOUS
 62
     7
100
AcDbVertex
100
AcDb2dVertex
 10
89.2666183096
 20
242.0153350248
 30
0.0
  0
SEQEND
  5
142
330
BB
100
AcDbEntity
  8
DEFAULT
  6
CONTINUOUS
 62
     7
 48
25.4
  0
LINE
  5
BC
330
B8
100
AcDbEntity
  8
DEFAULT
  6
CONTINUOUS
 62
     7
 48
25.4
100
AcDbLine
 10
113.2467094415
 20
77.0153350509
 30
0.0
 11
88.2666183009
 21
77.0153350509
 31
0.0
  0
LINE
  5
BD
330
B8
100
AcDbEntity
  8
DEFAULT
  6
CONTINUOUS
 62
     7
 48
25.4
100
AcDbLine
 10
140.1444916452
 20
245.0153350509
 30
0.0
 11
88.2666183009
 21
245.0153350509
 31
0.0
  0
LINE
  5
BE
330
B8
100
AcDbEntity
  8
DEFAULT
  6
CONTINUOUS
 62
     7
 48
25.4
100
AcDbLine
 10
89.7666183139
 20
77.0153350509
 30
0.0
 11
89.7666183139
 21
245.0153327859
 31
0.0
  0
TEXT
  5
BF
330
B8
100
AcDbEntity
  8
DEFAULT
  6
CONTINUOUS
 62
     7
 48
25.4
100
AcDbText
 10
89.0166183139
 20
158.5266975548
 30
0.0
 40
3.0
  1
168
 50
90.0
  7
SEACAD_SEISO_TTF
 11
86.0166183139
 21
158.5266975548
 31
0.0
100
AcDbText
 73
     3
  0
ENDBLK
  5
C1
330
B8
100
AcDbEntity
  8
0
100
AcDbBlockEnd
  0
BLOCK
  5
CA
330
C2
100
AcDbEntity
  8
0
100
AcDbBlockBegin
  2
SE10
 70
     0
 71
     0
 10
0.0
 20
0.0
 30
0.0
  3
SE10
  1

  0
POLYLINE
  5
C4
330
C2
100
AcDbEntity
  8
DEFAULT
  6
CONTINUOUS
 62
     7
 48
25.4
100
AcDb2dPolyline
 66
     1
 10
0.0
 20
0.0
 30
0.0
 70
     1
  0
VERTEX
  5
148
330
C4
100
AcDbEntity
  8
DEFAULT
  6
CONTINUOUS
 62
     7
100
AcDbVertex
100
AcDb2dVertex
 10
112.1444916713
 20
270.9249395027
 30
0.0
  0
VERTEX
  5
149
330
C4
100
AcDbEntity
  8
DEFAULT
  6
CONTINUOUS
 62
     7
100
AcDbVertex
100
AcDb2dVertex
 10
109.1444916452
 20
270.4249394984
 30
0.0
  0
VERTEX
  5
14A
330
C4
100
AcDbEntity
  8
DEFAULT
  6
CONTINUOUS
 62
     7
100
AcDbVertex
100
AcDb2dVertex
 10
112.1444916713
 20
269.9249394941
 30
0.0
  0
VERTEX
  5
14B
330
C4
100
AcDbEntity
  8
DEFAULT
  6
CONTINUOUS
 62
     7
100
AcDbVertex
100
AcDb2dVertex
 10
112.1444916713
 20
270.9249395027
 30
0.0
  0
SEQEND
  5
147
330
C4
100
AcDbEntity
  8
DEFAULT
  6
CONTINUOUS
 62
     7
 48
25.4
  0
POLYLINE
  5
C5
330
C2
100
AcDbEntity
  8
DEFAULT
  6
CONTINUOUS
 62
     7
 48
25.4
100
AcDb2dPolyline
 66
     1
 10
0.0
 20
0.0
 30
0.0
 70
     1
  0
VERTEX
  5
14D
330
C5
100
AcDbEntity
  8
DEFAULT
  6
CONTINUOUS
 62
     7
100
AcDbVertex
100
AcDb2dVertex
 10
151.1444916191
 20
270.9249395027
 30
0.0
  0
VERTEX
  5
14E
330
C5
100
AcDbEntity
  8
DEFAULT
  6
CONTINUOUS
 62
     7
100
AcDbVertex
100
AcDb2dVertex
 10
154.1444916452
 20
270.4249394984
 30
0.0
  0
VERTEX
  5
14F
330
C5
100
AcDbEntity
  8
DEFAULT
  6
CONTINUOUS
 62
     7
100
AcDbVertex
100
AcDb2dVertex
 10
151.1444916191
 20
269.9249394941
 30
0.0
  0
VERTEX
  5
150
330
C5
100
AcDbEntity
  8
DEFAULT
  6
CONTINUOUS
 62
     7
100
AcDbVertex
100
AcDb2dVertex
 10
151.1444916191
 20
270.9249395027
 30
0.0
  0
SEQEND
  5
14C
330
C5
100
AcDbEntity
  8
DEFAULT
  6
CONTINUOUS
 62
     7
 48
25.4
  0
LINE
  5
C6
330
C2
100
AcDbEntity
  8
DEFAULT
  6
CONTINUOUS
 62
     7
 48
25.4
100
AcDbLine
 10
109.1444916452
 20
226.5601044447
 30
0.0
 11
109.1444916452
 21
271.9249395114
 31
0.0
  0
LINE
  5
C7
330
C2
100
AcDbEntity
  8
DEFAULT
  6
CONTINUOUS
 62
     7
 48
25.4
100
AcDbLine
 10
154.1444916452
 20
249.0153350509
 30
0.0
 11
154.1444916452
 21
271.9249395114
 31
0.0
  0
LINE
  5
C8
330
C2
100
AcDbEntity
  8
DEFAULT
  6
CONTINUOUS
 62
     7
 48
25.4
100
AcDbLine
 10
109.1444916452
 20
270.4249394984
 30
0.0
 11
154.1444934333
 21
270.4249394984
 31
0.0
  0
TEXT
  5
C9
330
C2
100
AcDbEntity
  8
DEFAULT
  6
CONTINUOUS
 62
     7
 48
25.4
100
AcDbText
 10
129.9058561756
 20
271.1749394984
 30
0.0
 40
3.0
  1
45
  7
SEACAD_SEISO_TTF
 11
129.9058561756
 21
274.1749394984
 31
0.0
100
AcDbText
 73
     3
  0
ENDBLK
  5
CB
330
C2
100
AcDbEntity
  8
0
100
AcDbBlockEnd
  0
BLOCK
  5
D4
330
CC
100
AcDbEntity
  8
0
100
AcDbBlockBegin
  2
SE11
 70
     0
 71
     0
 10
0.0
 20
0.0
 30
0.0
  3
SE11
  1

  0
POLYLINE
  5
CE
330
CC
100
AcDbEntity
  8
DEFAULT
  6
CONTINUOUS
 62
     7
 48
25.4
100
AcDb2dPolyline
 66
     1
 10
0.0
 20
0.0
 30
0.0
 70
     1
  0
VERTEX
  5
152
330
CE
100
AcDbEntity
  8
DEFAULT
  6
CONTINUOUS
 62
     7
100
AcDbVertex
100
AcDb2dVertex
 10
145.1444916713
 20
156.7373605291
 30
0.0
  0
VERTEX
  5
153
330
CE
100
AcDbEntity
  8
DEFAULT
  6
CONTINUOUS
 62
     7
100
AcDbVertex
100
AcDb2dVertex
 10
142.1444916452
 20
157.2373605335
 30
0.0
  0
VERTEX
  5
154
330
CE
100
AcDbEntity
  8
DEFAULT
  6
CONTINUOUS
 62
     7
100
AcDbVertex
100
AcDb2dVertex
 10
145.1444916713
 20
157.7373605378
 30
0.0
  0
VERTEX
  5
155
330
CE
100
AcDbEntity
  8
DEFAULT
  6
CONTINUOUS
 62
     7
100
AcDbVertex
100
AcDb2dVertex
 10
145.1444916713
 20
156.7373605291
 30
0.0
  0
SEQEND
  5
151
330
CE
100
AcDbEntity
  8
DEFAULT
  6
CONTINUOUS
 62
     7
 48
25.4
  0
POLYLINE
  5
CF
330
CC
100
AcDbEntity
  8
DEFAULT
  6
CONTINUOUS
 62
     7
 48
25.4
100
AcDb2dPolyline
 66
     1
 10
0.0
 20
0.0
 30
0.0
 70
     1
  0
VERTEX
  5
157
330
CF
100
AcDbEntity
  8
DEFAULT
  6
CONTINUOUS
 62
     7
100
AcDbVertex
100
AcDb2dVertex
 10
151.1444916191
 20
156.7373605291
 30
0.0
  0
VERTEX
  5
158
330
CF
100
AcDbEntity
  8
DEFAULT
  6
CONTINUOUS
 62
     7
100
AcDbVertex
100
AcDb2dVertex
 10
154.1444916452
 20
157.2373605335
 30
0.0
  0
VERTEX
  5
159
330
CF
100
AcDbEntity
  8
DEFAULT
  6
CONTINUOUS
 62
     7
100
AcDbVertex
100
AcDb2dVertex
 10
151.1444916191
 20
157.7373605378
 30
0.0
  0
VERTEX
  5
15A
330
CF
100
AcDbEntity
  8
DEFAULT
  6
CONTINUOUS
 62
     7
100
AcDbVertex
100
AcDb2dVertex
 10
151.1444916191
 20
156.7373605291
 30
0.0
  0
SEQEND
  5
156
330
CF
100
AcDbEntity
  8
DEFAULT
  6
CONTINUOUS
 62
     7
 48
25.4
  0
LINE
  5
D0
330
CC
100
AcDbEntity
  8
DEFAULT
  6
CONTINUOUS
 62
     7
 48
25.4
100
AcDbLine
 10
142.1444916452
 20
176.7806953752
 30
0.0
 11
142.1444916452
 21
155.7373605205
 31
0.0
  0
LINE
  5
D1
330
CC
100
AcDbEntity
  8
DEFAULT
  6
CONTINUOUS
 62
     7
 48
25.4
100
AcDbLine
 10
154.1444916452
 20
173.0153350509
 30
0.0
 11
154.1444916452
 21
155.7373605205
 31
0.0
  0
LINE
  5
D2
330
CC
100
AcDbEntity
  8
DEFAULT
  6
CONTINUOUS
 62
     7
 48
25.4
100
AcDbLine
 10
142.1444916452
 20
157.2373605335
 30
0.0
 11
154.1444917495
 21
157.2373605335
 31
0.0
  0
TEXT
  5
D3
330
CC
100
AcDbEntity
  8
DEFAULT
  6
CONTINUOUS
 62
     7
 48
25.4
100
AcDbText
 10
146.6104007883
 20
157.9873605335
 30
0.0
 40
3.0
  1
12
  7
SEACAD_SEISO_TTF
 11
146.6104007883
 21
160.9873605335
 31
0.0
100
AcDbText
 73
     3
  0
ENDBLK
  5
D5
330
CC
100
AcDbEntity
  8
0
100
AcDbBlockEnd
  0
BLOCK
  5
DE
330
D6
100
AcDbEntity
  8
0
100
AcDbBlockBegin
  2
SE12
 70
     0
 71
     0
 10
0.0
 20
0.0
 30
0.0
  3
SE12
  1

  0
POLYLINE
  5
D8
330
D6
100
AcDbEntity
  8
DEFAULT
  6
CONTINUOUS
 62
     7
 48
25.4
100
AcDb2dPolyline
 66
     1
 10
0.0
 20
0.0
 30
0.0
 70
     1
  0
VERTEX
  5
15C
330
D8
100
AcDbEntity
  8
DEFAULT
  6
CONTINUOUS
 62
     7
100
AcDbVertex
100
AcDb2dVertex
 10
145.1444916713
 20
144.7250725548
 30
0.0
  0
VERTEX
  5
15D
330
D8
100
AcDbEntity
  8
DEFAULT
  6
CONTINUOUS
 62
     7
100
AcDbVertex
100
AcDb2dVertex
 10
142.1444916452
 20
145.2250725591
 30
0.0
  0
VERTEX
  5
15E
330
D8
100
AcDbEntity
  8
DEFAULT
  6
CONTINUOUS
 62
     7
100
AcDbVertex
100
AcDb2dVertex
 10
145.1444916713
 20
145.7250725635
 30
0.0
  0
VERTEX
  5
15F
330
D8
100
AcDbEntity
  8
DEFAULT
  6
CONTINUOUS
 62
     7
100
AcDbVertex
100
AcDb2dVertex
 10
145.1444916713
 20
144.7250725548
 30
0.0
  0
SEQEND
  5
15B
330
D8
100
AcDbEntity
  8
DEFAULT
  6
CONTINUOUS
 62
     7
 48
25.4
  0
POLYLINE
  5
D9
330
D6
100
AcDbEntity
  8
DEFAULT
  6
CONTINUOUS
 62
     7
 48
25.4
100
AcDb2dPolyline
 66
     1
 10
0.0
 20
0.0
 30
0.0
 70
     1
  0
VERTEX
  5
161
330
D9
100
AcDbEntity
  8
DEFAULT
  6
CONTINUOUS
 62
     7
100
AcDbVertex
100
AcDb2dVertex
 10
157.1444916191
 20
144.7250725548
 30
0.0
  0
VERTEX
  5
162
330
D9
100
AcDbEntity
  8
DEFAULT
  6
CONTINUOUS
 62
     7
100
AcDbVertex
100
AcDb2dVertex
 10
160.1444916452
 20
145.2250725591
 30
0.0
  0
VERTEX
  5
163
330
D9
100
AcDbEntity
  8
DEFAULT
  6
CONTINUOUS
 62
     7
100
AcDbVertex
100
AcDb2dVertex
 10
157.1444916191
 20
145.7250725635
 30
0.0
  0
VERTEX
  5
164
330
D9
100
AcDbEntity
  8
DEFAULT
  6
CONTINUOUS
 62
     7
100
AcDbVertex
100
AcDb2dVertex
 10
157.1444916191
 20
144.7250725548
 30
0.0
  0
SEQEND
  5
160
330
D9
100
AcDbEntity
  8
DEFAULT
  6
CONTINUOUS
 62
     7
 48
25.4
  0
LINE
  5
DA
330
D6
100
AcDbEntity
  8
DEFAULT
  6
CONTINUOUS
 62
     7
 48
25.4
100
AcDbLine
 10
142.1444916452
 20
176.7806953752
 30
0.0
 11
142.1444916452
 21
143.7250725461
 31
0.0
  0
LINE
  5
DB
330
D6
100
AcDbEntity
  8
DEFAULT
  6
CONTINUOUS
 62
     7
 48
25.4
100
AcDbLine
 10
160.1444916452
 20
185.748032314
 30
0.0
 11
160.1444916452
 21
143.7250725461
 31
0.0
  0
LINE
  5
DC
330
D6
100
AcDbEntity
  8
DEFAULT
  6
CONTINUOUS
 62
     7
 48
25.4
100
AcDbLine
 10
142.1444916452
 20
145.2250725591
 30
0.0
 11
160.1444908703
 21
145.2250725591
 31
0.0
  0
TEXT
  5
DD
330
D6
100
AcDbEntity
  8
DEFAULT
  6
CONTINUOUS
 62
     7
 48
25.4
100
AcDbText
 10
149.5763094396
 20
145.9750725591
 30
0.0
 40
3.0
  1
18
  7
SEACAD_SEISO_TTF
 11
149.5763094396
 21
148.9750725591
 31
0.0
100
AcDbText
 73
     3
  0
ENDBLK
  5
DF
330
D6
100
AcDbEntity
  8
0
100
AcDbBlockEnd
  0
BLOCK
  5
EA
330
E0
100
AcDbEntity
  8
0
100
AcDbBlockBegin
  2
SE13
 70
     0
 71
     0
 10
0.0
 20
0.0
 30
0.0
  3
SE13
  1

  0
POLYLINE
  5
E2
330
E0
100
AcDbEntity
  8
DEFAULT
  6
CONTINUOUS
 62
     7
 48
25.4
100
AcDb2dPolyline
 66
     1
 10
0.0
 20
0.0
 30
0.0
 70
     1
  0
VERTEX
  5
166
330
E2
100
AcDbEntity
  8
DEFAULT
  6
CONTINUOUS
 62
     7
100
AcDbVertex
100
AcDb2dVertex
 10
194.8742470512
 20
187.765335077
 30
0.0
  0
VERTEX
  5
167
330
E2
100
AcDbEntity
  8
DEFAULT
  6
CONTINUOUS
 62
     7
100
AcDbVertex
100
AcDb2dVertex
 10
194.3742470468
 20
184.7653350509
 30
0.0
  0
VERTEX
  5
168
330
E2
100
AcDbEntity
  8
DEFAULT
  6
CONTINUOUS
 62
     7
100
AcDbVertex
100
AcDb2dVertex
 10
193.8742470425
 20
187.765335077
 30
0.0
  0
VERTEX
  5
169
330
E2
100
AcDbEntity
  8
DEFAULT
  6
CONTINUOUS
 62
     7
100
AcDbVertex
100
AcDb2dVertex
 10
194.8742470512
 20
187.765335077
 30
0.0
  0
SEQEND
  5
165
330
E2
100
AcDbEntity
  8
DEFAULT
  6
CONTINUOUS
 62
     7
 48
25.4
  0
POLYLINE
  5
E3
330
E0
100
AcDbEntity
  8
DEFAULT
  6
CONTINUOUS
 62
     7
 48
25.4
100
AcDb2dPolyline
 66
     1
 10
0.0
 20
0.0
 30
0.0
 70
     1
  0
VERTEX
  5
16B
330
E3
100
AcDbEntity
  8
DEFAULT
  6
CONTINUOUS
 62
     7
100
AcDbVertex
100
AcDb2dVertex
 10
194.8742470512
 20
191.2653350248
 30
0.0
  0
VERTEX
  5
16C
330
E3
100
AcDbEntity
  8
DEFAULT
  6
CONTINUOUS
 62
     7
100
AcDbVertex
100
AcDb2dVertex
 10
194.3742470468
 20
194.2653350509
 30
0.0
  0
VERTEX
  5
16D
330
E3
100
AcDbEntity
  8
DEFAULT
  6
CONTINUOUS
 62
     7
100
AcDbVertex
100
AcDb2dVertex
 10
193.8742470425
 20
191.2653350248
 30
0.0
  0
VERTEX
  5
16E
330
E3
100
AcDbEntity
  8
DEFAULT
  6
CONTINUOUS
 62
     7
100
AcDbVertex
100
AcDb2dVertex
 10
194.8742470512
 20
191.2653350248
 30
0.0
  0
SEQEND
  5
16A
330
E3
100
AcDbEntity
  8
DEFAULT
  6
CONTINUOUS
 62
     7
 48
25.4
  0
LINE
  5
E4
330
E0
100
AcDbEntity
  8
DEFAULT
  6
CONTINUOUS
 62
     7
 48
25.4
100
AcDbLine
 10
160.1444916452
 20
184.7653350509
 30
0.0
 11
195.8742470599
 21
184.7653350509
 31
0.0
  0
LINE
  5
E5
330
E0
100
AcDbEntity
  8
DEFAULT
  6
CONTINUOUS
 62
     7
 48
25.4
100
AcDbLine
 10
160.1444916452
 20
194.2653350509
 30
0.0
 11
195.8742470599
 21
194.2653350509
 31
0.0
  0
LINE
  5
E6
330
E0
100
AcDbEntity
  8
DEFAULT
  6
CONTINUOUS
 62
     7
 48
25.4
100
AcDbLine
 10
194.3742470468
 20
172.6409800998
 30
0.0
 11
194.3742470468
 21
194.2653347454
 31
0.0
  0
TEXT
  5
E7
330
E0
100
AcDbEntity
  8
DEFAULT
  6
CONTINUOUS
 62
     7
 48
25.4
100
AcDbText
 10
193.6242470468
 20
177.3315910392
 30
0.0
 40
3.0
  1
9,5
 50
90.0
  7
SEACAD_SEISO_TTF
 11
190.6242470468
 21
177.3315910392
 31
0.0
100
AcDbText
 73
     3
  0
TEXT
  5
E9
330
E0
100
AcDbEntity
  8
DEFAULT
  6
CONTINUOUS
 62
     7
 48
25.4
100
AcDbText
 10
193.6242470468
 20
173.6909796855
 30
0.0
 40
3.0
  1
O
 50
90.0
  7
SEACAD_SEMECI1_TTF
 11
190.6242470468
 21
173.6909796855
 31
0.0
100
AcDbText
 73
     3
  0
ENDBLK
  5
EB
330
E0
100
AcDbEntity
  8
0
100
AcDbBlockEnd
  0
BLOCK
  5
F5
330
EC
100
AcDbEntity
  8
0
100
AcDbBlockBegin
  2
SE14
 70
     0
 71
     0
 10
0.0
 20
0.0
 30
0.0
  3
SE14
  1

  0
POLYLINE
  5
EE
330
EC
100
AcDbEntity
  8
DEFAULT
  6
CONTINUOUS
 62
     7
 48
25.4
100
AcDb2dPolyline
 66
     1
 10
0.0
 20
0.0
 30
0.0
 70
     1
  0
VERTEX
  5
170
330
EE
100
AcDbEntity
  8
DEFAULT
  6
CONTINUOUS
 62
     7
100
AcDbVertex
100
AcDb2dVertex
 10
194.2421053835
 20
217.515335077
 30
0.0
  0
VERTEX
  5
171
330
EE
100
AcDbEntity
  8
DEFAULT
  6
CONTINUOUS
 62
     7
100
AcDbVertex
100
AcDb2dVertex
 10
193.7421053791
 20
214.5153350509
 30
0.0
  0
VERTEX
  5
172
330
EE
100
AcDbEntity
  8
DEFAULT
  6
CONTINUOUS
 62
     7
100
AcDbVertex
100
AcDb2dVertex
 10
193.2421053748
 20
217.515335077
 30
0.0
  0
VERTEX
  5
173
330
EE
100
AcDbEntity
  8
DEFAULT
  6
CONTINUOUS
 62
     7
100
AcDbVertex
100
AcDb2dVertex
 10
194.2421053835
 20
217.515335077
 30
0.0
  0
SEQEND
  5
16F
330
EE
100
AcDbEntity
  8
DEFAULT
  6
CONTINUOUS
 62
     7
 48
25.4
  0
POLYLINE
  5
EF
330
EC
100
AcDbEntity
  8
DEFAULT
  6
CONTINUOUS
 62
     7
 48
25.4
100
AcDb2dPolyline
 66
     1
 10
0.0
 20
0.0
 30
0.0
 70
     1
  0
VERTEX
  5
175
330
EF
100
AcDbEntity
  8
DEFAULT
  6
CONTINUOUS
 62
     7
100
AcDbVertex
100
AcDb2dVertex
 10
194.2421053835
 20
204.5153350248
 30
0.0
  0
VERTEX
  5
176
330
EF
100
AcDbEntity
  8
DEFAULT
  6
CONTINUOUS
 62
     7
100
AcDbVertex
100
AcDb2dVertex
 10
193.7421053791
 20
207.5153350509
 30
0.0
  0
VERTEX
  5
177
330
EF
100
AcDbEntity
  8
DEFAULT
  6
CONTINUOUS
 62
     7
100
AcDbVertex
100
AcDb2dVertex
 10
193.2421053748
 20
204.5153350248
 30
0.0
  0
VERTEX
  5
178
330
EF
100
AcDbEntity
  8
DEFAULT
  6
CONTINUOUS
 62
     7
100
AcDbVertex
100
AcDb2dVertex
 10
194.2421053835
 20
204.5153350248
 30
0.0
  0
SEQEND
  5
174
330
EF
100
AcDbEntity
  8
DEFAULT
  6
CONTINUOUS
 62
     7
 48
25.4
  0
LINE
  5
F0
330
EC
100
AcDbEntity
  8
DEFAULT
  6
CONTINUOUS
 62
     7
 48
25.4
100
AcDbLine
 10
182.4331335867
 20
214.5153350509
 30
0.0
 11
195.2421053922
 21
214.5153350509
 31
0.0
  0
LINE
  5
F1
330
EC
100
AcDbEntity
  8
DEFAULT
  6
CONTINUOUS
 62
     7
 48
25.4
100
AcDbLine
 10
182.4331335867
 20
207.5153350509
 30
0.0
 11
195.2421053922
 21
207.5153350509
 31
0.0
  0
LINE
  5
F2
330
EC
100
AcDbEntity
  8
DEFAULT
  6
CONTINUOUS
 62
     7
 48
25.4
100
AcDbLine
 10
193.7421053791
 20
220.5153351031
 30
0.0
 11
193.7421053791
 21
201.5153347827
 31
0.0
  0
TEXT
  5
F3
330
EC
100
AcDbEntity
  8
DEFAULT
  6
CONTINUOUS
 62
     7
 48
25.4
100
AcDbText
 10
192.9921053791
 20
211.9138462569
 30
0.0
 40
3.0
  1
7
 50
90.0
  7
SEACAD_SEISO_TTF
 11
189.9921053791
 21
211.9138462569
 31
0.0
100
AcDbText
 73
     3
  0
TEXT
  5
F4
330
EC
100
AcDbEntity
  8
DEFAULT
  6
CONTINUOUS
 62
     7
 48
25.4
100
AcDbText
 10
192.9921053791
 20
208.2077327198
 30
0.0
 40
3.0
  1
q
 50
90.0
  7
SEACAD_SEMECI1_TTF
 11
189.9921053791
 21
208.2077327198
 31
0.0
100
AcDbText
 73
     3
  0
ENDBLK
  5
F6
330
EC
100
AcDbEntity
  8
0
100
AcDbBlockEnd
  0
BLOCK
  5
FF
330
F7
100
AcDbEntity
  8
0
100
AcDbBlockBegin
  2
SE15
 70
     0
 71
     0
 10
0.0
 20
0.0
 30
0.0
  3
SE15
  1

  0
POLYLINE
  5
F9
330
F7
100
AcDbEntity
  8
DEFAULT
  6
CONTINUOUS
 62
     7
 48
25.4
100
AcDb2dPolyline
 66
     1
 10
0.0
 20
0.0
 30
0.0
 70
     1
  0
VERTEX
  5
17A
330
F9
100
AcDbEntity
  8
DEFAULT
  6
CONTINUOUS
 62
     7
100
AcDbVertex
100
AcDb2dVertex
 10
206.6242745885
 20
229.5153350248
 30
0.0
  0
VERTEX
  5
17B
330
F9
100
AcDbEntity
  8
DEFAULT
  6
CONTINUOUS
 62
     7
100
AcDbVertex
100
AcDb2dVertex
 10
206.1242745842
 20
232.5153350509
 30
0.0
  0
VERTEX
  5
17C
330
F9
100
AcDbEntity
  8
DEFAULT
  6
CONTINUOUS
 62
     7
100
AcDbVertex
100
AcDb2dVertex
 10
205.6242745798
 20
229.5153350248
 30
0.0
  0
VERTEX
  5
17D
330
F9
100
AcDbEntity
  8
DEFAULT
  6
CONTINUOUS
 62
     7
100
AcDbVertex
100
AcDb2dVertex
 10
206.6242745885
 20
229.5153350248
 30
0.0
  0
SEQEND
  5
179
330
F9
100
AcDbEntity
  8
DEFAULT
  6
CONTINUOUS
 62
     7
 48
25.4
  0
POLYLINE
  5
FA
330
F7
100
AcDbEntity
  8
DEFAULT
  6
CONTINUOUS
 62
     7
 48
25.4
100
AcDb2dPolyline
 66
     1
 10
0.0
 20
0.0
 30
0.0
 70
     1
  0
VERTEX
  5
17F
330
FA
100
AcDbEntity
  8
DEFAULT
  6
CONTINUOUS
 62
     7
100
AcDbVertex
100
AcDb2dVertex
 10
206.6242745885
 20
192.515335077
 30
0.0
  0
VERTEX
  5
180
330
FA
100
AcDbEntity
  8
DEFAULT
  6
CONTINUOUS
 62
     7
100
AcDbVertex
100
AcDb2dVertex
 10
206.1242745842
 20
189.5153350509
 30
0.0
  0
VERTEX
  5
181
330
FA
100
AcDbEntity
  8
DEFAULT
  6
CONTINUOUS
 62
     7
100
AcDbVertex
100
AcDb2dVertex
 10
205.6242745798
 20
192.515335077
 30
0.0
  0
VERTEX
  5
182
330
FA
100
AcDbEntity
  8
DEFAULT
  6
CONTINUOUS
 62
     7
100
AcDbVertex
100
AcDb2dVertex
 10
206.6242745885
 20
192.515335077
 30
0.0
  0
SEQEND
  5
17E
330
FA
100
AcDbEntity
  8
DEFAULT
  6
CONTINUOUS
 62
     7
 48
25.4
  0
LINE
  5
FB
330
F7
100
AcDbEntity
  8
DEFAULT
  6
CONTINUOUS
 62
     7
 48
25.4
100
AcDbLine
 10
202.0154954518
 20
232.5153350509
 30
0.0
 11
207.6242745972
 21
232.5153350509
 31
0.0
  0
LINE
  5
FC
330
F7
100
AcDbEntity
  8
DEFAULT
  6
CONTINUOUS
 62
     7
 48
25.4
100
AcDbLine
 10
203.7827210153
 20
189.5153350509
 30
0.0
 11
207.6242745972
 21
189.5153350509
 31
0.0
  0
LINE
  5
FD
330
F7
100
AcDbEntity
  8
DEFAULT
  6
CONTINUOUS
 62
     7
 48
25.4
100
AcDbLine
 10
206.1242745842
 20
232.5153350509
 30
0.0
 11
206.1242745842
 21
189.5153335906
 31
0.0
  0
TEXT
  5
FE
330
F7
100
AcDbEntity
  8
DEFAULT
  6
CONTINUOUS
 62
     7
 48
25.4
100
AcDbText
 10
205.3742745842
 20
209.3448797753
 30
0.0
 40
3.0
  1
43
 50
90.0
  7
SEACAD_SEISO_TTF
 11
202.3742745842
 21
209.3448797753
 31
0.0
100
AcDbText
 73
     3
  0
ENDBLK
  5
100
330
F7
100
AcDbEntity
  8
0
100
AcDbBlockEnd
  0
BLOCK
  5
10D
330
101
100
AcDbEntity
  8
0
100
AcDbBlockBegin
  2
SE16
 70
     0
 71
     0
 10
0.0
 20
0.0
 30
0.0
  3
SE16
  1

  0
ARC
  5
104
330
101
100
AcDbEntity
  8
MEGA_002282
  6
CONTINUOUS
 62
     7
 48
25.4
100
AcDbCircle
 10
184.9762046366
 20
237.3933151396
 30
0.0
 40
0.8499999999999943
100
AcDbArc
 50
0.0
 51
90.0
  0
LINE
  5
105
330
101
100
AcDbEntity
  8
MEGA_002282
  6
CONTINUOUS
 62
     7
 48
25.4
100
AcDbLine
 10
179.6262046366
 20
226.7433151396
 30
0.0
 11
184.9762046366
 21
226.7433151396
 31
0.0
  0
LINE
  5
106
330
101
100
AcDbEntity
  8
MEGA_002282
  6
CONTINUOUS
 62
     7
 48
25.4
100
AcDbLine
 10
178.8262046366
 20
225.0933151396
 30
0.0
 11
179.6262046366
 21
225.0933151396
 31
0.0
  0
ARC
  5
107
330
101
100
AcDbEntity
  8
MEGA_002282
  6
CONTINUOUS
 62
     7
 48
25.4
100
AcDbCircle
 10
184.9762046366
 20
227.5933151396
 30
0.0
 40
0.8499999999999943
100
AcDbArc
 50
270.0
 51
360.0
  0
LINE
  5
108
330
101
100
AcDbEntity
  8
MEGA_002282
  6
CONTINUOUS
 62
     7
 48
25.4
100
AcDbLine
 10
179.6262046366
 20
239.8933151396
 30
0.0
 11
179.6262046366
 21
225.0933151396
 31
0.0
  0
LINE
  5
109
330
101
100
AcDbEntity
  8
MEGA_002282
  6
CONTINUOUS
 62
     7
 48
25.4
100
AcDbLine
 10
178.8262046366
 20
239.8933151396
 30
0.0
 11
178.8262046366
 21
225.0933151396
 31
0.0
  0
LINE
  5
10A
330
101
100
AcDbEntity
  8
MEGA_002282
  6
CONTINUOUS
 62
     7
 48
25.4
100
AcDbLine
 10
185.8262046366
 20
237.3933151396
 30
0.0
 11
185.8262046366
 21
227.5933151396
 31
0.0
  0
LINE
  5
10B
330
101
100
AcDbEntity
  8
MEGA_002282
  6
CONTINUOUS
 62
     7
 48
25.4
100
AcDbLine
 10
184.9762046366
 20
238.2433151396
 30
0.0
 11
179.6262046366
 21
238.2433151396
 31
0.0
  0
LINE
  5
10C
330
101
100
AcDbEntity
  8
MEGA_002282
  6
CONTINUOUS
 62
     7
 48
25.4
100
AcDbLine
 10
179.6262046366
 20
239.8933151396
 30
0.0
 11
178.8262046366
 21
239.8933151396
 31
0.0
  0
ENDBLK
  5
10E
330
101
100
AcDbEntity
  8
0
100
AcDbBlockEnd
  0
BLOCK
  5
118
330
10F
100
AcDbEntity
  8
0
100
AcDbBlockBegin
  2
SE17
 70
     0
 71
     0
 10
0.0
 20
0.0
 30
0.0
  3
SE17
  1

  0
POLYLINE
  5
111
330
10F
100
AcDbEntity
  8
DEFAULT
  6
CONTINUOUS
 62
     7
 48
25.4
100
AcDb2dPolyline
 66
     1
 10
0.0
 20
0.0
 30
0.0
 70
     1
  0
VERTEX
  5
184
330
111
100
AcDbEntity
  8
DEFAULT
  6
CONTINUOUS
 62
     7
100
AcDbVertex
100
AcDb2dVertex
 10
195.0031719369
 20
235.2433151136
 30
0.0
  0
VERTEX
  5
185
330
111
100
AcDbEntity
  8
DEFAULT
  6
CONTINUOUS
 62
     7
100
AcDbVertex
100
AcDb2dVertex
 10
194.5031719326
 20
238.2433151396
 30
0.0
  0
VERTEX
  5
186
330
111
100
AcDbEntity
  8
DEFAULT
  6
CONTINUOUS
 62
     7
100
AcDbVertex
100
AcDb2dVertex
 10
194.0031719282
 20
235.2433151136
 30
0.0
  0
VERTEX
  5
187
330
111
100
AcDbEntity
  8
DEFAULT
  6
CONTINUOUS
 62
     7
100
AcDbVertex
100
AcDb2dVertex
 10
195.0031719369
 20
235.2433151136
 30
0.0
  0
SEQEND
  5
183
330
111
100
AcDbEntity
  8
DEFAULT
  6
CONTINUOUS
 62
     7
 48
25.4
  0
POLYLINE
  5
112
330
10F
100
AcDbEntity
  8
DEFAULT
  6
CONTINUOUS
 62
     7
 48
25.4
100
AcDb2dPolyline
 66
     1
 10
0.0
 20
0.0
 30
0.0
 70
     1
  0
VERTEX
  5
189
330
112
100
AcDbEntity
  8
DEFAULT
  6
CONTINUOUS
 62
     7
100
AcDbVertex
100
AcDb2dVertex
 10
195.0031719369
 20
229.7433151657
 30
0.0
  0
VERTEX
  5
18A
330
112
100
AcDbEntity
  8
DEFAULT
  6
CONTINUOUS
 62
     7
100
AcDbVertex
100
AcDb2dVertex
 10
194.5031719326
 20
226.7433151396
 30
0.0
  0
VERTEX
  5
18B
330
112
100
AcDbEntity
  8
DEFAULT
  6
CONTINUOUS
 62
     7
100
AcDbVertex
100
AcDb2dVertex
 10
194.0031719282
 20
229.7433151657
 30
0.0
  0
VERTEX
  5
18C
330
112
100
AcDbEntity
  8
DEFAULT
  6
CONTINUOUS
 62
     7
100
AcDbVertex
100
AcDb2dVertex
 10
195.0031719369
 20
229.7433151657
 30
0.0
  0
SEQEND
  5
188
330
112
100
AcDbEntity
  8
DEFAULT
  6
CONTINUOUS
 62
     7
 48
25.4
  0
LINE
  5
113
330
10F
100
AcDbEntity
  8
DEFAULT
  6
CONTINUOUS
 62
     7
 48
25.4
100
AcDbLine
 10
184.9762048616
 20
238.2433151396
 30
0.0
 11
196.0031719456
 21
238.2433151396
 31
0.0
  0
LINE
  5
114
330
10F
100
AcDbEntity
  8
DEFAULT
  6
CONTINUOUS
 62
     7
 48
25.4
100
AcDbLine
 10
184.9762048616
 20
226.7433151396
 30
0.0
 11
196.0031719456
 21
226.7433151396
 31
0.0
  0
LINE
  5
115
330
10F
100
AcDbEntity
  8
DEFAULT
  6
CONTINUOUS
 62
     7
 48
25.4
100
AcDbLine
 10
194.5031719326
 20
249.0606529208
 30
0.0
 11
194.5031719326
 21
226.7433151173
 31
0.0
  0
TEXT
  5
116
330
10F
100
AcDbEntity
  8
DEFAULT
  6
CONTINUOUS
 62
     7
 48
25.4
100
AcDbText
 10
193.7531719326
 20
243.3061074123
 30
0.0
 40
3.0
  1
11,5
 50
90.0
  7
SEACAD_SEISO_TTF
 11
190.7531719326
 21
243.3061074123
 31
0.0
100
AcDbText
 73
     3
  0
TEXT
  5
117
330
10F
100
AcDbEntity
  8
DEFAULT
  6
CONTINUOUS
 62
     7
 48
25.4
100
AcDbText
 10
193.7531719326
 20
239.6654960586
 30
0.0
 40
3.0
  1
O
 50
90.0
  7
SEACAD_SEMECI1_TTF
 11
190.7531719326
 21
239.6654960586
 31
0.0
100
AcDbText
 73
     3
  0
ENDBLK
  5
119
330
10F
100
AcDbEntity
  8
0
100
AcDbBlockEnd
  0
BLOCK
  5
122
330
11A
100
AcDbEntity
  8
0
100
AcDbBlockBegin
  2
SE18
 70
     0
 71
     0
 10
0.0
 20
0.0
 30
0.0
  3
SE18
  1

  0
POLYLINE
  5
11C
330
11A
100
AcDbEntity
  8
DEFAULT
  6
CONTINUOUS
 62
     7
 48
25.4
100
AcDb2dPolyline
 66
     1
 10
0.0
 20
0.0
 30
0.0
 70
     1
  0
VERTEX
  5
18E
330
11C
100
AcDbEntity
  8
DEFAULT
  6
CONTINUOUS
 62
     7
100
AcDbVertex
100
AcDb2dVertex
 10
157.1444916713
 20
270.8976072094
 30
0.0
  0
VERTEX
  5
18F
330
11C
100
AcDbEntity
  8
DEFAULT
  6
CONTINUOUS
 62
     7
100
AcDbVertex
100
AcDb2dVertex
 10
154.1444916452
 20
270.397607205
 30
0.0
  0
VERTEX
  5
190
330
11C
100
AcDbEntity
  8
DEFAULT
  6
CONTINUOUS
 62
     7
100
AcDbVertex
100
AcDb2dVertex
 10
157.1444916713
 20
269.8976072007
 30
0.0
  0
VERTEX
  5
191
330
11C
100
AcDbEntity
  8
DEFAULT
  6
CONTINUOUS
 62
     7
100
AcDbVertex
100
AcDb2dVertex
 10
157.1444916713
 20
270.8976072094
 30
0.0
  0
SEQEND
  5
18D
330
11C
100
AcDbEntity
  8
DEFAULT
  6
CONTINUOUS
 62
     7
 48
25.4
  0
POLYLINE
  5
11D
330
11A
100
AcDbEntity
  8
DEFAULT
  6
CONTINUOUS
 62
     7
 48
25.4
100
AcDb2dPolyline
 66
     1
 10
0.0
 20
0.0
 30
0.0
 70
     1
  0
VERTEX
  5
193
330
11D
100
AcDbEntity
  8
DEFAULT
  6
CONTINUOUS
 62
     7
100
AcDbVertex
100
AcDb2dVertex
 10
181.1444916191
 20
270.8976072094
 30
0.0
  0
VERTEX
  5
194
330
11D
100
AcDbEntity
  8
DEFAULT
  6
CONTINUOUS
 62
     7
100
AcDbVertex
100
AcDb2dVertex
 10
184.1444916452
 20
270.397607205
 30
0.0
  0
VERTEX
  5
195
330
11D
100
AcDbEntity
  8
DEFAULT
  6
CONTINUOUS
 62
     7
100
AcDbVertex
100
AcDb2dVertex
 10
181.1444916191
 20
269.8976072007
 30
0.0
  0
VERTEX
  5
196
330
11D
100
AcDbEntity
  8
DEFAULT
  6
CONTINUOUS
 62
     7
100
AcDbVertex
100
AcDb2dVertex
 10
181.1444916191
 20
270.8976072094
 30
0.0
  0
SEQEND
  5
192
330
11D
100
AcDbEntity
  8
DEFAULT
  6
CONTINUOUS
 62
     7
 48
25.4
  0
LINE
  5
11E
330
11A
100
AcDbEntity
  8
DEFAULT
  6
CONTINUOUS
 62
     7
 48
25.4
100
AcDbLine
 10
154.1444916452
 20
232.5153350509
 30
0.0
 11
154.1444916452
 21
271.8976072181
 31
0.0
  0
LINE
  5
11F
330
11A
100
AcDbEntity
  8
DEFAULT
  6
CONTINUOUS
 62
     7
 48
25.4
100
AcDbLine
 10
184.1444916452
 20
214.2537244607
 30
0.0
 11
184.1444916452
 21
271.8976072181
 31
0.0
  0
LINE
  5
120
330
11A
100
AcDbEntity
  8
DEFAULT
  6
CONTINUOUS
 62
     7
 48
25.4
100
AcDbLine
 10
154.1444916452
 20
270.397607205
 30
0.0
 11
184.1444909747
 21
270.397607205
 31
0.0
  0
TEXT
  5
121
330
11A
100
AcDbEntity
  8
DEFAULT
  6
CONTINUOUS
 62
     7
 48
25.4
100
AcDbText
 10
167.4740367645
 20
271.147607205
 30
0.0
 40
3.0
  1
30
  7
SEACAD_SEISO_TTF
 11
167.4740367645
 21
274.147607205
 31
0.0
100
AcDbText
 73
     3
  0
ENDBLK
  5
123
330
11A
100
AcDbEntity
  8
0
100
AcDbBlockEnd
  0
ENDSEC
  0
SECTION
  2
ENTITIES
  0
TEXT
  5
2F
330
1F
100
AcDbEntity
  8
DEFAULT
  6
CONTINUOUS
 62
     7
 48
25.4
100
AcDbText
 10
147.4610620927
 20
14.8735150615
 30
0.0
 40
10.0
  1
41.420
  7
SEACAD_SEISO_TTF
 11
147.4610620927
 21
24.8735150615
 31
0.0
100
AcDbText
 73
     3
  0
INSERT
  5
32
330
1F
100
AcDbEntity
  8
0
100
AcDbBlockReference
  2
SE
 10
0.0
 20
0.0
 30
0.0
  0
INSERT
  5
38
330
1F
100
AcDbEntity
  8
0
100
AcDbBlockReference
  2
SE1
 10
0.0
 20
0.0
 30
0.0
  0
INSERT
  5
3D
330
1F
100
AcDbEntity
  8
0
100
AcDbBlockReference
  2
SE2
 10
0.0
 20
0.0
 30
0.0
  0
INSERT
  5
42
330
1F
100
AcDbEntity
  8
0
100
AcDbBlockReference
  2
SE3
 10
0.0
 20
0.0
 30
0.0
  0
INSERT
  5
47
330
1F
100
AcDbEntity
  8
0
100
AcDbBlockReference
  2
SE4
 10
0.0
 20
0.0
 30
0.0
  0
INSERT
  5
82
330
1F
100
AcDbEntity
  8
0
100
AcDbBlockReference
  2
SE5
 10
0.0
 20
0.0
 30
0.0
  0
INSERT
  5
9C
330
1F
100
AcDbEntity
  8
0
100
AcDbBlockReference
  2
SE6
 10
0.0
 20
0.0
 30
0.0
  0
INSERT
  5
A5
330
1F
100
AcDbEntity
  8
0
100
AcDbBlockReference
  2
SE7
 10
0.0
 20
0.0
 30
0.0
  0
INSERT
  5
AF
330
1F
100
AcDbEntity
  8
0
100
AcDbBlockReference
  2
SE8
 10
0.0
 20
0.0
 30
0.0
  0
INSERT
  5
B9
330
1F
100
AcDbEntity
  8
0
100
AcDbBlockReference
  2
SE9
 10
0.0
 20
0.0
 30
0.0
  0
INSERT
  5
C3
330
1F
100
AcDbEntity
  8
0
100
AcDbBlockReference
  2
SE10
 10
0.0
 20
0.0
 30
0.0
  0
INSERT
  5
CD
330
1F
100
AcDbEntity
  8
0
100
AcDbBlockReference
  2
SE11
 10
0.0
 20
0.0
 30
0.0
  0
INSERT
  5
D7
330
1F
100
AcDbEntity
  8
0
100
AcDbBlockReference
  2
SE12
 10
0.0
 20
0.0
 30
0.0
  0
INSERT
  5
E1
330
1F
100
AcDbEntity
  8
0
100
AcDbBlockReference
  2
SE13
 10
0.0
 20
0.0
 30
0.0
  0
INSERT
  5
ED
330
1F
100
AcDbEntity
  8
0
100
AcDbBlockReference
  2
SE14
 10
0.0
 20
0.0
 30
0.0
  0
INSERT
  5
F8
330
1F
100
AcDbEntity
  8
0
100
AcDbBlockReference
  2
SE15
 10
0.0
 20
0.0
 30
0.0
  0
INSERT
  5
102
330
1F
100
AcDbEntity
  8
0
100
AcDbBlockReference
  2
SE16
 10
0.0
 20
0.0
 30
0.0
  0
INSERT
  5
110
330
1F
100
AcDbEntity
  8
0
100
AcDbBlockReference
  2
SE17
 10
0.0
 20
0.0
 30
0.0
  0
INSERT
  5
11B
330
1F
100
AcDbEntity
  8
0
100
AcDbBlockReference
  2
SE18
 10
0.0
 20
0.0
 30
0.0
  0
ENDSEC
  0
SECTION
  2
OBJECTS
  0
DICTIONARY
  5
C
330
0
100
AcDbDictionary
  3
ACAD_GROUP
350
D
  3
ACAD_LAYOUT
350
1A
  3
ACAD_MLINESTYLE
350
17
  3
ACAD_PLOTSETTINGS
350
19
  3
ACAD_TABLESTYLE
350
2A
  3
ACDBVARIABLEDICTIONARY
350
2C
1001
ACAD
1000
TREAT_AS_HARD
1070
     0
  0
DICTIONARY
  5
197
330
29
100
AcDbDictionary
  3
ACAD_XREC_ROUNDTRIP
360
198
  0
DICTIONARY
  5
D
102
{ACAD_REACTORS
330
C
102
}
330
C
100
AcDbDictionary
1001
ACAD
1000
TREAT_AS_HARD
1070
     0
  0
DICTIONARY
  5
1A
102
{ACAD_REACTORS
330
C
102
}
330
C
100
AcDbDictionary
1001
ACAD
1000
TREAT_AS_HARD
1070
     0
  0
DICTIONARY
  5
17
102
{ACAD_REACTORS
330
C
102
}
330
C
100
AcDbDictionary
  3
STANDARD
350
18
1001
ACAD
1000
TREAT_AS_HARD
1070
     0
  0
DICTIONARY
  5
19
102
{ACAD_REACTORS
330
C
102
}
330
C
100
AcDbDictionary
1001
ACAD
1000
TREAT_AS_HARD
1070
     0
  0
DICTIONARY
  5
2A
102
{ACAD_REACTORS
330
C
102
}
330
C
100
AcDbDictionary
  3
STANDARD
350
2B
1001
ACAD
1000
TREAT_AS_HARD
1070
     0
  0
DICTIONARY
  5
2C
102
{ACAD_REACTORS
330
C
102
}
330
C
100
AcDbDictionary
  3
CTABLESTYLE
350
2D
1001
ACAD
1000
TREAT_AS_HARD
1070
     0
  0
XRECORD
  5
198
102
{ACAD_REACTORS
330
197
102
}
330
197
100
AcDbXrecord
102
UCS
 74
     0
 71
     1
 10
0.0
 20
0.0
 30
0.0
 10
1.0
 20
0.0
 30
0.0
 10
0.0
 20
1.0
 30
0.0
146
0.0
 79
     0
102
VIEW
281
     0
  0
MLINESTYLE
  5
18
102
{ACAD_REACTORS
330
17
102
}
330
17
100
AcDbMlineStyle
  2
Standard
 70
     0
  3

 62
   256
 51
90.0
 52
90.0
 71
     2
 49
0.5
 62
   256
  6
BYLAYER
 49
-0.5
 62
   256
  6
BYLAYER
  0
TABLESTYLE
  5
2B
102
{ACAD_REACTORS
330
2A
102
}
330
2A
100
AcDbTableStyle
  3
Standard
 70
     0
 71
     0
 40
0.06
 41
0.06
280
     0
281
     0
  7
STANDARD
140
0.18
170
     2
 62
     0
 63
     7
283
     0
274
    -2
284
     1
 64
     0
275
    -2
285
     1
 65
     0
276
    -2
286
     1
 66
     0
277
    -2
287
     1
 67
     0
278
    -2
288
     1
 68
     0
279
    -2
289
     1
 69
     0
  7
STANDARD
140
0.25
170
     5
 62
     0
 63
     7
283
     0
274
    -2
284
     1
 64
     0
275
    -2
285
     1
 65
     0
276
    -2
286
     1
 66
     0
277
    -2
287
     1
 67
     0
278
    -2
288
     1
 68
     0
279
    -2
289
     1
 69
     0
  7
STANDARD
140
0.18
170
     5
 62
     0
 63
     7
283
     0
274
    -2
284
     1
 64
     0
275
    -2
285
     1
 65
     0
276
    -2
286
     1
 66
     0
277
    -2
287
     1
 67
     0
278
    -2
288
     1
 68
     0
279
    -2
289
     1
 69
     0
  0
DICTIONARYVAR
  5
2D
102
{ACAD_REACTORS
330
2C
102
}
330
2C
100
DictionaryVariables
280
     0
  1
Standard
  0
ENDSEC
  0
EOF
