  0
SECTION
  2
HEADER
  9
$ACADVER
  1
AC1012
  9
$DWGCODEPAGE
  3
ansi_1252
  9
$INSBASE
 10
0.0
 20
0.0
 30
0.0
  9
$EXTMIN
 10
0.0
 20
0.0
 30
0.0
  9
$EXTMAX
 10
210.0
 20
297.0
 30
0.0
  9
$LIMMIN
 10
0.0
 20
0.0
  9
$LIMMAX
 10
210.0
 20
297.0
  9
$ORTHOMODE
 70
     0
  9
$REGENMODE
 70
     1
  9
$FILLMODE
 70
     1
  9
$QTEXTMODE
 70
     0
  9
$MIRRTEXT
 70
     1
  9
$DRAGMODE
 70
     2
  9
$LTSCALE
 40
1.0
  9
$OSMODE
 70
    37
  9
$ATTMODE
 70
     1
  9
$TEXTSIZE
 40
0.2
  9
$TRACEWID
 40
0.05
  9
$TEXTSTYLE
  7
STANDARD
  9
$CLAYER
  8
0
  9
$CELTYPE
  6
BYLAYER
  9
$CECOLOR
 62
   256
  9
$CELTSCALE
 40
25.4
  9
$DELOBJ
 70
     1
  9
$DISPSILH
 70
     0
  9
$DIMSCALE
 40
1.0
  9
$DIMASZ
 40
0.18
  9
$DIMEXO
 40
0.0625
  9
$DIMDLI
 40
0.38
  9
$DIMRND
 40
0.0
  9
$DIMDLE
 40
0.0
  9
$DIMEXE
 40
0.18
  9
$DIMTP
 40
0.0
  9
$DIMTM
 40
0.0
  9
$DIMTXT
 40
0.18
  9
$DIMCEN
 40
0.09
  9
$DIMTSZ
 40
0.0
  9
$DIMTOL
 70
     0
  9
$DIMLIM
 70
     0
  9
$DIMTIH
 70
     1
  9
$DIMTOH
 70
     1
  9
$DIMSE1
 70
     0
  9
$DIMSE2
 70
     0
  9
$DIMTAD
 70
     0
  9
$DIMZIN
 70
     0
  9
$DIMBLK
  1

  9
$DIMASO
 70
     1
  9
$DIMSHO
 70
     1
  9
$DIMPOST
  1

  9
$DIMAPOST
  1

  9
$DIMALT
 70
     0
  9
$DIMALTD
 70
     2
  9
$DIMALTF
 40
25.4
  9
$DIMLFAC
 40
1.0
  9
$DIMTOFL
 70
     0
  9
$DIMTVP
 40
0.0
  9
$DIMTIX
 70
     0
  9
$DIMSOXD
 70
     0
  9
$DIMSAH
 70
     0
  9
$DIMBLK1
  1

  9
$DIMBLK2
  1

  9
$DIMSTYLE
  2
STANDARD
  9
$DIMCLRD
 70
     0
  9
$DIMCLRE
 70
     0
  9
$DIMCLRT
 70
     0
  9
$DIMTFAC
 40
1.0
  9
$DIMGAP
 40
0.09
  9
$DIMJUST
 70
     0
  9
$DIMSD1
 70
     0
  9
$DIMSD2
 70
     0
  9
$DIMTOLJ
 70
     1
  9
$DIMTZIN
 70
     0
  9
$DIMALTZ
 70
     0
  9
$DIMALTTZ
 70
     0
  9
$DIMFIT
 70
     3
  9
$DIMUPT
 70
     0
  9
$DIMUNIT
 70
     2
  9
$DIMDEC
 70
     4
  9
$DIMTDEC
 70
     4
  9
$DIMALTU
 70
     2
  9
$DIMALTTD
 70
     2
  9
$DIMTXSTY
  7
STANDARD
  9
$DIMAUNIT
 70
     0
  9
$LUNITS
 70
     2
  9
$LUPREC
 70
     4
  9
$SKETCHINC
 40
0.1
  9
$FILLETRAD
 40
0.5
  9
$AUNITS
 70
     0
  9
$AUPREC
 70
     0
  9
$MENU
  1
.
  9
$ELEVATION
 40
0.0
  9
$PELEVATION
 40
0.0
  9
$THICKNESS
 40
0.0
  9
$LIMCHECK
 70
     0
  9
$CHAMFERA
 40
0.5
  9
$CHAMFERB
 40
0.5
  9
$CHAMFERC
 40
1.0
  9
$CHAMFERD
 40
0.0
  9
$SKPOLY
 70
     0
  9
$TDCREATE
 40
2453762.542839005
  9
$TDUPDATE
 40
2453762.542839016
  9
$TDINDWG
 40
0.0000000116
  9
$TDUSRTIMER
 40
0.0000000116
  9
$USRTIMER
 70
     1
  9
$ANGBASE
 50
0.0
  9
$ANGDIR
 70
     0
  9
$PDMODE
 70
     0
  9
$PDSIZE
 40
0.0
  9
$PLINEWID
 40
0.0
  9
$COORDS
 70
     1
  9
$SPLFRAME
 70
     0
  9
$SPLINETYPE
 70
     6
  9
$SPLINESEGS
 70
     8
  9
$ATTDIA
 70
     0
  9
$ATTREQ
 70
     1
  9
$HANDLING
 70
     1
  9
$HANDSEED
  5
1F6
  9
$SURFTAB1
 70
     6
  9
$SURFTAB2
 70
     6
  9
$SURFTYPE
 70
     6
  9
$SURFU
 70
     6
  9
$SURFV
 70
     6
  9
$UCSNAME
  2

  9
$UCSORG
 10
0.0
 20
0.0
 30
0.0
  9
$UCSXDIR
 10
1.0
 20
0.0
 30
0.0
  9
$UCSYDIR
 10
0.0
 20
1.0
 30
0.0
  9
$PUCSNAME
  2

  9
$PUCSORG
 10
0.0
 20
0.0
 30
0.0
  9
$PUCSXDIR
 10
1.0
 20
0.0
 30
0.0
  9
$PUCSYDIR
 10
0.0
 20
1.0
 30
0.0
  9
$USERI1
 70
     0
  9
$USERI2
 70
     0
  9
$USERI3
 70
     0
  9
$USERI4
 70
     0
  9
$USERI5
 70
     0
  9
$USERR1
 40
0.0
  9
$USERR2
 40
0.0
  9
$USERR3
 40
0.0
  9
$USERR4
 40
0.0
  9
$USERR5
 40
0.0
  9
$WORLDVIEW
 70
     1
  9
$SHADEDGE
 70
     3
  9
$SHADEDIF
 70
    70
  9
$TILEMODE
 70
     1
  9
$MAXACTVP
 70
    64
  9
$PINSBASE
 10
0.0
 20
0.0
 30
0.0
  9
$PLIMCHECK
 70
     0
  9
$PEXTMIN
 10
0.0
 20
0.0
 30
0.0
  9
$PEXTMAX
 10
210.0
 20
297.0
 30
0.0
  9
$PLIMMIN
 10
0.0
 20
0.0
  9
$PLIMMAX
 10
12.0
 20
9.0
  9
$UNITMODE
 70
     0
  9
$VISRETAIN
 70
     1
  9
$PLINEGEN
 70
     0
  9
$PSLTSCALE
 70
     1
  9
$TREEDEPTH
 70
  3020
  9
$PICKSTYLE
 70
     1
  9
$CMLSTYLE
  2
STANDARD
  9
$CMLJUST
 70
     0
  9
$CMLSCALE
 40
1.0
  9
$SAVEIMAGES
 70
     1
  0
ENDSEC
  0
SECTION
  2
CLASSES
  0
CLASS
  1
ACDBDICTIONARYWDFLT
  2
AcDbDictionaryWithDefault
  3
ObjectDBX Classes
 90
        0
280
     0
281
     0
  0
CLASS
  1
TABLESTYLE
  2
AcDbTableStyle
  3
ObjectDBX Classes
 90
     2047
280
     0
281
     0
  0
CLASS
  1
DICTIONARYVAR
  2
AcDbDictionaryVar
  3
ObjectDBX Classes
 90
        0
280
     0
281
     0
  0
CLASS
  1
XRECORD
  2
AcDbXrecord
  3
AutoCAD 2000
 90
    32768
280
     0
281
     0
  0
CLASS
  1
LWPOLYLINE
  2
AcDbPolyline
  3
AutoCAD 2000
 90
    32768
280
     0
281
     1
  0
CLASS
  1
HATCH
  2
AcDbHatch
  3
AutoCAD 2000
 90
    32768
280
     0
281
     1
  0
CLASS
  1
ACDBPLACEHOLDER
  2
AcDbPlaceHolder
  3
ObjectDBX Classes
 90
        0
280
     0
281
     0
  0
CLASS
  1
LAYOUT
  2
AcDbLayout
  3
ObjectDBX Classes
 90
        0
280
     0
281
     0
  0
ENDSEC
  0
SECTION
  2
TABLES
  0
TABLE
  2
VPORT
  5
8
330
0
100
AcDbSymbolTable
 70
     2
  0
VPORT
  5
29
102
{ACAD_XDICTIONARY
360
1F4
102
}
330
8
100
AcDbSymbolTableRecord
100
AcDbViewportTableRecord
  2
*ACTIVE
 70
     0
 10
0.0
 20
0.0
 11
1.0
 21
1.0
 12
10.4299065421
 22
4.5
 13
0.0
 23
0.0
 14
0.5
 24
0.5
 15
0.5
 25
0.5
 16
0.0
 26
0.0
 36
1.0
 17
0.0
 27
0.0
 37
0.0
 40
9.0
 41
1.9729729729
 42
50.0
 43
0.0
 44
0.0
 50
0.0
 51
0.0
 71
     0
 72
   100
 73
     1
 74
     3
 75
     0
 76
     0
 77
     0
 78
     0
  0
ENDTAB
  0
TABLE
  2
LTYPE
  5
5
330
0
100
AcDbSymbolTable
 70
     3
  0
LTYPE
  5
14
330
5
100
AcDbSymbolTableRecord
100
AcDbLinetypeTableRecord
  2
BYBLOCK
 70
     0
  3

 72
    65
 73
     0
 40
0.0
  0
LTYPE
  5
15
330
5
100
AcDbSymbolTableRecord
100
AcDbLinetypeTableRecord
  2
BYLAYER
 70
     0
  3

 72
    65
 73
     0
 40
0.0
  0
LTYPE
  5
16
330
5
100
AcDbSymbolTableRecord
100
AcDbLinetypeTableRecord
  2
CONTINUOUS
 70
     0
  3
Solid line
 72
    65
 73
     0
 40
0.0
  0
LTYPE
  5
31
330
5
100
AcDbSymbolTableRecord
100
AcDbLinetypeTableRecord
  2
CENTER2
 70
     0
  3
___ _ ___ _ ___ _ ___ _ ___ _ ___ _ ___ _ ___ _
 72
    65
 73
     4
 40
1.125
 49
0.75
 74
     4
 75
     0
340
0
 46
0.0
 50
0.0
 44
0.0
 45
0.0
 49
-0.125
 74
     4
 75
     0
340
0
 46
0.0
 50
0.0
 44
0.0
 45
0.0
 49
0.125
 74
     4
 75
     0
340
0
 46
0.0
 50
0.0
 44
0.0
 45
0.0
 49
-0.125
 74
     4
 75
     0
340
0
 46
0.0
 50
0.0
 44
0.0
 45
0.0
  0
LTYPE
  5
6D
330
5
100
AcDbSymbolTableRecord
100
AcDbLinetypeTableRecord
  2
HIDDEN2
 70
     0
  3
_ _ _ _ _ _ _ _ _ _ _ _ _ _ _ _ _ _ _ _ _ _ _ _
 72
    65
 73
     2
 40
0.1875
 49
0.125
 74
     4
 75
     0
340
0
 46
0.0
 50
0.0
 44
0.0
 45
0.0
 49
-0.0625
 74
     4
 75
     0
340
0
 46
0.0
 50
0.0
 44
0.0
 45
0.0
  0
ENDTAB
  0
TABLE
  2
LAYER
  5
2
330
0
100
AcDbSymbolTable
 70
     6
  0
LAYER
  5
10
330
2
100
AcDbSymbolTableRecord
100
AcDbLayerTableRecord
  2
0
 70
     0
 62
     7
  6
CONTINUOUS
  0
LAYER
  5
30
330
2
100
AcDbSymbolTableRecord
100
AcDbLayerTableRecord
  2
DEFAULT
 70
     0
 62
     7
  6
CONTINUOUS
  0
LAYER
  5
4A
330
2
100
AcDbSymbolTableRecord
100
AcDbLayerTableRecord
  2
MEGA_002005
 70
     0
 62
     7
  6
CONTINUOUS
  0
LAYER
  5
5F
330
2
100
AcDbSymbolTableRecord
100
AcDbLayerTableRecord
  2
MEGA_001997
 70
     0
 62
     7
  6
CONTINUOUS
  0
LAYER
  5
66
330
2
100
AcDbSymbolTableRecord
100
AcDbLayerTableRecord
  2
STANDARD
 70
     0
 62
     7
  6
CONTINUOUS
  0
LAYER
  5
EB
330
2
100
AcDbSymbolTableRecord
100
AcDbLayerTableRecord
  2
MEGA_002009
 70
     0
 62
     7
  6
CONTINUOUS
  0
ENDTAB
  0
TABLE
  2
STYLE
  5
3
330
0
100
AcDbSymbolTable
 70
     3
  0
STYLE
  5
11
330
3
100
AcDbSymbolTableRecord
100
AcDbTextStyleTableRecord
  2
STANDARD
 70
     0
 40
0.0
 41
1.0
 50
0.0
 71
     0
 42
0.2
  3
txt
  4

  0
STYLE
  5
9C
330
3
100
AcDbSymbolTableRecord
100
AcDbTextStyleTableRecord
  2
SEACAD_SEISO_TTF
 70
     0
 40
0.2
 41
1.0
 50
0.0
 71
     0
 42
0.2
  3
seiso.ttf
  4

  0
STYLE
  5
9E
330
3
100
AcDbSymbolTableRecord
100
AcDbTextStyleTableRecord
  2
SEACAD_SEMECI1_TTF
 70
     0
 40
0.2
 41
1.0
 50
0.0
 71
     0
 42
0.2
  3
semeci1.ttf
  4

  0
ENDTAB
  0
TABLE
  2
VIEW
  5
6
330
0
100
AcDbSymbolTable
 70
     0
  0
ENDTAB
  0
TABLE
  2
UCS
  5
7
330
0
100
AcDbSymbolTable
 70
     0
  0
ENDTAB
  0
TABLE
  2
APPID
  5
9
330
0
100
AcDbSymbolTable
 70
     1
  0
APPID
  5
12
330
9
100
AcDbSymbolTableRecord
100
AcDbRegAppTableRecord
  2
ACAD
 70
     0
  0
ENDTAB
  0
TABLE
  2
DIMSTYLE
  5
A
330
0
100
AcDbSymbolTable
 70
     1
  0
DIMSTYLE
105
27
330
A
100
AcDbSymbolTableRecord
100
AcDbDimStyleTableRecord
  2
STANDARD
 70
     0
  3

  4

  5

  6

  7

 40
1.0
 41
0.18
 42
0.0625
 43
0.38
 44
0.18
 45
0.0
 46
0.0
 47
0.0
 48
0.0
140
0.18
141
0.09
142
0.0
143
25.4
144
1.0
145
0.0
146
1.0
147
0.09
 71
     0
 72
     0
 73
     1
 74
     1
 75
     0
 76
     0
 77
     0
 78
     0
170
     0
171
     2
172
     0
173
     0
174
     0
175
     0
176
     0
177
     0
178
     0
270
     2
271
     4
272
     4
273
     2
274
     2
340
11
275
     0
280
     0
281
     0
282
     0
283
     1
284
     0
285
     0
286
     0
287
     3
288
     0
  0
ENDTAB
  0
TABLE
  2
BLOCK_RECORD
  5
1
330
0
100
AcDbSymbolTable
 70
    25
  0
BLOCK_RECORD
  5
1F
330
1
100
AcDbSymbolTableRecord
100
AcDbBlockTableRecord
  2
*MODEL_SPACE
  0
BLOCK_RECORD
  5
1B
330
1
100
AcDbSymbolTableRecord
100
AcDbBlockTableRecord
  2
*PAPER_SPACE
  0
BLOCK_RECORD
  5
2E
330
1
100
AcDbSymbolTableRecord
100
AcDbBlockTableRecord
  2
SE
  0
BLOCK_RECORD
  5
36
330
1
100
AcDbSymbolTableRecord
100
AcDbBlockTableRecord
  2
SE1
  0
BLOCK_RECORD
  5
3C
330
1
100
AcDbSymbolTableRecord
100
AcDbBlockTableRecord
  2
SE2
  0
BLOCK_RECORD
  5
42
330
1
100
AcDbSymbolTableRecord
100
AcDbBlockTableRecord
  2
SE3
  0
BLOCK_RECORD
  5
48
330
1
100
AcDbSymbolTableRecord
100
AcDbBlockTableRecord
  2
SE4
  0
BLOCK_RECORD
  5
6B
330
1
100
AcDbSymbolTableRecord
100
AcDbBlockTableRecord
  2
SE5
  0
BLOCK_RECORD
  5
96
330
1
100
AcDbSymbolTableRecord
100
AcDbBlockTableRecord
  2
SE6
  0
BLOCK_RECORD
  5
A2
330
1
100
AcDbSymbolTableRecord
100
AcDbBlockTableRecord
  2
SE7
  0
BLOCK_RECORD
  5
AD
330
1
100
AcDbSymbolTableRecord
100
AcDbBlockTableRecord
  2
SE8
  0
BLOCK_RECORD
  5
B7
330
1
100
AcDbSymbolTableRecord
100
AcDbBlockTableRecord
  2
SE9
  0
BLOCK_RECORD
  5
C1
330
1
100
AcDbSymbolTableRecord
100
AcDbBlockTableRecord
  2
SE10
  0
BLOCK_RECORD
  5
CB
330
1
100
AcDbSymbolTableRecord
100
AcDbBlockTableRecord
  2
SE11
  0
BLOCK_RECORD
  5
D5
330
1
100
AcDbSymbolTableRecord
100
AcDbBlockTableRecord
  2
SE12
  0
BLOCK_RECORD
  5
DF
330
1
100
AcDbSymbolTableRecord
100
AcDbBlockTableRecord
  2
SE13
  0
BLOCK_RECORD
  5
E9
330
1
100
AcDbSymbolTableRecord
100
AcDbBlockTableRecord
  2
SE14
  0
BLOCK_RECORD
  5
FD
330
1
100
AcDbSymbolTableRecord
100
AcDbBlockTableRecord
  2
SE15
  0
BLOCK_RECORD
  5
107
330
1
100
AcDbSymbolTableRecord
100
AcDbBlockTableRecord
  2
SE16
  0
BLOCK_RECORD
  5
111
330
1
100
AcDbSymbolTableRecord
100
AcDbBlockTableRecord
  2
SE17
  0
BLOCK_RECORD
  5
11D
330
1
100
AcDbSymbolTableRecord
100
AcDbBlockTableRecord
  2
SE18
  0
BLOCK_RECORD
  5
127
330
1
100
AcDbSymbolTableRecord
100
AcDbBlockTableRecord
  2
SE19
  0
BLOCK_RECORD
  5
131
330
1
100
AcDbSymbolTableRecord
100
AcDbBlockTableRecord
  2
SE20
  0
BLOCK_RECORD
  5
13B
330
1
100
AcDbSymbolTableRecord
100
AcDbBlockTableRecord
  2
SE21
  0
BLOCK_RECORD
  5
145
330
1
100
AcDbSymbolTableRecord
100
AcDbBlockTableRecord
  2
SE22
  0
BLOCK_RECORD
  5
14F
330
1
100
AcDbSymbolTableRecord
100
AcDbBlockTableRecord
  2
SE23
  0
ENDTAB
  0
ENDSEC
  0
SECTION
  2
BLOCKS
  0
BLOCK
  5
20
330
1F
100
AcDbEntity
  8
0
100
AcDbBlockBegin
  2
*MODEL_SPACE
 70
     0
 71
     0
 10
0.0
 20
0.0
 30
0.0
  3
*MODEL_SPACE
  1

  0
ENDBLK
  5
21
330
1F
100
AcDbEntity
  8
0
100
AcDbBlockEnd
  0
BLOCK
  5
1C
330
1B
100
AcDbEntity
 67
     1
  8
0
100
AcDbBlockBegin
  2
*PAPER_SPACE
 70
     0
 71
     0
 10
0.0
 20
0.0
 30
0.0
  3
*PAPER_SPACE
  1

  0
ENDBLK
  5
1D
330
1B
100
AcDbEntity
 67
     1
  8
0
100
AcDbBlockEnd
  0
BLOCK
  5
34
330
2E
100
AcDbEntity
  8
0
100
AcDbBlockBegin
  2
SE
 70
     0
 71
     0
 10
0.0
 20
0.0
 30
0.0
  3
SE
  1

  0
LINE
  5
32
330
2E
100
AcDbEntity
  8
DEFAULT
  6
CENTER2
 62
     7
 48
25.4
100
AcDbLine
 10
146.5058581042
 20
232.802955682
 30
0.0
 11
134.5058579999
 21
232.802955682
 31
0.0
  0
LINE
  5
33
330
2E
100
AcDbEntity
  8
DEFAULT
  6
CENTER2
 62
     7
 48
25.4
100
AcDbLine
 10
140.505858052
 20
238.8029557342
 30
0.0
 11
140.505858052
 21
226.8029556299
 31
0.0
  0
ENDBLK
  5
35
330
2E
100
AcDbEntity
  8
0
100
AcDbBlockEnd
  0
BLOCK
  5
3A
330
36
100
AcDbEntity
  8
0
100
AcDbBlockBegin
  2
SE1
 70
     0
 71
     0
 10
0.0
 20
0.0
 30
0.0
  3
SE1
  1

  0
LINE
  5
38
330
36
100
AcDbEntity
  8
DEFAULT
  6
CENTER2
 62
     7
 48
25.4
100
AcDbLine
 10
184.5058581042
 20
232.802955682
 30
0.0
 11
172.5058579999
 21
232.802955682
 31
0.0
  0
LINE
  5
39
330
36
100
AcDbEntity
  8
DEFAULT
  6
CENTER2
 62
     7
 48
25.4
100
AcDbLine
 10
178.505858052
 20
238.8029557342
 30
0.0
 11
178.505858052
 21
226.8029556299
 31
0.0
  0
ENDBLK
  5
3B
330
36
100
AcDbEntity
  8
0
100
AcDbBlockEnd
  0
BLOCK
  5
40
330
3C
100
AcDbEntity
  8
0
100
AcDbBlockBegin
  2
SE2
 70
     0
 71
     0
 10
0.0
 20
0.0
 30
0.0
  3
SE2
  1

  0
LINE
  5
3E
330
3C
100
AcDbEntity
  8
DEFAULT
  6
CENTER2
 62
     7
 48
25.4
100
AcDbLine
 10
71.5879824659
 20
49.309757709
 30
0.0
 11
59.5879823616
 21
49.309757709
 31
0.0
  0
LINE
  5
3F
330
3C
100
AcDbEntity
  8
DEFAULT
  6
CENTER2
 62
     7
 48
25.4
100
AcDbLine
 10
65.5879824138
 20
55.3097577611
 30
0.0
 11
65.5879824138
 21
43.3097576568
 31
0.0
  0
ENDBLK
  5
41
330
3C
100
AcDbEntity
  8
0
100
AcDbBlockEnd
  0
BLOCK
  5
46
330
42
100
AcDbEntity
  8
0
100
AcDbBlockBegin
  2
SE3
 70
     0
 71
     0
 10
0.0
 20
0.0
 30
0.0
  3
SE3
  1

  0
LINE
  5
44
330
42
100
AcDbEntity
  8
DEFAULT
  6
CENTER2
 62
     7
 48
25.4
100
AcDbLine
 10
109.5879824659
 20
49.309757709
 30
0.0
 11
97.5879823616
 21
49.309757709
 31
0.0
  0
LINE
  5
45
330
42
100
AcDbEntity
  8
DEFAULT
  6
CENTER2
 62
     7
 48
25.4
100
AcDbLine
 10
103.5879824138
 20
55.3097577611
 30
0.0
 11
103.5879824138
 21
43.3097576568
 31
0.0
  0
ENDBLK
  5
47
330
42
100
AcDbEntity
  8
0
100
AcDbBlockEnd
  0
BLOCK
  5
69
330
48
100
AcDbEntity
  8
0
100
AcDbBlockBegin
  2
SE4
 70
     0
 71
     0
 10
0.0
 20
0.0
 30
0.0
  3
SE4
  1

  0
LINE
  5
4B
330
48
100
AcDbEntity
  8
MEGA_002005
  6
CONTINUOUS
 62
     7
 48
25.4
100
AcDbLine
 10
76.9560767745
 20
235.802955682
 30
0.0
 11
67.2560767745
 21
235.802955682
 31
0.0
  0
ARC
  5
4C
330
48
100
AcDbEntity
  8
MEGA_002005
  6
CONTINUOUS
 62
     7
 48
25.4
100
AcDbCircle
 10
54.0560767745
 20
267.2020743928
 30
0.0
 40
2.5
100
AcDbArc
 50
110.0
 51
180.0
  0
ARC
  5
4D
330
48
100
AcDbEntity
  8
MEGA_002005
  6
CONTINUOUS
 62
     7
 48
25.4
100
AcDbCircle
 10
54.0560767745
 20
211.4038369713
 30
0.0
 40
2.5
100
AcDbArc
 50
180.0
 51
250.0
  0
LINE
  5
4E
330
48
100
AcDbEntity
  8
MEGA_002005
  6
CONTINUOUS
 62
     7
 48
25.4
100
AcDbLine
 10
53.2010264162
 20
209.0546054193
 30
0.0
 11
66.2560767745
 21
204.302955682
 31
0.0
  0
LINE
  5
4F
330
48
100
AcDbEntity
  8
MEGA_002005
  6
CONTINUOUS
 62
     7
 48
25.4
100
AcDbLine
 10
66.2560767745
 20
274.302955682
 30
0.0
 11
53.2010264162
 21
269.5513059448
 31
0.0
  0
LINE
  5
50
330
48
100
AcDbEntity
  8
MEGA_002005
  6
CONTINUOUS
 62
     7
 48
25.4
100
AcDbLine
 10
67.2560767745
 20
274.302955682
 30
0.0
 11
66.2560767745
 21
274.302955682
 31
0.0
  0
LINE
  5
51
330
48
100
AcDbEntity
  8
MEGA_002005
  6
CONTINUOUS
 62
     7
 48
25.4
100
AcDbLine
 10
66.2560767745
 20
204.302955682
 30
0.0
 11
67.2560767745
 21
204.302955682
 31
0.0
  0
ARC
  5
52
330
48
100
AcDbEntity
  8
MEGA_002005
  6
CONTINUOUS
 62
     7
 48
25.4
100
AcDbCircle
 10
76.9560767745
 20
235.502955682
 30
0.0
 40
0.2999999999999972
100
AcDbArc
 50
0.0
 51
90.0
  0
LINE
  5
53
330
48
100
AcDbEntity
  8
MEGA_002005
  6
CONTINUOUS
 62
     7
 48
25.4
100
AcDbLine
 10
77.2560767745
 20
230.102955682
 30
0.0
 11
77.2560767745
 21
235.502955682
 31
0.0
  0
LINE
  5
54
330
48
100
AcDbEntity
  8
MEGA_002005
  6
CONTINUOUS
 62
     7
 48
25.4
100
AcDbLine
 10
67.2560767745
 20
229.802955682
 30
0.0
 11
76.9560767745
 21
229.802955682
 31
0.0
  0
ARC
  5
55
330
48
100
AcDbEntity
  8
MEGA_002005
  6
CONTINUOUS
 62
     7
 48
25.4
100
AcDbCircle
 10
76.9560767745
 20
230.102955682
 30
0.0
 40
0.2999999999999972
100
AcDbArc
 50
270.0
 51
360.0
  0
LINE
  5
56
330
48
100
AcDbEntity
  8
MEGA_002005
  6
CONTINUOUS
 62
     7
 48
25.4
100
AcDbLine
 10
67.2560767745
 20
204.302955682
 30
0.0
 11
67.2560767745
 21
226.802955682
 31
0.0
  0
LINE
  5
57
330
48
100
AcDbEntity
  8
MEGA_002005
  6
CONTINUOUS
 62
     7
 48
25.4
100
AcDbLine
 10
67.2560767745
 20
226.802955682
 30
0.0
 11
67.2560767745
 21
251.802955682
 31
0.0
  0
LINE
  5
58
330
48
100
AcDbEntity
  8
MEGA_002005
  6
CONTINUOUS
 62
     7
 48
25.4
100
AcDbLine
 10
67.2560767745
 20
251.802955682
 30
0.0
 11
67.2560767745
 21
274.302955682
 31
0.0
  0
LINE
  5
59
330
48
100
AcDbEntity
  8
MEGA_002005
  6
CONTINUOUS
 62
     7
 48
25.4
100
AcDbLine
 10
66.2560767745
 20
226.802955682
 30
0.0
 11
66.2560767745
 21
204.302955682
 31
0.0
  0
LINE
  5
5A
330
48
100
AcDbEntity
  8
MEGA_002005
  6
CONTINUOUS
 62
     7
 48
25.4
100
AcDbLine
 10
66.2560767745
 20
251.802955682
 30
0.0
 11
66.2560767745
 21
226.802955682
 31
0.0
  0
LINE
  5
5B
330
48
100
AcDbEntity
  8
MEGA_002005
  6
CONTINUOUS
 62
     7
 48
25.4
100
AcDbLine
 10
66.2560767745
 20
251.802955682
 30
0.0
 11
66.2560767745
 21
274.302955682
 31
0.0
  0
LINE
  5
5C
330
48
100
AcDbEntity
  8
MEGA_002005
  6
CONTINUOUS
 62
     7
 48
25.4
100
AcDbLine
 10
51.5560767745
 20
211.4038369713
 30
0.0
 11
51.5560767745
 21
226.802955682
 31
0.0
  0
LINE
  5
5D
330
48
100
AcDbEntity
  8
MEGA_002005
  6
CONTINUOUS
 62
     7
 48
25.4
100
AcDbLine
 10
51.5560767745
 20
226.802955682
 30
0.0
 11
51.5560767745
 21
251.802955682
 31
0.0
  0
LINE
  5
5E
330
48
100
AcDbEntity
  8
MEGA_002005
  6
CONTINUOUS
 62
     7
 48
25.4
100
AcDbLine
 10
51.5560767745
 20
251.802955682
 30
0.0
 11
51.5560767745
 21
267.2020743928
 31
0.0
  0
LINE
  5
60
330
48
100
AcDbEntity
  8
MEGA_001997
  6
CONTINUOUS
 62
     7
 48
25.4
100
AcDbLine
 10
51.3607573894
 20
254.202955682
 30
0.0
 11
33.3560767745
 21
251.302955682
 31
0.0
  0
LINE
  5
61
330
48
100
AcDbEntity
  8
MEGA_001997
  6
CONTINUOUS
 62
     7
 48
25.4
100
AcDbLine
 10
51.3607573894
 20
224.402955682
 30
0.0
 11
51.5560767745
 21
224.402955682
 31
0.0
  0
LINE
  5
62
330
48
100
AcDbEntity
  8
MEGA_001997
  6
CONTINUOUS
 62
     7
 48
25.4
100
AcDbLine
 10
33.3560767745
 20
227.302955682
 30
0.0
 11
33.3560767745
 21
251.302955682
 31
0.0
  0
LINE
  5
63
330
48
100
AcDbEntity
  8
MEGA_001997
  6
CONTINUOUS
 62
     7
 48
25.4
100
AcDbLine
 10
33.3560767745
 20
227.302955682
 30
0.0
 11
51.3607573894
 21
224.402955682
 31
0.0
  0
LINE
  5
64
330
48
100
AcDbEntity
  8
MEGA_001997
  6
CONTINUOUS
 62
     7
 48
25.4
100
AcDbLine
 10
51.3607573894
 20
224.402955682
 30
0.0
 11
51.3607573894
 21
254.202955682
 31
0.0
  0
LINE
  5
65
330
48
100
AcDbEntity
  8
MEGA_001997
  6
CONTINUOUS
 62
     7
 48
25.4
100
AcDbLine
 10
51.5560767745
 20
254.202955682
 30
0.0
 11
51.3607573894
 21
254.202955682
 31
0.0
  0
LINE
  5
67
330
48
100
AcDbEntity
  8
STANDARD
  6
CENTER2
 62
     7
 48
25.4
100
AcDbLine
 10
29.7353348684
 20
239.302955682
 30
0.0
 11
70.5646779001
 21
239.302955682
 31
0.0
  0
LINE
  5
68
330
48
100
AcDbEntity
  8
STANDARD
  6
CENTER2
 62
     7
 48
25.4
100
AcDbLine
 10
79.9339943807
 20
232.802955682
 30
0.0
 11
62.4605118758
 21
232.802955682
 31
0.0
  0
ENDBLK
  5
6A
330
48
100
AcDbEntity
  8
0
100
AcDbBlockEnd
  0
BLOCK
  5
94
330
6B
100
AcDbEntity
  8
0
100
AcDbBlockBegin
  2
SE5
 70
     0
 71
     0
 10
0.0
 20
0.0
 30
0.0
  3
SE5
  1

  0
CIRCLE
  5
6E
330
6B
100
AcDbEntity
  8
MEGA_002005
  6
HIDDEN2
 62
     7
 48
25.4
100
AcDbCircle
 10
178.505858052
 20
232.802955682
 30
0.0
 40
1.621000000000009
  0
CIRCLE
  5
6F
330
6B
100
AcDbEntity
  8
MEGA_002005
  6
HIDDEN2
 62
     7
 48
25.4
100
AcDbCircle
 10
140.505858052
 20
232.802955682
 30
0.0
 40
1.620999999999981
  0
ARC
  5
70
330
6B
100
AcDbEntity
  8
MEGA_002005
  6
HIDDEN2
 62
     7
 48
25.4
100
AcDbCircle
 10
178.505858052
 20
232.802955682
 30
0.0
 40
3.0
100
AcDbArc
 50
260.4059317731
 51
99.5940682269
  0
ARC
  5
71
330
6B
100
AcDbEntity
  8
MEGA_002005
  6
HIDDEN2
 62
     7
 48
25.4
100
AcDbCircle
 10
178.505858052
 20
232.802955682
 30
0.0
 40
3.0
100
AcDbArc
 50
99.5940682269
 51
103.4225928799
  0
ARC
  5
72
330
6B
100
AcDbEntity
  8
MEGA_002005
  6
HIDDEN2
 62
     7
 48
25.4
100
AcDbCircle
 10
178.505858052
 20
232.802955682
 30
0.0
 40
3.0
100
AcDbArc
 50
180.0
 51
256.5774071201
  0
ARC
  5
73
330
6B
100
AcDbEntity
  8
MEGA_002005
  6
HIDDEN2
 62
     7
 48
25.4
100
AcDbCircle
 10
178.505858052
 20
232.802955682
 30
0.0
 40
3.0
100
AcDbArc
 50
256.5774071201
 51
260.4059317731
  0
ARC
  5
74
330
6B
100
AcDbEntity
  8
MEGA_002005
  6
HIDDEN2
 62
     7
 48
25.4
100
AcDbCircle
 10
178.505858052
 20
232.802955682
 30
0.0
 40
3.0
100
AcDbArc
 50
103.4225928799
 51
150.0368351686
  0
ARC
  5
75
330
6B
100
AcDbEntity
  8
MEGA_002005
  6
HIDDEN2
 62
     7
 48
25.4
100
AcDbCircle
 10
178.505858052
 20
232.802955682
 30
0.0
 40
3.0
100
AcDbArc
 50
172.190990092
 51
180.0
  0
CIRCLE
  5
76
330
6B
100
AcDbEntity
  8
MEGA_002005
  6
CONTINUOUS
 62
     7
 48
25.4
100
AcDbCircle
 10
159.505858052
 20
239.302955682
 30
0.0
 40
15.0
  0
ARC
  5
77
330
6B
100
AcDbEntity
  8
MEGA_002005
  6
HIDDEN2
 62
     7
 48
25.4
100
AcDbCircle
 10
140.505858052
 20
232.802955682
 30
0.0
 40
3.0
100
AcDbArc
 50
80.4059317731
 51
279.5940682269
  0
ARC
  5
78
330
6B
100
AcDbEntity
  8
MEGA_002005
  6
HIDDEN2
 62
     7
 48
25.4
100
AcDbCircle
 10
140.505858052
 20
232.802955682
 30
0.0
 40
3.0
100
AcDbArc
 50
283.4225928799
 51
360.0
  0
ARC
  5
79
330
6B
100
AcDbEntity
  8
MEGA_002005
  6
HIDDEN2
 62
     7
 48
25.4
100
AcDbCircle
 10
140.505858052
 20
232.802955682
 30
0.0
 40
3.0
100
AcDbArc
 50
76.5774071201
 51
80.4059317731
  0
ARC
  5
7A
330
6B
100
AcDbEntity
  8
MEGA_002005
  6
HIDDEN2
 62
     7
 48
25.4
100
AcDbCircle
 10
140.505858052
 20
232.802955682
 30
0.0
 40
3.0
100
AcDbArc
 50
279.5940682269
 51
283.4225928799
  0
ARC
  5
7B
330
6B
100
AcDbEntity
  8
MEGA_002005
  6
HIDDEN2
 62
     7
 48
25.4
100
AcDbCircle
 10
140.505858052
 20
232.802955682
 30
0.0
 40
3.0
100
AcDbArc
 50
0.0
 51
7.809009908
  0
ARC
  5
7C
330
6B
100
AcDbEntity
  8
MEGA_002005
  6
HIDDEN2
 62
     7
 48
25.4
100
AcDbCircle
 10
140.505858052
 20
232.802955682
 30
0.0
 40
3.0
100
AcDbArc
 50
29.9631648314
 51
76.5774071201
  0
LINE
  5
7D
330
6B
100
AcDbEntity
  8
MEGA_002005
  6
HIDDEN2
 62
     7
 48
25.4
100
AcDbLine
 10
175.505858052
 20
232.802955682
 30
0.0
 11
175.505858052
 21
233.1378768374
 31
0.0
  0
ARC
  5
7E
330
6B
100
AcDbEntity
  8
MEGA_002005
  6
CONTINUOUS
 62
     7
 48
25.4
100
AcDbCircle
 10
159.505858052
 20
226.802955682
 30
0.0
 40
22.5
100
AcDbArc
 50
180.0
 51
360.0
  0
LINE
  5
7F
330
6B
100
AcDbEntity
  8
MEGA_002005
  6
HIDDEN2
 62
     7
 48
25.4
100
AcDbLine
 10
143.505858052
 20
233.1378768374
 30
0.0
 11
143.505858052
 21
232.802955682
 31
0.0
  0
ARC
  5
80
330
6B
100
AcDbEntity
  8
MEGA_002005
  6
CONTINUOUS
 62
     7
 48
25.4
100
AcDbCircle
 10
159.505858052
 20
251.802955682
 30
0.0
 40
22.5
100
AcDbArc
 50
0.0
 51
180.0
  0
LINE
  5
81
330
6B
100
AcDbEntity
  8
MEGA_002005
  6
CONTINUOUS
 62
     7
 48
25.4
100
AcDbLine
 10
137.005858052
 20
226.802955682
 30
0.0
 11
137.005858052
 21
251.802955682
 31
0.0
  0
LINE
  5
82
330
6B
100
AcDbEntity
  8
MEGA_002005
  6
CONTINUOUS
 62
     7
 48
25.4
100
AcDbLine
 10
182.005858052
 20
251.802955682
 30
0.0
 11
182.005858052
 21
226.802955682
 31
0.0
  0
LINE
  5
83
330
6B
100
AcDbEntity
  8
MEGA_002005
  6
CONTINUOUS
 62
     7
 48
25.4
100
AcDbLine
 10
144.1067393413
 20
251.802955682
 30
0.0
 11
144.1067393413
 21
226.802955682
 31
0.0
  0
ARC
  5
84
330
6B
100
AcDbEntity
  8
MEGA_002005
  6
CONTINUOUS
 62
     7
 48
25.4
100
AcDbCircle
 10
159.505858052
 20
226.802955682
 30
0.0
 40
15.3991187108
100
AcDbArc
 50
180.0
 51
360.0
  0
LINE
  5
85
330
6B
100
AcDbEntity
  8
MEGA_002005
  6
CONTINUOUS
 62
     7
 48
25.4
100
AcDbLine
 10
174.9049767628
 20
226.802955682
 30
0.0
 11
174.9049767628
 21
251.802955682
 31
0.0
  0
ARC
  5
86
330
6B
100
AcDbEntity
  8
MEGA_002005
  6
CONTINUOUS
 62
     7
 48
25.4
100
AcDbCircle
 10
159.505858052
 20
251.802955682
 30
0.0
 40
15.3991187108
100
AcDbArc
 50
0.0
 51
180.0
  0
ARC
  5
87
330
6B
100
AcDbEntity
  8
MEGA_002005
  6
HIDDEN2
 62
     7
 48
25.4
100
AcDbCircle
 10
159.505858052
 20
239.302955682
 30
0.0
 40
17.14666723190001
100
AcDbArc
 50
200.8124574842
 51
201.0725433721
  0
LINE
  5
88
330
6B
100
AcDbEntity
  8
MEGA_002005
  6
HIDDEN2
 62
     7
 48
25.4
100
AcDbLine
 10
143.5608484873
 20
233.1992362633
 30
0.0
 11
143.505858052
 21
233.1378768374
 31
0.0
  0
LINE
  5
89
330
6B
100
AcDbEntity
  8
MEGA_002005
  6
HIDDEN2
 62
     7
 48
25.4
100
AcDbLine
 10
175.505858052
 20
233.1378768374
 30
0.0
 11
175.4508676167
 21
233.1992362633
 31
0.0
  0
ARC
  5
8A
330
6B
100
AcDbEntity
  8
MEGA_002005
  6
HIDDEN2
 62
     7
 48
25.4
100
AcDbCircle
 10
159.505858052
 20
239.302955682
 30
0.0
 40
17.14666723190001
100
AcDbArc
 50
338.9274566279
 51
339.1875425158
  0
ARC
  5
8B
330
6B
100
AcDbEntity
  8
MEGA_002005
  6
HIDDEN2
 62
     7
 48
25.4
100
AcDbCircle
 10
140.505858052
 20
232.802955682
 30
0.0
 40
3.0
100
AcDbArc
 50
7.809009908
 51
29.9631648314
  0
ARC
  5
8C
330
6B
100
AcDbEntity
  8
MEGA_002005
  6
HIDDEN2
 62
     7
 48
25.4
100
AcDbCircle
 10
178.505858052
 20
232.802955682
 30
0.0
 40
3.0
100
AcDbArc
 50
150.0368351686
 51
172.190990092
  0
ARC
  5
8D
330
6B
100
AcDbEntity
  8
MEGA_002005
  6
HIDDEN2
 62
     7
 48
25.4
100
AcDbCircle
 10
140.505858052
 20
232.802955682
 30
0.0
 40
2.0
100
AcDbArc
 50
255.0
 51
195.0
  0
ARC
  5
8E
330
6B
100
AcDbEntity
  8
MEGA_002005
  6
HIDDEN2
 62
     7
 48
25.4
100
AcDbCircle
 10
178.505858052
 20
232.802955682
 30
0.0
 40
2.0
100
AcDbArc
 50
255.0
 51
195.0
  0
CIRCLE
  5
8F
330
6B
100
AcDbEntity
  8
MEGA_001997
  6
CONTINUOUS
 62
     7
 48
25.4
100
AcDbCircle
 10
159.505858052
 20
239.302955682
 30
0.0
 40
14.90000000000001
  0
CIRCLE
  5
90
330
6B
100
AcDbEntity
  8
MEGA_001997
  6
CONTINUOUS
 62
     7
 48
25.4
100
AcDbCircle
 10
159.505858052
 20
239.302955682
 30
0.0
 40
11.10000000000002
  0
CIRCLE
  5
91
330
6B
100
AcDbEntity
  8
MEGA_001997
  6
CONTINUOUS
 62
     7
 48
25.4
100
AcDbCircle
 10
159.505858052
 20
239.302955682
 30
0.0
 40
12.0
  0
LINE
  5
92
330
6B
100
AcDbEntity
  8
STANDARD
  6
CENTER2
 62
     7
 48
25.4
100
AcDbLine
 10
159.505858052
 20
275.9464796156
 30
0.0
 11
159.505858052
 21
202.8928299901
 31
0.0
  0
LINE
  5
93
330
6B
100
AcDbEntity
  8
STANDARD
  6
CENTER2
 62
     7
 48
25.4
100
AcDbLine
 10
134.1821488368
 20
239.302955682
 30
0.0
 11
184.362770784
 21
239.302955682
 31
0.0
  0
ENDBLK
  5
95
330
6B
100
AcDbEntity
  8
0
100
AcDbBlockEnd
  0
BLOCK
  5
A0
330
96
100
AcDbEntity
  8
0
100
AcDbBlockBegin
  2
SE6
 70
     0
 71
     0
 10
0.0
 20
0.0
 30
0.0
  3
SE6
  1

  0
POLYLINE
  5
98
330
96
100
AcDbEntity
  8
DEFAULT
  6
CONTINUOUS
 62
     7
 48
25.4
100
AcDb2dPolyline
 66
     1
 10
0.0
 20
0.0
 30
0.0
 70
     1
  0
VERTEX
  5
15A
330
98
100
AcDbEntity
  8
DEFAULT
  6
CONTINUOUS
 62
     7
100
AcDbVertex
100
AcDb2dVertex
 10
96.3940538097
 20
238.8029557081
 30
0.0
  0
VERTEX
  5
15B
330
98
100
AcDbEntity
  8
DEFAULT
  6
CONTINUOUS
 62
     7
100
AcDbVertex
100
AcDb2dVertex
 10
95.8940538054
 20
235.802955682
 30
0.0
  0
VERTEX
  5
15C
330
98
100
AcDbEntity
  8
DEFAULT
  6
CONTINUOUS
 62
     7
100
AcDbVertex
100
AcDb2dVertex
 10
95.394053801
 20
238.8029557081
 30
0.0
  0
VERTEX
  5
15D
330
98
100
AcDbEntity
  8
DEFAULT
  6
CONTINUOUS
 62
     7
100
AcDbVertex
100
AcDb2dVertex
 10
96.3940538097
 20
238.8029557081
 30
0.0
  0
SEQEND
  5
159
330
98
100
AcDbEntity
  8
DEFAULT
  6
CONTINUOUS
 62
     7
 48
25.4
  0
LINE
  5
99
330
96
100
AcDbEntity
  8
DEFAULT
  6
CONTINUOUS
 62
     7
 48
25.4
100
AcDbLine
 10
76.9560767745
 20
229.802955682
 30
0.0
 11
97.3940538184
 21
229.802955682
 31
0.0
  0
LINE
  5
9A
330
96
100
AcDbEntity
  8
DEFAULT
  6
CONTINUOUS
 62
     7
 48
25.4
100
AcDbLine
 10
76.9560767745
 20
235.802955682
 30
0.0
 11
97.3940538184
 21
235.802955682
 31
0.0
  0
LINE
  5
9B
330
96
100
AcDbEntity
  8
DEFAULT
  6
CONTINUOUS
 62
     7
 48
25.4
100
AcDbLine
 10
95.8940538054
 20
223.8029556299
 30
0.0
 11
95.8940538054
 21
246.2324023197
 31
0.0
  0
TEXT
  5
9D
330
96
100
AcDbEntity
  8
DEFAULT
  6
CONTINUOUS
 62
     7
 48
25.4
100
AcDbText
 10
95.1440538054
 20
243.3414937791
 30
0.0
 40
3.0
  1
6
 50
90.0
  7
SEACAD_SEISO_TTF
 11
92.1440538054
 21
243.3414937791
 31
0.0
100
AcDbText
 73
     3
  0
TEXT
  5
9F
330
96
100
AcDbEntity
  8
DEFAULT
  6
CONTINUOUS
 62
     7
 48
25.4
100
AcDbText
 10
95.1440538054
 20
239.7008824254
 30
0.0
 40
3.0
  1
O
 50
90.0
  7
SEACAD_SEMECI1_TTF
 11
92.1440538054
 21
239.7008824254
 31
0.0
100
AcDbText
 73
     3
  0
ENDBLK
  5
A1
330
96
100
AcDbEntity
  8
0
100
AcDbBlockEnd
  0
BLOCK
  5
AB
330
A2
100
AcDbEntity
  8
0
100
AcDbBlockBegin
  2
SE7
 70
     0
 71
     0
 10
0.0
 20
0.0
 30
0.0
  3
SE7
  1

  0
POLYLINE
  5
A4
330
A2
100
AcDbEntity
  8
DEFAULT
  6
CONTINUOUS
 62
     7
 48
25.4
100
AcDb2dPolyline
 66
     1
 10
0.0
 20
0.0
 30
0.0
 70
     1
  0
VERTEX
  5
15F
330
A4
100
AcDbEntity
  8
DEFAULT
  6
CONTINUOUS
 62
     7
100
AcDbVertex
100
AcDb2dVertex
 10
89.9649669487
 20
227.802955656
 30
0.0
  0
VERTEX
  5
160
330
A4
100
AcDbEntity
  8
DEFAULT
  6
CONTINUOUS
 62
     7
100
AcDbVertex
100
AcDb2dVertex
 10
89.4649669444
 20
230.802955682
 30
0.0
  0
VERTEX
  5
161
330
A4
100
AcDbEntity
  8
DEFAULT
  6
CONTINUOUS
 62
     7
100
AcDbVertex
100
AcDb2dVertex
 10
88.96496694
 20
227.802955656
 30
0.0
  0
VERTEX
  5
162
330
A4
100
AcDbEntity
  8
DEFAULT
  6
CONTINUOUS
 62
     7
100
AcDbVertex
100
AcDb2dVertex
 10
89.9649669487
 20
227.802955656
 30
0.0
  0
SEQEND
  5
15E
330
A4
100
AcDbEntity
  8
DEFAULT
  6
CONTINUOUS
 62
     7
 48
25.4
  0
POLYLINE
  5
A5
330
A2
100
AcDbEntity
  8
DEFAULT
  6
CONTINUOUS
 62
     7
 48
25.4
100
AcDb2dPolyline
 66
     1
 10
0.0
 20
0.0
 30
0.0
 70
     1
  0
VERTEX
  5
164
330
A5
100
AcDbEntity
  8
DEFAULT
  6
CONTINUOUS
 62
     7
100
AcDbVertex
100
AcDb2dVertex
 10
89.9649669487
 20
237.8029557081
 30
0.0
  0
VERTEX
  5
165
330
A5
100
AcDbEntity
  8
DEFAULT
  6
CONTINUOUS
 62
     7
100
AcDbVertex
100
AcDb2dVertex
 10
89.4649669444
 20
234.802955682
 30
0.0
  0
VERTEX
  5
166
330
A5
100
AcDbEntity
  8
DEFAULT
  6
CONTINUOUS
 62
     7
100
AcDbVertex
100
AcDb2dVertex
 10
88.96496694
 20
237.8029557081
 30
0.0
  0
VERTEX
  5
167
330
A5
100
AcDbEntity
  8
DEFAULT
  6
CONTINUOUS
 62
     7
100
AcDbVertex
100
AcDb2dVertex
 10
89.9649669487
 20
237.8029557081
 30
0.0
  0
SEQEND
  5
163
330
A5
100
AcDbEntity
  8
DEFAULT
  6
CONTINUOUS
 62
     7
 48
25.4
  0
LINE
  5
A6
330
A2
100
AcDbEntity
  8
DEFAULT
  6
CONTINUOUS
 62
     7
 48
25.4
100
AcDbLine
 10
77.2560767745
 20
230.802955682
 30
0.0
 11
90.9649669574
 21
230.802955682
 31
0.0
  0
LINE
  5
A7
330
A2
100
AcDbEntity
  8
DEFAULT
  6
CONTINUOUS
 62
     7
 48
25.4
100
AcDbLine
 10
77.2560767745
 20
234.802955682
 30
0.0
 11
90.9649669574
 21
234.802955682
 31
0.0
  0
LINE
  5
A8
330
A2
100
AcDbEntity
  8
DEFAULT
  6
CONTINUOUS
 62
     7
 48
25.4
100
AcDbLine
 10
89.4649669444
 20
224.8029556299
 30
0.0
 11
89.4649669444
 21
246.9949038873
 31
0.0
  0
TEXT
  5
A9
330
A2
100
AcDbEntity
  8
DEFAULT
  6
CONTINUOUS
 62
     7
 48
25.4
100
AcDbText
 10
88.7149669444
 20
244.1721771951
 30
0.0
 40
3.0
  1
4
 50
90.0
  7
SEACAD_SEISO_TTF
 11
85.7149669444
 21
244.1721771951
 31
0.0
100
AcDbText
 73
     3
  0
TEXT
  5
AA
330
A2
100
AcDbEntity
  8
DEFAULT
  6
CONTINUOUS
 62
     7
 48
25.4
100
AcDbText
 10
88.7149669444
 20
240.3267226497
 30
0.0
 40
3.0
  1
M 
 50
90.0
  7
SEACAD_SEISO_TTF
 11
85.7149669444
 21
240.3267226497
 31
0.0
100
AcDbText
 73
     3
  0
ENDBLK
  5
AC
330
A2
100
AcDbEntity
  8
0
100
AcDbBlockEnd
  0
BLOCK
  5
B5
330
AD
100
AcDbEntity
  8
0
100
AcDbBlockBegin
  2
SE8
 70
     0
 71
     0
 10
0.0
 20
0.0
 30
0.0
  3
SE8
  1

  0
POLYLINE
  5
AF
330
AD
100
AcDbEntity
  8
DEFAULT
  6
CONTINUOUS
 62
     7
 48
25.4
100
AcDb2dPolyline
 66
     1
 10
0.0
 20
0.0
 30
0.0
 70
     1
  0
VERTEX
  5
169
330
AF
100
AcDbEntity
  8
DEFAULT
  6
CONTINUOUS
 62
     7
100
AcDbVertex
100
AcDb2dVertex
 10
36.3560768006
 20
168.2234623637
 30
0.0
  0
VERTEX
  5
16A
330
AF
100
AcDbEntity
  8
DEFAULT
  6
CONTINUOUS
 62
     7
100
AcDbVertex
100
AcDb2dVertex
 10
33.3560767745
 20
168.723462368
 30
0.0
  0
VERTEX
  5
16B
330
AF
100
AcDbEntity
  8
DEFAULT
  6
CONTINUOUS
 62
     7
100
AcDbVertex
100
AcDb2dVertex
 10
36.3560768006
 20
169.2234623724
 30
0.0
  0
VERTEX
  5
16C
330
AF
100
AcDbEntity
  8
DEFAULT
  6
CONTINUOUS
 62
     7
100
AcDbVertex
100
AcDb2dVertex
 10
36.3560768006
 20
168.2234623637
 30
0.0
  0
SEQEND
  5
168
330
AF
100
AcDbEntity
  8
DEFAULT
  6
CONTINUOUS
 62
     7
 48
25.4
  0
POLYLINE
  5
B0
330
AD
100
AcDbEntity
  8
DEFAULT
  6
CONTINUOUS
 62
     7
 48
25.4
100
AcDb2dPolyline
 66
     1
 10
0.0
 20
0.0
 30
0.0
 70
     1
  0
VERTEX
  5
16E
330
B0
100
AcDbEntity
  8
DEFAULT
  6
CONTINUOUS
 62
     7
100
AcDbVertex
100
AcDb2dVertex
 10
64.2560767484
 20
168.2234623637
 30
0.0
  0
VERTEX
  5
16F
330
B0
100
AcDbEntity
  8
DEFAULT
  6
CONTINUOUS
 62
     7
100
AcDbVertex
100
AcDb2dVertex
 10
67.2560767745
 20
168.723462368
 30
0.0
  0
VERTEX
  5
170
330
B0
100
AcDbEntity
  8
DEFAULT
  6
CONTINUOUS
 62
     7
100
AcDbVertex
100
AcDb2dVertex
 10
64.2560767484
 20
169.2234623724
 30
0.0
  0
VERTEX
  5
171
330
B0
100
AcDbEntity
  8
DEFAULT
  6
CONTINUOUS
 62
     7
100
AcDbVertex
100
AcDb2dVertex
 10
64.2560767484
 20
168.2234623637
 30
0.0
  0
SEQEND
  5
16D
330
B0
100
AcDbEntity
  8
DEFAULT
  6
CONTINUOUS
 62
     7
 48
25.4
  0
LINE
  5
B1
330
AD
100
AcDbEntity
  8
DEFAULT
  6
CONTINUOUS
 62
     7
 48
25.4
100
AcDbLine
 10
33.3560767745
 20
227.302955682
 30
0.0
 11
33.3560767745
 21
167.223462355
 31
0.0
  0
LINE
  5
B2
330
AD
100
AcDbEntity
  8
DEFAULT
  6
CONTINUOUS
 62
     7
 48
25.4
100
AcDbLine
 10
67.2560767745
 20
204.302955682
 30
0.0
 11
67.2560767745
 21
167.223462355
 31
0.0
  0
LINE
  5
B3
330
AD
100
AcDbEntity
  8
DEFAULT
  6
CONTINUOUS
 62
     7
 48
25.4
100
AcDbLine
 10
33.3560767745
 20
168.723462368
 30
0.0
 11
67.2560769295
 21
168.723462368
 31
0.0
  0
TEXT
  5
B4
330
AD
100
AcDbEntity
  8
DEFAULT
  6
CONTINUOUS
 62
     7
 48
25.4
100
AcDbText
 10
44.3538041247
 20
169.473462368
 30
0.0
 40
3.0
  1
13.7-31.7
  7
SEACAD_SEISO_TTF
 11
44.3538041247
 21
172.473462368
 31
0.0
100
AcDbText
 73
     3
  0
ENDBLK
  5
B6
330
AD
100
AcDbEntity
  8
0
100
AcDbBlockEnd
  0
BLOCK
  5
BF
330
B7
100
AcDbEntity
  8
0
100
AcDbBlockBegin
  2
SE9
 70
     0
 71
     0
 10
0.0
 20
0.0
 30
0.0
  3
SE9
  1

  0
POLYLINE
  5
B9
330
B7
100
AcDbEntity
  8
DEFAULT
  6
CONTINUOUS
 62
     7
 48
25.4
100
AcDb2dPolyline
 66
     1
 10
0.0
 20
0.0
 30
0.0
 70
     1
  0
VERTEX
  5
173
330
B9
100
AcDbEntity
  8
DEFAULT
  6
CONTINUOUS
 62
     7
100
AcDbVertex
100
AcDb2dVertex
 10
64.2560767484
 20
176.761866888
 30
0.0
  0
VERTEX
  5
174
330
B9
100
AcDbEntity
  8
DEFAULT
  6
CONTINUOUS
 62
     7
100
AcDbVertex
100
AcDb2dVertex
 10
67.2560767745
 20
177.2618668923
 30
0.0
  0
VERTEX
  5
175
330
B9
100
AcDbEntity
  8
DEFAULT
  6
CONTINUOUS
 62
     7
100
AcDbVertex
100
AcDb2dVertex
 10
64.2560767484
 20
177.7618668967
 30
0.0
  0
VERTEX
  5
176
330
B9
100
AcDbEntity
  8
DEFAULT
  6
CONTINUOUS
 62
     7
100
AcDbVertex
100
AcDb2dVertex
 10
64.2560767484
 20
176.761866888
 30
0.0
  0
SEQEND
  5
172
330
B9
100
AcDbEntity
  8
DEFAULT
  6
CONTINUOUS
 62
     7
 48
25.4
  0
POLYLINE
  5
BA
330
B7
100
AcDbEntity
  8
DEFAULT
  6
CONTINUOUS
 62
     7
 48
25.4
100
AcDb2dPolyline
 66
     1
 10
0.0
 20
0.0
 30
0.0
 70
     1
  0
VERTEX
  5
178
330
BA
100
AcDbEntity
  8
DEFAULT
  6
CONTINUOUS
 62
     7
100
AcDbVertex
100
AcDb2dVertex
 10
54.5560768006
 20
176.761866888
 30
0.0
  0
VERTEX
  5
179
330
BA
100
AcDbEntity
  8
DEFAULT
  6
CONTINUOUS
 62
     7
100
AcDbVertex
100
AcDb2dVertex
 10
51.5560767745
 20
177.2618668923
 30
0.0
  0
VERTEX
  5
17A
330
BA
100
AcDbEntity
  8
DEFAULT
  6
CONTINUOUS
 62
     7
100
AcDbVertex
100
AcDb2dVertex
 10
54.5560768006
 20
177.7618668967
 30
0.0
  0
VERTEX
  5
17B
330
BA
100
AcDbEntity
  8
DEFAULT
  6
CONTINUOUS
 62
     7
100
AcDbVertex
100
AcDb2dVertex
 10
54.5560768006
 20
176.761866888
 30
0.0
  0
SEQEND
  5
177
330
BA
100
AcDbEntity
  8
DEFAULT
  6
CONTINUOUS
 62
     7
 48
25.4
  0
LINE
  5
BB
330
B7
100
AcDbEntity
  8
DEFAULT
  6
CONTINUOUS
 62
     7
 48
25.4
100
AcDbLine
 10
67.2560767745
 20
204.302955682
 30
0.0
 11
67.2560767745
 21
175.7618668793
 31
0.0
  0
LINE
  5
BC
330
B7
100
AcDbEntity
  8
DEFAULT
  6
CONTINUOUS
 62
     7
 48
25.4
100
AcDbLine
 10
51.5560767745
 20
211.4038369713
 30
0.0
 11
51.5560767745
 21
175.7618668793
 31
0.0
  0
LINE
  5
BD
330
B7
100
AcDbEntity
  8
DEFAULT
  6
CONTINUOUS
 62
     7
 48
25.4
100
AcDbLine
 10
67.2560767745
 20
177.2618668923
 30
0.0
 11
51.5560773676
 21
177.2618668923
 31
0.0
  0
TEXT
  5
BE
330
B7
100
AcDbEntity
  8
DEFAULT
  6
CONTINUOUS
 62
     7
 48
25.4
100
AcDbText
 10
56.7128952529
 20
178.0118668923
 30
0.0
 40
3.0
  1
15,7
  7
SEACAD_SEISO_TTF
 11
56.7128952529
 21
181.0118668923
 31
0.0
100
AcDbText
 73
     3
  0
ENDBLK
  5
C0
330
B7
100
AcDbEntity
  8
0
100
AcDbBlockEnd
  0
BLOCK
  5
C9
330
C1
100
AcDbEntity
  8
0
100
AcDbBlockBegin
  2
SE10
 70
     0
 71
     0
 10
0.0
 20
0.0
 30
0.0
  3
SE10
  1

  0
POLYLINE
  5
C3
330
C1
100
AcDbEntity
  8
DEFAULT
  6
CONTINUOUS
 62
     7
 48
25.4
100
AcDb2dPolyline
 66
     1
 10
0.0
 20
0.0
 30
0.0
 70
     1
  0
VERTEX
  5
17D
330
C3
100
AcDbEntity
  8
DEFAULT
  6
CONTINUOUS
 62
     7
100
AcDbVertex
100
AcDb2dVertex
 10
70.2560768006
 20
176.761866888
 30
0.0
  0
VERTEX
  5
17E
330
C3
100
AcDbEntity
  8
DEFAULT
  6
CONTINUOUS
 62
     7
100
AcDbVertex
100
AcDb2dVertex
 10
67.2560767745
 20
177.2618668923
 30
0.0
  0
VERTEX
  5
17F
330
C3
100
AcDbEntity
  8
DEFAULT
  6
CONTINUOUS
 62
     7
100
AcDbVertex
100
AcDb2dVertex
 10
70.2560768006
 20
177.7618668967
 30
0.0
  0
VERTEX
  5
180
330
C3
100
AcDbEntity
  8
DEFAULT
  6
CONTINUOUS
 62
     7
100
AcDbVertex
100
AcDb2dVertex
 10
70.2560768006
 20
176.761866888
 30
0.0
  0
SEQEND
  5
17C
330
C3
100
AcDbEntity
  8
DEFAULT
  6
CONTINUOUS
 62
     7
 48
25.4
  0
POLYLINE
  5
C4
330
C1
100
AcDbEntity
  8
DEFAULT
  6
CONTINUOUS
 62
     7
 48
25.4
100
AcDb2dPolyline
 66
     1
 10
0.0
 20
0.0
 30
0.0
 70
     1
  0
VERTEX
  5
182
330
C4
100
AcDbEntity
  8
DEFAULT
  6
CONTINUOUS
 62
     7
100
AcDbVertex
100
AcDb2dVertex
 10
74.2560767484
 20
176.761866888
 30
0.0
  0
VERTEX
  5
183
330
C4
100
AcDbEntity
  8
DEFAULT
  6
CONTINUOUS
 62
     7
100
AcDbVertex
100
AcDb2dVertex
 10
77.2560767745
 20
177.2618668923
 30
0.0
  0
VERTEX
  5
184
330
C4
100
AcDbEntity
  8
DEFAULT
  6
CONTINUOUS
 62
     7
100
AcDbVertex
100
AcDb2dVertex
 10
74.2560767484
 20
177.7618668967
 30
0.0
  0
VERTEX
  5
185
330
C4
100
AcDbEntity
  8
DEFAULT
  6
CONTINUOUS
 62
     7
100
AcDbVertex
100
AcDb2dVertex
 10
74.2560767484
 20
176.761866888
 30
0.0
  0
SEQEND
  5
181
330
C4
100
AcDbEntity
  8
DEFAULT
  6
CONTINUOUS
 62
     7
 48
25.4
  0
LINE
  5
C5
330
C1
100
AcDbEntity
  8
DEFAULT
  6
CONTINUOUS
 62
     7
 48
25.4
100
AcDbLine
 10
67.2560767745
 20
204.302955682
 30
0.0
 11
67.2560767745
 21
175.7618668793
 31
0.0
  0
LINE
  5
C6
330
C1
100
AcDbEntity
  8
DEFAULT
  6
CONTINUOUS
 62
     7
 48
25.4
100
AcDbLine
 10
77.2560767745
 20
230.102955682
 30
0.0
 11
77.2560767745
 21
175.7618668793
 31
0.0
  0
LINE
  5
C7
330
C1
100
AcDbEntity
  8
DEFAULT
  6
CONTINUOUS
 62
     7
 48
25.4
100
AcDbLine
 10
67.2560767745
 20
177.2618668923
 30
0.0
 11
77.256076551
 21
177.2618668923
 31
0.0
  0
TEXT
  5
C8
330
C1
100
AcDbEntity
  8
DEFAULT
  6
CONTINUOUS
 62
     7
 48
25.4
100
AcDbText
 10
70.7560766628
 20
178.0118668923
 30
0.0
 40
3.0
  1
10
  7
SEACAD_SEISO_TTF
 11
70.7560766628
 21
181.0118668923
 31
0.0
100
AcDbText
 73
     3
  0
ENDBLK
  5
CA
330
C1
100
AcDbEntity
  8
0
100
AcDbBlockEnd
  0
BLOCK
  5
D3
330
CB
100
AcDbEntity
  8
0
100
AcDbBlockBegin
  2
SE11
 70
     0
 71
     0
 10
0.0
 20
0.0
 30
0.0
  3
SE11
  1

  0
POLYLINE
  5
CD
330
CB
100
AcDbEntity
  8
DEFAULT
  6
CONTINUOUS
 62
     7
 48
25.4
100
AcDb2dPolyline
 66
     1
 10
0.0
 20
0.0
 30
0.0
 70
     1
  0
VERTEX
  5
187
330
CD
100
AcDbEntity
  8
DEFAULT
  6
CONTINUOUS
 62
     7
100
AcDbVertex
100
AcDb2dVertex
 10
121.1149779368
 20
242.3029557081
 30
0.0
  0
VERTEX
  5
188
330
CD
100
AcDbEntity
  8
DEFAULT
  6
CONTINUOUS
 62
     7
100
AcDbVertex
100
AcDb2dVertex
 10
121.6149779412
 20
239.302955682
 30
0.0
  0
VERTEX
  5
189
330
CD
100
AcDbEntity
  8
DEFAULT
  6
CONTINUOUS
 62
     7
100
AcDbVertex
100
AcDb2dVertex
 10
122.1149779455
 20
242.3029557081
 30
0.0
  0
VERTEX
  5
18A
330
CD
100
AcDbEntity
  8
DEFAULT
  6
CONTINUOUS
 62
     7
100
AcDbVertex
100
AcDb2dVertex
 10
121.1149779368
 20
242.3029557081
 30
0.0
  0
SEQEND
  5
186
330
CD
100
AcDbEntity
  8
DEFAULT
  6
CONTINUOUS
 62
     7
 48
25.4
  0
POLYLINE
  5
CE
330
CB
100
AcDbEntity
  8
DEFAULT
  6
CONTINUOUS
 62
     7
 48
25.4
100
AcDb2dPolyline
 66
     1
 10
0.0
 20
0.0
 30
0.0
 70
     1
  0
VERTEX
  5
18C
330
CE
100
AcDbEntity
  8
DEFAULT
  6
CONTINUOUS
 62
     7
100
AcDbVertex
100
AcDb2dVertex
 10
121.1149779368
 20
229.802955656
 30
0.0
  0
VERTEX
  5
18D
330
CE
100
AcDbEntity
  8
DEFAULT
  6
CONTINUOUS
 62
     7
100
AcDbVertex
100
AcDb2dVertex
 10
121.6149779412
 20
232.802955682
 30
0.0
  0
VERTEX
  5
18E
330
CE
100
AcDbEntity
  8
DEFAULT
  6
CONTINUOUS
 62
     7
100
AcDbVertex
100
AcDb2dVertex
 10
122.1149779455
 20
229.802955656
 30
0.0
  0
VERTEX
  5
18F
330
CE
100
AcDbEntity
  8
DEFAULT
  6
CONTINUOUS
 62
     7
100
AcDbVertex
100
AcDb2dVertex
 10
121.1149779368
 20
229.802955656
 30
0.0
  0
SEQEND
  5
18B
330
CE
100
AcDbEntity
  8
DEFAULT
  6
CONTINUOUS
 62
     7
 48
25.4
  0
LINE
  5
CF
330
CB
100
AcDbEntity
  8
DEFAULT
  6
CONTINUOUS
 62
     7
 48
25.4
100
AcDbLine
 10
134.1821488368
 20
239.302955682
 30
0.0
 11
120.1149779281
 21
239.302955682
 31
0.0
  0
LINE
  5
D0
330
CB
100
AcDbEntity
  8
DEFAULT
  6
CONTINUOUS
 62
     7
 48
25.4
100
AcDbLine
 10
140.505858052
 20
232.802955682
 30
0.0
 11
120.1149779281
 21
232.802955682
 31
0.0
  0
LINE
  5
D1
330
CB
100
AcDbEntity
  8
DEFAULT
  6
CONTINUOUS
 62
     7
 48
25.4
100
AcDbLine
 10
121.6149779412
 20
245.3029557342
 30
0.0
 11
121.6149779412
 21
226.8029554958
 31
0.0
  0
TEXT
  5
D2
330
CB
100
AcDbEntity
  8
DEFAULT
  6
CONTINUOUS
 62
     7
 48
25.4
100
AcDbText
 10
120.8649779412
 20
234.0075010695
 30
0.0
 40
3.0
  1
6,5
 50
90.0
  7
SEACAD_SEISO_TTF
 11
117.8649779412
 21
234.0075010695
 31
0.0
100
AcDbText
 73
     3
  0
ENDBLK
  5
D4
330
CB
100
AcDbEntity
  8
0
100
AcDbBlockEnd
  0
BLOCK
  5
DD
330
D5
100
AcDbEntity
  8
0
100
AcDbBlockBegin
  2
SE12
 70
     0
 71
     0
 10
0.0
 20
0.0
 30
0.0
  3
SE12
  1

  0
POLYLINE
  5
D7
330
D5
100
AcDbEntity
  8
DEFAULT
  6
CONTINUOUS
 62
     7
 48
25.4
100
AcDb2dPolyline
 66
     1
 10
0.0
 20
0.0
 30
0.0
 70
     1
  0
VERTEX
  5
191
330
D7
100
AcDbEntity
  8
DEFAULT
  6
CONTINUOUS
 62
     7
100
AcDbVertex
100
AcDb2dVertex
 10
140.0058580781
 20
167.0699644889
 30
0.0
  0
VERTEX
  5
192
330
D7
100
AcDbEntity
  8
DEFAULT
  6
CONTINUOUS
 62
     7
100
AcDbVertex
100
AcDb2dVertex
 10
137.005858052
 20
167.5699644933
 30
0.0
  0
VERTEX
  5
193
330
D7
100
AcDbEntity
  8
DEFAULT
  6
CONTINUOUS
 62
     7
100
AcDbVertex
100
AcDb2dVertex
 10
140.0058580781
 20
168.0699644976
 30
0.0
  0
VERTEX
  5
194
330
D7
100
AcDbEntity
  8
DEFAULT
  6
CONTINUOUS
 62
     7
100
AcDbVertex
100
AcDb2dVertex
 10
140.0058580781
 20
167.0699644889
 30
0.0
  0
SEQEND
  5
190
330
D7
100
AcDbEntity
  8
DEFAULT
  6
CONTINUOUS
 62
     7
 48
25.4
  0
POLYLINE
  5
D8
330
D5
100
AcDbEntity
  8
DEFAULT
  6
CONTINUOUS
 62
     7
 48
25.4
100
AcDb2dPolyline
 66
     1
 10
0.0
 20
0.0
 30
0.0
 70
     1
  0
VERTEX
  5
196
330
D8
100
AcDbEntity
  8
DEFAULT
  6
CONTINUOUS
 62
     7
100
AcDbVertex
100
AcDb2dVertex
 10
179.005858026
 20
167.0699644889
 30
0.0
  0
VERTEX
  5
197
330
D8
100
AcDbEntity
  8
DEFAULT
  6
CONTINUOUS
 62
     7
100
AcDbVertex
100
AcDb2dVertex
 10
182.005858052
 20
167.5699644933
 30
0.0
  0
VERTEX
  5
198
330
D8
100
AcDbEntity
  8
DEFAULT
  6
CONTINUOUS
 62
     7
100
AcDbVertex
100
AcDb2dVertex
 10
179.005858026
 20
168.0699644976
 30
0.0
  0
VERTEX
  5
199
330
D8
100
AcDbEntity
  8
DEFAULT
  6
CONTINUOUS
 62
     7
100
AcDbVertex
100
AcDb2dVertex
 10
179.005858026
 20
167.0699644889
 30
0.0
  0
SEQEND
  5
195
330
D8
100
AcDbEntity
  8
DEFAULT
  6
CONTINUOUS
 62
     7
 48
25.4
  0
LINE
  5
D9
330
D5
100
AcDbEntity
  8
DEFAULT
  6
CONTINUOUS
 62
     7
 48
25.4
100
AcDbLine
 10
137.005858052
 20
226.802955682
 30
0.0
 11
137.005858052
 21
166.0699644802
 31
0.0
  0
LINE
  5
DA
330
D5
100
AcDbEntity
  8
DEFAULT
  6
CONTINUOUS
 62
     7
 48
25.4
100
AcDbLine
 10
182.005858052
 20
226.802955682
 30
0.0
 11
182.005858052
 21
166.0699644802
 31
0.0
  0
LINE
  5
DB
330
D5
100
AcDbEntity
  8
DEFAULT
  6
CONTINUOUS
 62
     7
 48
25.4
100
AcDbLine
 10
137.005858052
 20
167.5699644933
 30
0.0
 11
182.0058598402
 21
167.5699644933
 31
0.0
  0
TEXT
  5
DC
330
D5
100
AcDbEntity
  8
DEFAULT
  6
CONTINUOUS
 62
     7
 48
25.4
100
AcDbText
 10
157.7672225825
 20
168.3199644933
 30
0.0
 40
3.0
  1
45
  7
SEACAD_SEISO_TTF
 11
157.7672225825
 21
171.3199644933
 31
0.0
100
AcDbText
 73
     3
  0
ENDBLK
  5
DE
330
D5
100
AcDbEntity
  8
0
100
AcDbBlockEnd
  0
BLOCK
  5
E7
330
DF
100
AcDbEntity
  8
0
100
AcDbBlockBegin
  2
SE13
 70
     0
 71
     0
 10
0.0
 20
0.0
 30
0.0
  3
SE13
  1

  0
POLYLINE
  5
E1
330
DF
100
AcDbEntity
  8
DEFAULT
  6
CONTINUOUS
 62
     7
 48
25.4
100
AcDb2dPolyline
 66
     1
 10
0.0
 20
0.0
 30
0.0
 70
     1
  0
VERTEX
  5
19B
330
E1
100
AcDbEntity
  8
DEFAULT
  6
CONTINUOUS
 62
     7
100
AcDbVertex
100
AcDb2dVertex
 10
143.5058580781
 20
175.507097831
 30
0.0
  0
VERTEX
  5
19C
330
E1
100
AcDbEntity
  8
DEFAULT
  6
CONTINUOUS
 62
     7
100
AcDbVertex
100
AcDb2dVertex
 10
140.505858052
 20
176.0070978353
 30
0.0
  0
VERTEX
  5
19D
330
E1
100
AcDbEntity
  8
DEFAULT
  6
CONTINUOUS
 62
     7
100
AcDbVertex
100
AcDb2dVertex
 10
143.5058580781
 20
176.5070978396
 30
0.0
  0
VERTEX
  5
19E
330
E1
100
AcDbEntity
  8
DEFAULT
  6
CONTINUOUS
 62
     7
100
AcDbVertex
100
AcDb2dVertex
 10
143.5058580781
 20
175.507097831
 30
0.0
  0
SEQEND
  5
19A
330
E1
100
AcDbEntity
  8
DEFAULT
  6
CONTINUOUS
 62
     7
 48
25.4
  0
POLYLINE
  5
E2
330
DF
100
AcDbEntity
  8
DEFAULT
  6
CONTINUOUS
 62
     7
 48
25.4
100
AcDb2dPolyline
 66
     1
 10
0.0
 20
0.0
 30
0.0
 70
     1
  0
VERTEX
  5
1A0
330
E2
100
AcDbEntity
  8
DEFAULT
  6
CONTINUOUS
 62
     7
100
AcDbVertex
100
AcDb2dVertex
 10
175.505858026
 20
175.507097831
 30
0.0
  0
VERTEX
  5
1A1
330
E2
100
AcDbEntity
  8
DEFAULT
  6
CONTINUOUS
 62
     7
100
AcDbVertex
100
AcDb2dVertex
 10
178.505858052
 20
176.0070978353
 30
0.0
  0
VERTEX
  5
1A2
330
E2
100
AcDbEntity
  8
DEFAULT
  6
CONTINUOUS
 62
     7
100
AcDbVertex
100
AcDb2dVertex
 10
175.505858026
 20
176.5070978396
 30
0.0
  0
VERTEX
  5
1A3
330
E2
100
AcDbEntity
  8
DEFAULT
  6
CONTINUOUS
 62
     7
100
AcDbVertex
100
AcDb2dVertex
 10
175.505858026
 20
175.507097831
 30
0.0
  0
SEQEND
  5
19F
330
E2
100
AcDbEntity
  8
DEFAULT
  6
CONTINUOUS
 62
     7
 48
25.4
  0
LINE
  5
E3
330
DF
100
AcDbEntity
  8
DEFAULT
  6
CONTINUOUS
 62
     7
 48
25.4
100
AcDbLine
 10
140.505858052
 20
232.802955682
 30
0.0
 11
140.505858052
 21
174.5070978223
 31
0.0
  0
LINE
  5
E4
330
DF
100
AcDbEntity
  8
DEFAULT
  6
CONTINUOUS
 62
     7
 48
25.4
100
AcDbLine
 10
178.505858052
 20
232.802955682
 30
0.0
 11
178.505858052
 21
174.5070978223
 31
0.0
  0
LINE
  5
E5
330
DF
100
AcDbEntity
  8
DEFAULT
  6
CONTINUOUS
 62
     7
 48
25.4
100
AcDbLine
 10
140.505858052
 20
176.0070978353
 30
0.0
 11
178.5058568301
 21
176.0070978353
 31
0.0
  0
TEXT
  5
E6
330
DF
100
AcDbEntity
  8
DEFAULT
  6
CONTINUOUS
 62
     7
 48
25.4
100
AcDbText
 10
157.7672210774
 20
176.7570978353
 30
0.0
 40
3.0
  1
38
  7
SEACAD_SEISO_TTF
 11
157.7672210774
 21
179.7570978353
 31
0.0
100
AcDbText
 73
     3
  0
ENDBLK
  5
E8
330
DF
100
AcDbEntity
  8
0
100
AcDbBlockEnd
  0
BLOCK
  5
FB
330
E9
100
AcDbEntity
  8
0
100
AcDbBlockBegin
  2
SE14
 70
     0
 71
     0
 10
0.0
 20
0.0
 30
0.0
  3
SE14
  1

  0
ARC
  5
EC
330
E9
100
AcDbEntity
  8
MEGA_002009
  6
CONTINUOUS
 62
     7
 48
25.4
100
AcDbCircle
 10
103.5879824138
 20
49.309757709
 30
0.0
 40
3.25
100
AcDbArc
 50
261.1501169016
 51
98.8498830984
  0
ARC
  5
ED
330
E9
100
AcDbEntity
  8
MEGA_002009
  6
CONTINUOUS
 62
     7
 48
25.4
100
AcDbCircle
 10
65.5879824138
 20
49.309757709
 30
0.0
 40
3.25
100
AcDbArc
 50
81.1501169016
 51
278.8498830984
  0
ARC
  5
EE
330
E9
100
AcDbEntity
  8
MEGA_002009
  6
CONTINUOUS
 62
     7
 48
25.4
100
AcDbCircle
 10
84.5879824138
 20
67.309757709
 30
0.0
 40
23.5
100
AcDbArc
 50
38.3580160516
 51
141.6419839484
  0
LINE
  5
EF
330
E9
100
AcDbEntity
  8
MEGA_002009
  6
CONTINUOUS
 62
     7
 48
25.4
100
AcDbLine
 10
103.0879824138
 20
52.5210658536
 30
0.0
 11
103.0879824138
 21
68.309757709
 31
0.0
  0
LINE
  5
F0
330
E9
100
AcDbEntity
  8
MEGA_002009
  6
CONTINUOUS
 62
     7
 48
25.4
100
AcDbLine
 10
103.0879824138
 20
43.309757709
 30
0.0
 11
103.0879824138
 21
46.0984495643
 31
0.0
  0
ARC
  5
F1
330
E9
100
AcDbEntity
  8
MEGA_002009
  6
CONTINUOUS
 62
     7
 48
25.4
100
AcDbCircle
 10
70.0567324138
 20
55.809757709
 30
0.0
 40
42.03125
100
AcDbArc
 50
321.6419839484
 51
38.3580160516
  0
ARC
  5
F2
330
E9
100
AcDbEntity
  8
MEGA_002009
  6
CONTINUOUS
 62
     7
 48
25.4
100
AcDbCircle
 10
84.5879824138
 20
44.309757709
 30
0.0
 40
23.5
100
AcDbArc
 50
218.3580160516
 51
321.6419839484
  0
ARC
  5
F3
330
E9
100
AcDbEntity
  8
MEGA_002009
  6
CONTINUOUS
 62
     7
 48
25.4
100
AcDbCircle
 10
99.1192324138
 20
55.809757709
 30
0.0
 40
42.03125
100
AcDbArc
 50
141.6419839484
 51
218.3580160516
  0
ARC
  5
F4
330
E9
100
AcDbEntity
  8
MEGA_002009
  6
CONTINUOUS
 62
     7
 48
25.4
100
AcDbCircle
 10
84.5879824138
 20
68.309757709
 30
0.0
 40
18.5
100
AcDbArc
 50
0.0
 51
180.0
  0
LINE
  5
F5
330
E9
100
AcDbEntity
  8
MEGA_002009
  6
CONTINUOUS
 62
     7
 48
25.4
100
AcDbLine
 10
66.0879824138
 20
68.309757709
 30
0.0
 11
66.0879824138
 21
52.5210658536
 31
0.0
  0
LINE
  5
F6
330
E9
100
AcDbEntity
  8
MEGA_002009
  6
CONTINUOUS
 62
     7
 48
25.4
100
AcDbLine
 10
66.0879824138
 20
46.0984495643
 30
0.0
 11
66.0879824138
 21
43.309757709
 31
0.0
  0
ARC
  5
F7
330
E9
100
AcDbEntity
  8
MEGA_002009
  6
CONTINUOUS
 62
     7
 48
25.4
100
AcDbCircle
 10
84.5879824138
 20
43.309757709
 30
0.0
 40
18.5
100
AcDbArc
 50
180.0
 51
360.0
  0
LINE
  5
F8
330
E9
100
AcDbEntity
  8
STANDARD
  6
CENTER2
 62
     7
 48
25.4
100
AcDbLine
 10
84.5879824138
 20
92.5699807633
 30
0.0
 11
84.5879824138
 21
19.399632017
 31
0.0
  0
LINE
  5
F9
330
E9
100
AcDbEntity
  8
STANDARD
  6
CENTER2
 62
     7
 48
25.4
100
AcDbLine
 10
54.0128127622
 20
55.809757709
 30
0.0
 11
115.1631520653
 21
55.809757709
 31
0.0
  0
LINE
  5
FA
330
E9
100
AcDbEntity
  8
STANDARD
  6
CONTINUOUS
 62
     7
 48
25.4
100
AcDbLine
 10
84.5879824138
 20
20.809757709
 30
0.0
 11
94.15731032
 21
20.809757709
 31
0.0
  0
ENDBLK
  5
FC
330
E9
100
AcDbEntity
  8
0
100
AcDbBlockEnd
  0
BLOCK
  5
105
330
FD
100
AcDbEntity
  8
0
100
AcDbBlockBegin
  2
SE15
 70
     0
 71
     0
 10
0.0
 20
0.0
 30
0.0
  3
SE15
  1

  0
POLYLINE
  5
FF
330
FD
100
AcDbEntity
  8
DEFAULT
  6
CONTINUOUS
 62
     7
 48
25.4
100
AcDb2dPolyline
 66
     1
 10
0.0
 20
0.0
 30
0.0
 70
     1
  0
VERTEX
  5
1A5
330
FF
100
AcDbEntity
  8
DEFAULT
  6
CONTINUOUS
 62
     7
100
AcDbVertex
100
AcDb2dVertex
 10
36.2517285887
 20
58.809757735
 30
0.0
  0
VERTEX
  5
1A6
330
FF
100
AcDbEntity
  8
DEFAULT
  6
CONTINUOUS
 62
     7
100
AcDbVertex
100
AcDb2dVertex
 10
36.7517285931
 20
55.809757709
 30
0.0
  0
VERTEX
  5
1A7
330
FF
100
AcDbEntity
  8
DEFAULT
  6
CONTINUOUS
 62
     7
100
AcDbVertex
100
AcDb2dVertex
 10
37.2517285974
 20
58.809757735
 30
0.0
  0
VERTEX
  5
1A8
330
FF
100
AcDbEntity
  8
DEFAULT
  6
CONTINUOUS
 62
     7
100
AcDbVertex
100
AcDb2dVertex
 10
36.2517285887
 20
58.809757735
 30
0.0
  0
SEQEND
  5
1A4
330
FF
100
AcDbEntity
  8
DEFAULT
  6
CONTINUOUS
 62
     7
 48
25.4
  0
POLYLINE
  5
100
330
FD
100
AcDbEntity
  8
DEFAULT
  6
CONTINUOUS
 62
     7
 48
25.4
100
AcDb2dPolyline
 66
     1
 10
0.0
 20
0.0
 30
0.0
 70
     1
  0
VERTEX
  5
1AA
330
100
100
AcDbEntity
  8
DEFAULT
  6
CONTINUOUS
 62
     7
100
AcDbVertex
100
AcDb2dVertex
 10
36.2517285887
 20
46.3097576829
 30
0.0
  0
VERTEX
  5
1AB
330
100
100
AcDbEntity
  8
DEFAULT
  6
CONTINUOUS
 62
     7
100
AcDbVertex
100
AcDb2dVertex
 10
36.7517285931
 20
49.309757709
 30
0.0
  0
VERTEX
  5
1AC
330
100
100
AcDbEntity
  8
DEFAULT
  6
CONTINUOUS
 62
     7
100
AcDbVertex
100
AcDb2dVertex
 10
37.2517285974
 20
46.3097576829
 30
0.0
  0
VERTEX
  5
1AD
330
100
100
AcDbEntity
  8
DEFAULT
  6
CONTINUOUS
 62
     7
100
AcDbVertex
100
AcDb2dVertex
 10
36.2517285887
 20
46.3097576829
 30
0.0
  0
SEQEND
  5
1A9
330
100
100
AcDbEntity
  8
DEFAULT
  6
CONTINUOUS
 62
     7
 48
25.4
  0
LINE
  5
101
330
FD
100
AcDbEntity
  8
DEFAULT
  6
CONTINUOUS
 62
     7
 48
25.4
100
AcDbLine
 10
54.0128127622
 20
55.809757709
 30
0.0
 11
35.25172858
 21
55.809757709
 31
0.0
  0
LINE
  5
102
330
FD
100
AcDbEntity
  8
DEFAULT
  6
CONTINUOUS
 62
     7
 48
25.4
100
AcDbLine
 10
65.5879824138
 20
49.309757709
 30
0.0
 11
35.25172858
 21
49.309757709
 31
0.0
  0
LINE
  5
103
330
FD
100
AcDbEntity
  8
DEFAULT
  6
CONTINUOUS
 62
     7
 48
25.4
100
AcDbLine
 10
36.7517285931
 20
61.8097577611
 30
0.0
 11
36.7517285931
 21
43.3097575227
 31
0.0
  0
TEXT
  5
104
330
FD
100
AcDbEntity
  8
DEFAULT
  6
CONTINUOUS
 62
     7
 48
25.4
100
AcDbText
 10
36.0017285931
 20
50.5143030965
 30
0.0
 40
3.0
  1
6,5
 50
90.0
  7
SEACAD_SEISO_TTF
 11
33.0017285931
 21
50.5143030965
 31
0.0
100
AcDbText
 73
     3
  0
ENDBLK
  5
106
330
FD
100
AcDbEntity
  8
0
100
AcDbBlockEnd
  0
BLOCK
  5
10F
330
107
100
AcDbEntity
  8
0
100
AcDbBlockBegin
  2
SE16
 70
     0
 71
     0
 10
0.0
 20
0.0
 30
0.0
  3
SE16
  1

  0
POLYLINE
  5
109
330
107
100
AcDbEntity
  8
DEFAULT
  6
CONTINUOUS
 62
     7
 48
25.4
100
AcDb2dPolyline
 66
     1
 10
0.0
 20
0.0
 30
0.0
 70
     1
  0
VERTEX
  5
1AF
330
109
100
AcDbEntity
  8
DEFAULT
  6
CONTINUOUS
 62
     7
100
AcDbVertex
100
AcDb2dVertex
 10
69.0879824399
 20
113.4739357569
 30
0.0
  0
VERTEX
  5
1B0
330
109
100
AcDbEntity
  8
DEFAULT
  6
CONTINUOUS
 62
     7
100
AcDbVertex
100
AcDb2dVertex
 10
66.0879824138
 20
112.9739357526
 30
0.0
  0
VERTEX
  5
1B1
330
109
100
AcDbEntity
  8
DEFAULT
  6
CONTINUOUS
 62
     7
100
AcDbVertex
100
AcDb2dVertex
 10
69.0879824399
 20
112.4739357482
 30
0.0
  0
VERTEX
  5
1B2
330
109
100
AcDbEntity
  8
DEFAULT
  6
CONTINUOUS
 62
     7
100
AcDbVertex
100
AcDb2dVertex
 10
69.0879824399
 20
113.4739357569
 30
0.0
  0
SEQEND
  5
1AE
330
109
100
AcDbEntity
  8
DEFAULT
  6
CONTINUOUS
 62
     7
 48
25.4
  0
POLYLINE
  5
10A
330
107
100
AcDbEntity
  8
DEFAULT
  6
CONTINUOUS
 62
     7
 48
25.4
100
AcDb2dPolyline
 66
     1
 10
0.0
 20
0.0
 30
0.0
 70
     1
  0
VERTEX
  5
1B4
330
10A
100
AcDbEntity
  8
DEFAULT
  6
CONTINUOUS
 62
     7
100
AcDbVertex
100
AcDb2dVertex
 10
100.0879823877
 20
113.4739357569
 30
0.0
  0
VERTEX
  5
1B5
330
10A
100
AcDbEntity
  8
DEFAULT
  6
CONTINUOUS
 62
     7
100
AcDbVertex
100
AcDb2dVertex
 10
103.0879824138
 20
112.9739357526
 30
0.0
  0
VERTEX
  5
1B6
330
10A
100
AcDbEntity
  8
DEFAULT
  6
CONTINUOUS
 62
     7
100
AcDbVertex
100
AcDb2dVertex
 10
100.0879823877
 20
112.4739357482
 30
0.0
  0
VERTEX
  5
1B7
330
10A
100
AcDbEntity
  8
DEFAULT
  6
CONTINUOUS
 62
     7
100
AcDbVertex
100
AcDb2dVertex
 10
100.0879823877
 20
113.4739357569
 30
0.0
  0
SEQEND
  5
1B3
330
10A
100
AcDbEntity
  8
DEFAULT
  6
CONTINUOUS
 62
     7
 48
25.4
  0
LINE
  5
10B
330
107
100
AcDbEntity
  8
DEFAULT
  6
CONTINUOUS
 62
     7
 48
25.4
100
AcDbLine
 10
66.0879824138
 20
68.309757709
 30
0.0
 11
66.0879824138
 21
114.4739357656
 31
0.0
  0
LINE
  5
10C
330
107
100
AcDbEntity
  8
DEFAULT
  6
CONTINUOUS
 62
     7
 48
25.4
100
AcDbLine
 10
103.0879824138
 20
68.309757709
 30
0.0
 11
103.0879824138
 21
114.4739357656
 31
0.0
  0
LINE
  5
10D
330
107
100
AcDbEntity
  8
DEFAULT
  6
CONTINUOUS
 62
     7
 48
25.4
100
AcDbLine
 10
66.0879824138
 20
112.9739357526
 30
0.0
 11
103.0879828906
 21
112.9739357526
 31
0.0
  0
TEXT
  5
10E
330
107
100
AcDbEntity
  8
DEFAULT
  6
CONTINUOUS
 62
     7
 48
25.4
100
AcDbText
 10
82.8493462886
 20
113.7239357526
 30
0.0
 40
3.0
  1
37
  7
SEACAD_SEISO_TTF
 11
82.8493462886
 21
116.7239357526
 31
0.0
100
AcDbText
 73
     3
  0
ENDBLK
  5
110
330
107
100
AcDbEntity
  8
0
100
AcDbBlockEnd
  0
BLOCK
  5
11B
330
111
100
AcDbEntity
  8
0
100
AcDbBlockBegin
  2
SE17
 70
     0
 71
     0
 10
0.0
 20
0.0
 30
0.0
  3
SE17
  1

  0
LINE
  5
113
330
111
100
AcDbEntity
  8
MEGA_002009
  6
CONTINUOUS
 62
     7
 48
25.4
100
AcDbLine
 10
164.6444829801
 20
20.809757709
 30
0.0
 11
166.1444829801
 21
20.809757709
 31
0.0
  0
LINE
  5
114
330
111
100
AcDbEntity
  8
MEGA_002009
  6
CONTINUOUS
 62
     7
 48
25.4
100
AcDbLine
 10
166.1444829801
 20
90.809757709
 30
0.0
 11
166.1444829801
 21
81.8932315707
 31
0.0
  0
LINE
  5
115
330
111
100
AcDbEntity
  8
MEGA_002009
  6
CONTINUOUS
 62
     7
 48
25.4
100
AcDbLine
 10
164.6444829801
 20
90.809757709
 30
0.0
 11
164.6444829801
 21
81.8932315707
 31
0.0
  0
LINE
  5
116
330
111
100
AcDbEntity
  8
MEGA_002009
  6
CONTINUOUS
 62
     7
 48
25.4
100
AcDbLine
 10
164.6444829801
 20
29.7262838472
 30
0.0
 11
164.6444829801
 21
20.809757709
 31
0.0
  0
LINE
  5
117
330
111
100
AcDbEntity
  8
MEGA_002009
  6
CONTINUOUS
 62
     7
 48
25.4
100
AcDbLine
 10
164.6444829801
 20
29.7262838472
 30
0.0
 11
164.6444829801
 21
81.8932315707
 31
0.0
  0
LINE
  5
118
330
111
100
AcDbEntity
  8
MEGA_002009
  6
CONTINUOUS
 62
     7
 48
25.4
100
AcDbLine
 10
166.1444829801
 20
29.7262838472
 30
0.0
 11
166.1444829801
 21
20.809757709
 31
0.0
  0
LINE
  5
119
330
111
100
AcDbEntity
  8
MEGA_002009
  6
CONTINUOUS
 62
     7
 48
25.4
100
AcDbLine
 10
166.1444829801
 20
29.7262838472
 30
0.0
 11
166.1444829801
 21
81.8932315707
 31
0.0
  0
LINE
  5
11A
330
111
100
AcDbEntity
  8
MEGA_002009
  6
CONTINUOUS
 62
     7
 48
25.4
100
AcDbLine
 10
166.1444829801
 20
90.809757709
 30
0.0
 11
164.6444829801
 21
90.809757709
 31
0.0
  0
ENDBLK
  5
11C
330
111
100
AcDbEntity
  8
0
100
AcDbBlockEnd
  0
BLOCK
  5
125
330
11D
100
AcDbEntity
  8
0
100
AcDbBlockBegin
  2
SE18
 70
     0
 71
     0
 10
0.0
 20
0.0
 30
0.0
  3
SE18
  1

  0
POLYLINE
  5
11F
330
11D
100
AcDbEntity
  8
DEFAULT
  6
CONTINUOUS
 62
     7
 48
25.4
100
AcDb2dPolyline
 66
     1
 10
0.0
 20
0.0
 30
0.0
 70
     1
  0
VERTEX
  5
1B9
330
11F
100
AcDbEntity
  8
DEFAULT
  6
CONTINUOUS
 62
     7
100
AcDbVertex
100
AcDb2dVertex
 10
161.644482954
 20
112.5354811145
 30
0.0
  0
VERTEX
  5
1BA
330
11F
100
AcDbEntity
  8
DEFAULT
  6
CONTINUOUS
 62
     7
100
AcDbVertex
100
AcDb2dVertex
 10
164.6444829801
 20
112.0354811102
 30
0.0
  0
VERTEX
  5
1BB
330
11F
100
AcDbEntity
  8
DEFAULT
  6
CONTINUOUS
 62
     7
100
AcDbVertex
100
AcDb2dVertex
 10
161.644482954
 20
111.5354811058
 30
0.0
  0
VERTEX
  5
1BC
330
11F
100
AcDbEntity
  8
DEFAULT
  6
CONTINUOUS
 62
     7
100
AcDbVertex
100
AcDb2dVertex
 10
161.644482954
 20
112.5354811145
 30
0.0
  0
SEQEND
  5
1B8
330
11F
100
AcDbEntity
  8
DEFAULT
  6
CONTINUOUS
 62
     7
 48
25.4
  0
POLYLINE
  5
120
330
11D
100
AcDbEntity
  8
DEFAULT
  6
CONTINUOUS
 62
     7
 48
25.4
100
AcDb2dPolyline
 66
     1
 10
0.0
 20
0.0
 30
0.0
 70
     1
  0
VERTEX
  5
1BE
330
120
100
AcDbEntity
  8
DEFAULT
  6
CONTINUOUS
 62
     7
100
AcDbVertex
100
AcDb2dVertex
 10
169.1444830062
 20
112.5354811145
 30
0.0
  0
VERTEX
  5
1BF
330
120
100
AcDbEntity
  8
DEFAULT
  6
CONTINUOUS
 62
     7
100
AcDbVertex
100
AcDb2dVertex
 10
166.1444829801
 20
112.0354811102
 30
0.0
  0
VERTEX
  5
1C0
330
120
100
AcDbEntity
  8
DEFAULT
  6
CONTINUOUS
 62
     7
100
AcDbVertex
100
AcDb2dVertex
 10
169.1444830062
 20
111.5354811058
 30
0.0
  0
VERTEX
  5
1C1
330
120
100
AcDbEntity
  8
DEFAULT
  6
CONTINUOUS
 62
     7
100
AcDbVertex
100
AcDb2dVertex
 10
169.1444830062
 20
112.5354811145
 30
0.0
  0
SEQEND
  5
1BD
330
120
100
AcDbEntity
  8
DEFAULT
  6
CONTINUOUS
 62
     7
 48
25.4
  0
LINE
  5
121
330
11D
100
AcDbEntity
  8
DEFAULT
  6
CONTINUOUS
 62
     7
 48
25.4
100
AcDbLine
 10
164.6444829801
 20
81.8932315707
 30
0.0
 11
164.6444829801
 21
113.5354811232
 31
0.0
  0
LINE
  5
122
330
11D
100
AcDbEntity
  8
DEFAULT
  6
CONTINUOUS
 62
     7
 48
25.4
100
AcDbLine
 10
166.1444829801
 20
81.8932315707
 30
0.0
 11
166.1444829801
 21
113.5354811232
 31
0.0
  0
LINE
  5
123
330
11D
100
AcDbEntity
  8
DEFAULT
  6
CONTINUOUS
 62
     7
 48
25.4
100
AcDbLine
 10
158.6444829279
 20
112.0354811102
 30
0.0
 11
172.1444828125
 21
112.0354811102
 31
0.0
  0
TEXT
  5
124
330
11D
100
AcDbEntity
  8
DEFAULT
  6
CONTINUOUS
 62
     7
 48
25.4
100
AcDbText
 10
163.655846623
 20
112.7854811102
 30
0.0
 40
3.0
  1
1,5
  7
SEACAD_SEISO_TTF
 11
163.655846623
 21
115.7854811102
 31
0.0
100
AcDbText
 73
     3
  0
ENDBLK
  5
126
330
11D
100
AcDbEntity
  8
0
100
AcDbBlockEnd
  0
BLOCK
  5
12F
330
127
100
AcDbEntity
  8
0
100
AcDbBlockBegin
  2
SE19
 70
     0
 71
     0
 10
0.0
 20
0.0
 30
0.0
  3
SE19
  1

  0
POLYLINE
  5
129
330
127
100
AcDbEntity
  8
DEFAULT
  6
CONTINUOUS
 62
     7
 48
25.4
100
AcDb2dPolyline
 66
     1
 10
0.0
 20
0.0
 30
0.0
 70
     1
  0
VERTEX
  5
1C3
330
129
100
AcDbEntity
  8
DEFAULT
  6
CONTINUOUS
 62
     7
100
AcDbVertex
100
AcDb2dVertex
 10
113.3797690708
 20
207.3029557081
 30
0.0
  0
VERTEX
  5
1C4
330
129
100
AcDbEntity
  8
DEFAULT
  6
CONTINUOUS
 62
     7
100
AcDbVertex
100
AcDb2dVertex
 10
113.8797690752
 20
204.302955682
 30
0.0
  0
VERTEX
  5
1C5
330
129
100
AcDbEntity
  8
DEFAULT
  6
CONTINUOUS
 62
     7
100
AcDbVertex
100
AcDb2dVertex
 10
114.3797690795
 20
207.3029557081
 30
0.0
  0
VERTEX
  5
1C6
330
129
100
AcDbEntity
  8
DEFAULT
  6
CONTINUOUS
 62
     7
100
AcDbVertex
100
AcDb2dVertex
 10
113.3797690708
 20
207.3029557081
 30
0.0
  0
SEQEND
  5
1C2
330
129
100
AcDbEntity
  8
DEFAULT
  6
CONTINUOUS
 62
     7
 48
25.4
  0
POLYLINE
  5
12A
330
127
100
AcDbEntity
  8
DEFAULT
  6
CONTINUOUS
 62
     7
 48
25.4
100
AcDb2dPolyline
 66
     1
 10
0.0
 20
0.0
 30
0.0
 70
     1
  0
VERTEX
  5
1C8
330
12A
100
AcDbEntity
  8
DEFAULT
  6
CONTINUOUS
 62
     7
100
AcDbVertex
100
AcDb2dVertex
 10
113.3797690708
 20
271.302955656
 30
0.0
  0
VERTEX
  5
1C9
330
12A
100
AcDbEntity
  8
DEFAULT
  6
CONTINUOUS
 62
     7
100
AcDbVertex
100
AcDb2dVertex
 10
113.8797690752
 20
274.302955682
 30
0.0
  0
VERTEX
  5
1CA
330
12A
100
AcDbEntity
  8
DEFAULT
  6
CONTINUOUS
 62
     7
100
AcDbVertex
100
AcDb2dVertex
 10
114.3797690795
 20
271.302955656
 30
0.0
  0
VERTEX
  5
1CB
330
12A
100
AcDbEntity
  8
DEFAULT
  6
CONTINUOUS
 62
     7
100
AcDbVertex
100
AcDb2dVertex
 10
113.3797690708
 20
271.302955656
 30
0.0
  0
SEQEND
  5
1C7
330
12A
100
AcDbEntity
  8
DEFAULT
  6
CONTINUOUS
 62
     7
 48
25.4
  0
LINE
  5
12B
330
127
100
AcDbEntity
  8
DEFAULT
  6
CONTINUOUS
 62
     7
 48
25.4
100
AcDbLine
 10
159.505858052
 20
204.302955682
 30
0.0
 11
112.3797690621
 21
204.302955682
 31
0.0
  0
LINE
  5
12C
330
127
100
AcDbEntity
  8
DEFAULT
  6
CONTINUOUS
 62
     7
 48
25.4
100
AcDbLine
 10
159.505858052
 20
274.302955682
 30
0.0
 11
112.3797690621
 21
274.302955682
 31
0.0
  0
LINE
  5
12D
330
127
100
AcDbEntity
  8
DEFAULT
  6
CONTINUOUS
 62
     7
 48
25.4
100
AcDbLine
 10
113.8797690752
 20
204.302955682
 30
0.0
 11
113.8797690752
 21
274.3029559801
 31
0.0
  0
TEXT
  5
12E
330
127
100
AcDbEntity
  8
DEFAULT
  6
CONTINUOUS
 62
     7
 48
25.4
100
AcDbText
 10
113.1297690752
 20
237.4620467401
 30
0.0
 40
3.0
  1
70
 50
90.0
  7
SEACAD_SEISO_TTF
 11
110.1297690752
 21
237.4620467401
 31
0.0
100
AcDbText
 73
     3
  0
ENDBLK
  5
130
330
127
100
AcDbEntity
  8
0
100
AcDbBlockEnd
  0
BLOCK
  5
139
330
131
100
AcDbEntity
  8
0
100
AcDbBlockBegin
  2
SE20
 70
     0
 71
     0
 10
0.0
 20
0.0
 30
0.0
  3
SE20
  1

  0
POLYLINE
  5
133
330
131
100
AcDbEntity
  8
DEFAULT
  6
CONTINUOUS
 62
     7
 48
25.4
100
AcDb2dPolyline
 66
     1
 10
0.0
 20
0.0
 30
0.0
 70
     1
  0
VERTEX
  5
1CD
330
133
100
AcDbEntity
  8
DEFAULT
  6
CONTINUOUS
 62
     7
100
AcDbVertex
100
AcDb2dVertex
 10
127.5276915153
 20
46.3097576829
 30
0.0
  0
VERTEX
  5
1CE
330
133
100
AcDbEntity
  8
DEFAULT
  6
CONTINUOUS
 62
     7
100
AcDbVertex
100
AcDb2dVertex
 10
127.0276915109
 20
49.309757709
 30
0.0
  0
VERTEX
  5
1CF
330
133
100
AcDbEntity
  8
DEFAULT
  6
CONTINUOUS
 62
     7
100
AcDbVertex
100
AcDb2dVertex
 10
126.5276915066
 20
46.3097576829
 30
0.0
  0
VERTEX
  5
1D0
330
133
100
AcDbEntity
  8
DEFAULT
  6
CONTINUOUS
 62
     7
100
AcDbVertex
100
AcDb2dVertex
 10
127.5276915153
 20
46.3097576829
 30
0.0
  0
SEQEND
  5
1CC
330
133
100
AcDbEntity
  8
DEFAULT
  6
CONTINUOUS
 62
     7
 48
25.4
  0
POLYLINE
  5
134
330
131
100
AcDbEntity
  8
DEFAULT
  6
CONTINUOUS
 62
     7
 48
25.4
100
AcDb2dPolyline
 66
     1
 10
0.0
 20
0.0
 30
0.0
 70
     1
  0
VERTEX
  5
1D2
330
134
100
AcDbEntity
  8
DEFAULT
  6
CONTINUOUS
 62
     7
100
AcDbVertex
100
AcDb2dVertex
 10
127.5276915153
 20
23.809757735
 30
0.0
  0
VERTEX
  5
1D3
330
134
100
AcDbEntity
  8
DEFAULT
  6
CONTINUOUS
 62
     7
100
AcDbVertex
100
AcDb2dVertex
 10
127.0276915109
 20
20.809757709
 30
0.0
  0
VERTEX
  5
1D4
330
134
100
AcDbEntity
  8
DEFAULT
  6
CONTINUOUS
 62
     7
100
AcDbVertex
100
AcDb2dVertex
 10
126.5276915066
 20
23.809757735
 30
0.0
  0
VERTEX
  5
1D5
330
134
100
AcDbEntity
  8
DEFAULT
  6
CONTINUOUS
 62
     7
100
AcDbVertex
100
AcDb2dVertex
 10
127.5276915153
 20
23.809757735
 30
0.0
  0
SEQEND
  5
1D1
330
134
100
AcDbEntity
  8
DEFAULT
  6
CONTINUOUS
 62
     7
 48
25.4
  0
LINE
  5
135
330
131
100
AcDbEntity
  8
DEFAULT
  6
CONTINUOUS
 62
     7
 48
25.4
100
AcDbLine
 10
103.5879824138
 20
49.309757709
 30
0.0
 11
128.527691524
 21
49.309757709
 31
0.0
  0
LINE
  5
136
330
131
100
AcDbEntity
  8
DEFAULT
  6
CONTINUOUS
 62
     7
 48
25.4
100
AcDbLine
 10
94.15731032
 20
20.809757709
 30
0.0
 11
128.527691524
 21
20.809757709
 31
0.0
  0
LINE
  5
137
330
131
100
AcDbEntity
  8
DEFAULT
  6
CONTINUOUS
 62
     7
 48
25.4
100
AcDbLine
 10
127.0276915109
 20
49.309757709
 30
0.0
 11
127.0276915109
 21
20.8097576941
 31
0.0
  0
TEXT
  5
138
330
131
100
AcDbEntity
  8
DEFAULT
  6
CONTINUOUS
 62
     7
 48
25.4
100
AcDbText
 10
126.2776915109
 20
32.0597577015
 30
0.0
 40
3.0
  1
28,5
 50
90.0
  7
SEACAD_SEISO_TTF
 11
123.2776915109
 21
32.0597577015
 31
0.0
100
AcDbText
 73
     3
  0
ENDBLK
  5
13A
330
131
100
AcDbEntity
  8
0
100
AcDbBlockEnd
  0
BLOCK
  5
143
330
13B
100
AcDbEntity
  8
0
100
AcDbBlockBegin
  2
SE21
 70
     0
 71
     0
 10
0.0
 20
0.0
 30
0.0
  3
SE21
  1

  0
POLYLINE
  5
13D
330
13B
100
AcDbEntity
  8
DEFAULT
  6
CONTINUOUS
 62
     7
 48
25.4
100
AcDb2dPolyline
 66
     1
 10
0.0
 20
0.0
 30
0.0
 70
     1
  0
VERTEX
  5
1D7
330
13D
100
AcDbEntity
  8
DEFAULT
  6
CONTINUOUS
 62
     7
100
AcDbVertex
100
AcDb2dVertex
 10
137.5701105614
 20
87.8097576829
 30
0.0
  0
VERTEX
  5
1D8
330
13D
100
AcDbEntity
  8
DEFAULT
  6
CONTINUOUS
 62
     7
100
AcDbVertex
100
AcDb2dVertex
 10
137.0701105571
 20
90.809757709
 30
0.0
  0
VERTEX
  5
1D9
330
13D
100
AcDbEntity
  8
DEFAULT
  6
CONTINUOUS
 62
     7
100
AcDbVertex
100
AcDb2dVertex
 10
136.5701105528
 20
87.8097576829
 30
0.0
  0
VERTEX
  5
1DA
330
13D
100
AcDbEntity
  8
DEFAULT
  6
CONTINUOUS
 62
     7
100
AcDbVertex
100
AcDb2dVertex
 10
137.5701105614
 20
87.8097576829
 30
0.0
  0
SEQEND
  5
1D6
330
13D
100
AcDbEntity
  8
DEFAULT
  6
CONTINUOUS
 62
     7
 48
25.4
  0
POLYLINE
  5
13E
330
13B
100
AcDbEntity
  8
DEFAULT
  6
CONTINUOUS
 62
     7
 48
25.4
100
AcDb2dPolyline
 66
     1
 10
0.0
 20
0.0
 30
0.0
 70
     1
  0
VERTEX
  5
1DC
330
13E
100
AcDbEntity
  8
DEFAULT
  6
CONTINUOUS
 62
     7
100
AcDbVertex
100
AcDb2dVertex
 10
137.5701105614
 20
23.809757735
 30
0.0
  0
VERTEX
  5
1DD
330
13E
100
AcDbEntity
  8
DEFAULT
  6
CONTINUOUS
 62
     7
100
AcDbVertex
100
AcDb2dVertex
 10
137.0701105571
 20
20.809757709
 30
0.0
  0
VERTEX
  5
1DE
330
13E
100
AcDbEntity
  8
DEFAULT
  6
CONTINUOUS
 62
     7
100
AcDbVertex
100
AcDb2dVertex
 10
136.5701105528
 20
23.809757735
 30
0.0
  0
VERTEX
  5
1DF
330
13E
100
AcDbEntity
  8
DEFAULT
  6
CONTINUOUS
 62
     7
100
AcDbVertex
100
AcDb2dVertex
 10
137.5701105614
 20
23.809757735
 30
0.0
  0
SEQEND
  5
1DB
330
13E
100
AcDbEntity
  8
DEFAULT
  6
CONTINUOUS
 62
     7
 48
25.4
  0
LINE
  5
13F
330
13B
100
AcDbEntity
  8
DEFAULT
  6
CONTINUOUS
 62
     7
 48
25.4
100
AcDbLine
 10
84.5879824138
 20
90.809757709
 30
0.0
 11
138.5701105701
 21
90.809757709
 31
0.0
  0
LINE
  5
140
330
13B
100
AcDbEntity
  8
DEFAULT
  6
CONTINUOUS
 62
     7
 48
25.4
100
AcDbLine
 10
84.5879824138
 20
20.809757709
 30
0.0
 11
138.5701105701
 21
20.809757709
 31
0.0
  0
LINE
  5
141
330
13B
100
AcDbEntity
  8
DEFAULT
  6
CONTINUOUS
 62
     7
 48
25.4
100
AcDbLine
 10
137.0701105571
 20
90.809757709
 30
0.0
 11
137.0701105571
 21
20.8097574109
 31
0.0
  0
TEXT
  5
142
330
13B
100
AcDbEntity
  8
DEFAULT
  6
CONTINUOUS
 62
     7
 48
25.4
100
AcDbText
 10
136.3201105571
 20
53.968848469
 30
0.0
 40
3.0
  1
70
 50
90.0
  7
SEACAD_SEISO_TTF
 11
133.3201105571
 21
53.968848469
 31
0.0
100
AcDbText
 73
     3
  0
ENDBLK
  5
144
330
13B
100
AcDbEntity
  8
0
100
AcDbBlockEnd
  0
BLOCK
  5
14D
330
145
100
AcDbEntity
  8
0
100
AcDbBlockBegin
  2
SE22
 70
     0
 71
     0
 10
0.0
 20
0.0
 30
0.0
  3
SE22
  1

  0
POLYLINE
  5
147
330
145
100
AcDbEntity
  8
DEFAULT
  6
CONTINUOUS
 62
     7
 48
25.4
100
AcDb2dPolyline
 66
     1
 10
0.0
 20
0.0
 30
0.0
 70
     1
  0
VERTEX
  5
1E1
330
147
100
AcDbEntity
  8
DEFAULT
  6
CONTINUOUS
 62
     7
100
AcDbVertex
100
AcDb2dVertex
 10
28.6675129168
 20
83.8097576829
 30
0.0
  0
VERTEX
  5
1E2
330
147
100
AcDbEntity
  8
DEFAULT
  6
CONTINUOUS
 62
     7
100
AcDbVertex
100
AcDb2dVertex
 10
29.1675129211
 20
86.809757709
 30
0.0
  0
VERTEX
  5
1E3
330
147
100
AcDbEntity
  8
DEFAULT
  6
CONTINUOUS
 62
     7
100
AcDbVertex
100
AcDb2dVertex
 10
29.6675129255
 20
83.8097576829
 30
0.0
  0
VERTEX
  5
1E4
330
147
100
AcDbEntity
  8
DEFAULT
  6
CONTINUOUS
 62
     7
100
AcDbVertex
100
AcDb2dVertex
 10
28.6675129168
 20
83.8097576829
 30
0.0
  0
SEQEND
  5
1E0
330
147
100
AcDbEntity
  8
DEFAULT
  6
CONTINUOUS
 62
     7
 48
25.4
  0
POLYLINE
  5
148
330
145
100
AcDbEntity
  8
DEFAULT
  6
CONTINUOUS
 62
     7
 48
25.4
100
AcDb2dPolyline
 66
     1
 10
0.0
 20
0.0
 30
0.0
 70
     1
  0
VERTEX
  5
1E6
330
148
100
AcDbEntity
  8
DEFAULT
  6
CONTINUOUS
 62
     7
100
AcDbVertex
100
AcDb2dVertex
 10
28.6675129168
 20
27.809757735
 30
0.0
  0
VERTEX
  5
1E7
330
148
100
AcDbEntity
  8
DEFAULT
  6
CONTINUOUS
 62
     7
100
AcDbVertex
100
AcDb2dVertex
 10
29.1675129211
 20
24.809757709
 30
0.0
  0
VERTEX
  5
1E8
330
148
100
AcDbEntity
  8
DEFAULT
  6
CONTINUOUS
 62
     7
100
AcDbVertex
100
AcDb2dVertex
 10
29.6675129255
 20
27.809757735
 30
0.0
  0
VERTEX
  5
1E9
330
148
100
AcDbEntity
  8
DEFAULT
  6
CONTINUOUS
 62
     7
100
AcDbVertex
100
AcDb2dVertex
 10
28.6675129168
 20
27.809757735
 30
0.0
  0
SEQEND
  5
1E5
330
148
100
AcDbEntity
  8
DEFAULT
  6
CONTINUOUS
 62
     7
 48
25.4
  0
LINE
  5
149
330
145
100
AcDbEntity
  8
DEFAULT
  6
CONTINUOUS
 62
     7
 48
25.4
100
AcDbLine
 10
84.5879824138
 20
86.809757709
 30
0.0
 11
27.6675129081
 21
86.809757709
 31
0.0
  0
LINE
  5
14A
330
145
100
AcDbEntity
  8
DEFAULT
  6
CONTINUOUS
 62
     7
 48
25.4
100
AcDbLine
 10
84.5879824138
 20
24.809757709
 30
0.0
 11
27.6675129081
 21
24.809757709
 31
0.0
  0
LINE
  5
14B
330
145
100
AcDbEntity
  8
DEFAULT
  6
CONTINUOUS
 62
     7
 48
25.4
100
AcDbLine
 10
29.1675129211
 20
86.809757709
 30
0.0
 11
29.1675129211
 21
24.8097587222
 31
0.0
  0
TEXT
  5
14C
330
145
100
AcDbEntity
  8
DEFAULT
  6
CONTINUOUS
 62
     7
 48
25.4
100
AcDbText
 10
28.4175129211
 20
53.9688491247
 30
0.0
 40
3.0
  1
62
 50
90.0
  7
SEACAD_SEISO_TTF
 11
25.4175129211
 21
53.9688491247
 31
0.0
100
AcDbText
 73
     3
  0
ENDBLK
  5
14E
330
145
100
AcDbEntity
  8
0
100
AcDbBlockEnd
  0
BLOCK
  5
157
330
14F
100
AcDbEntity
  8
0
100
AcDbBlockBegin
  2
SE23
 70
     0
 71
     0
 10
0.0
 20
0.0
 30
0.0
  3
SE23
  1

  0
POLYLINE
  5
151
330
14F
100
AcDbEntity
  8
DEFAULT
  6
CONTINUOUS
 62
     7
 48
25.4
100
AcDb2dPolyline
 66
     1
 10
0.0
 20
0.0
 30
0.0
 70
     1
  0
VERTEX
  5
1EB
330
151
100
AcDbEntity
  8
DEFAULT
  6
CONTINUOUS
 62
     7
100
AcDbVertex
100
AcDb2dVertex
 10
60.0879824399
 20
120.5249931254
 30
0.0
  0
VERTEX
  5
1EC
330
151
100
AcDbEntity
  8
DEFAULT
  6
CONTINUOUS
 62
     7
100
AcDbVertex
100
AcDb2dVertex
 10
57.0879824138
 20
120.0249931211
 30
0.0
  0
VERTEX
  5
1ED
330
151
100
AcDbEntity
  8
DEFAULT
  6
CONTINUOUS
 62
     7
100
AcDbVertex
100
AcDb2dVertex
 10
60.0879824399
 20
119.5249931167
 30
0.0
  0
VERTEX
  5
1EE
330
151
100
AcDbEntity
  8
DEFAULT
  6
CONTINUOUS
 62
     7
100
AcDbVertex
100
AcDb2dVertex
 10
60.0879824399
 20
120.5249931254
 30
0.0
  0
SEQEND
  5
1EA
330
151
100
AcDbEntity
  8
DEFAULT
  6
CONTINUOUS
 62
     7
 48
25.4
  0
POLYLINE
  5
152
330
14F
100
AcDbEntity
  8
DEFAULT
  6
CONTINUOUS
 62
     7
 48
25.4
100
AcDb2dPolyline
 66
     1
 10
0.0
 20
0.0
 30
0.0
 70
     1
  0
VERTEX
  5
1F0
330
152
100
AcDbEntity
  8
DEFAULT
  6
CONTINUOUS
 62
     7
100
AcDbVertex
100
AcDb2dVertex
 10
109.0879823877
 20
120.5249931254
 30
0.0
  0
VERTEX
  5
1F1
330
152
100
AcDbEntity
  8
DEFAULT
  6
CONTINUOUS
 62
     7
100
AcDbVertex
100
AcDb2dVertex
 10
112.0879824138
 20
120.0249931211
 30
0.0
  0
VERTEX
  5
1F2
330
152
100
AcDbEntity
  8
DEFAULT
  6
CONTINUOUS
 62
     7
100
AcDbVertex
100
AcDb2dVertex
 10
109.0879823877
 20
119.5249931167
 30
0.0
  0
VERTEX
  5
1F3
330
152
100
AcDbEntity
  8
DEFAULT
  6
CONTINUOUS
 62
     7
100
AcDbVertex
100
AcDb2dVertex
 10
109.0879823877
 20
120.5249931254
 30
0.0
  0
SEQEND
  5
1EF
330
152
100
AcDbEntity
  8
DEFAULT
  6
CONTINUOUS
 62
     7
 48
25.4
  0
LINE
  5
153
330
14F
100
AcDbEntity
  8
DEFAULT
  6
CONTINUOUS
 62
     7
 48
25.4
100
AcDbLine
 10
57.0879824138
 20
55.809757709
 30
0.0
 11
57.0879824138
 21
121.5249931341
 31
0.0
  0
LINE
  5
154
330
14F
100
AcDbEntity
  8
DEFAULT
  6
CONTINUOUS
 62
     7
 48
25.4
100
AcDbLine
 10
112.0879824138
 20
55.809757709
 30
0.0
 11
112.0879824138
 21
121.5249931341
 31
0.0
  0
LINE
  5
155
330
14F
100
AcDbEntity
  8
DEFAULT
  6
CONTINUOUS
 62
     7
 48
25.4
100
AcDbLine
 10
57.0879824138
 20
120.0249931211
 30
0.0
 11
112.0879821158
 21
120.0249931211
 31
0.0
  0
TEXT
  5
156
330
14F
100
AcDbEntity
  8
DEFAULT
  6
CONTINUOUS
 62
     7
 48
25.4
100
AcDbText
 10
82.8834368102
 20
120.7749931211
 30
0.0
 40
3.0
  1
55
  7
SEACAD_SEISO_TTF
 11
82.8834368102
 21
123.7749931211
 31
0.0
100
AcDbText
 73
     3
  0
ENDBLK
  5
158
330
14F
100
AcDbEntity
  8
0
100
AcDbBlockEnd
  0
ENDSEC
  0
SECTION
  2
ENTITIES
  0
INSERT
  5
2F
330
1F
100
AcDbEntity
  8
0
100
AcDbBlockReference
  2
SE
 10
0.0
 20
0.0
 30
0.0
  0
INSERT
  5
37
330
1F
100
AcDbEntity
  8
0
100
AcDbBlockReference
  2
SE1
 10
0.0
 20
0.0
 30
0.0
  0
INSERT
  5
3D
330
1F
100
AcDbEntity
  8
0
100
AcDbBlockReference
  2
SE2
 10
0.0
 20
0.0
 30
0.0
  0
INSERT
  5
43
330
1F
100
AcDbEntity
  8
0
100
AcDbBlockReference
  2
SE3
 10
0.0
 20
0.0
 30
0.0
  0
INSERT
  5
49
330
1F
100
AcDbEntity
  8
0
100
AcDbBlockReference
  2
SE4
 10
0.0
 20
0.0
 30
0.0
  0
INSERT
  5
6C
330
1F
100
AcDbEntity
  8
0
100
AcDbBlockReference
  2
SE5
 10
0.0
 20
0.0
 30
0.0
  0
INSERT
  5
97
330
1F
100
AcDbEntity
  8
0
100
AcDbBlockReference
  2
SE6
 10
0.0
 20
0.0
 30
0.0
  0
INSERT
  5
A3
330
1F
100
AcDbEntity
  8
0
100
AcDbBlockReference
  2
SE7
 10
0.0
 20
0.0
 30
0.0
  0
INSERT
  5
AE
330
1F
100
AcDbEntity
  8
0
100
AcDbBlockReference
  2
SE8
 10
0.0
 20
0.0
 30
0.0
  0
INSERT
  5
B8
330
1F
100
AcDbEntity
  8
0
100
AcDbBlockReference
  2
SE9
 10
0.0
 20
0.0
 30
0.0
  0
INSERT
  5
C2
330
1F
100
AcDbEntity
  8
0
100
AcDbBlockReference
  2
SE10
 10
0.0
 20
0.0
 30
0.0
  0
INSERT
  5
CC
330
1F
100
AcDbEntity
  8
0
100
AcDbBlockReference
  2
SE11
 10
0.0
 20
0.0
 30
0.0
  0
INSERT
  5
D6
330
1F
100
AcDbEntity
  8
0
100
AcDbBlockReference
  2
SE12
 10
0.0
 20
0.0
 30
0.0
  0
INSERT
  5
E0
330
1F
100
AcDbEntity
  8
0
100
AcDbBlockReference
  2
SE13
 10
0.0
 20
0.0
 30
0.0
  0
INSERT
  5
EA
330
1F
100
AcDbEntity
  8
0
100
AcDbBlockReference
  2
SE14
 10
0.0
 20
0.0
 30
0.0
  0
INSERT
  5
FE
330
1F
100
AcDbEntity
  8
0
100
AcDbBlockReference
  2
SE15
 10
0.0
 20
0.0
 30
0.0
  0
INSERT
  5
108
330
1F
100
AcDbEntity
  8
0
100
AcDbBlockReference
  2
SE16
 10
0.0
 20
0.0
 30
0.0
  0
INSERT
  5
112
330
1F
100
AcDbEntity
  8
0
100
AcDbBlockReference
  2
SE17
 10
0.0
 20
0.0
 30
0.0
  0
INSERT
  5
11E
330
1F
100
AcDbEntity
  8
0
100
AcDbBlockReference
  2
SE18
 10
0.0
 20
0.0
 30
0.0
  0
INSERT
  5
128
330
1F
100
AcDbEntity
  8
0
100
AcDbBlockReference
  2
SE19
 10
0.0
 20
0.0
 30
0.0
  0
INSERT
  5
132
330
1F
100
AcDbEntity
  8
0
100
AcDbBlockReference
  2
SE20
 10
0.0
 20
0.0
 30
0.0
  0
INSERT
  5
13C
330
1F
100
AcDbEntity
  8
0
100
AcDbBlockReference
  2
SE21
 10
0.0
 20
0.0
 30
0.0
  0
INSERT
  5
146
330
1F
100
AcDbEntity
  8
0
100
AcDbBlockReference
  2
SE22
 10
0.0
 20
0.0
 30
0.0
  0
INSERT
  5
150
330
1F
100
AcDbEntity
  8
0
100
AcDbBlockReference
  2
SE23
 10
0.0
 20
0.0
 30
0.0
  0
ENDSEC
  0
SECTION
  2
OBJECTS
  0
DICTIONARY
  5
C
330
0
100
AcDbDictionary
  3
ACAD_GROUP
350
D
  3
ACAD_LAYOUT
350
1A
  3
ACAD_MLINESTYLE
350
17
  3
ACAD_PLOTSETTINGS
350
19
  3
ACAD_TABLESTYLE
350
2A
  3
ACDBVARIABLEDICTIONARY
350
2C
1001
ACAD
1000
TREAT_AS_HARD
1070
     0
  0
DICTIONARY
  5
1F4
330
29
100
AcDbDictionary
  3
ACAD_XREC_ROUNDTRIP
360
1F5
  0
DICTIONARY
  5
D
102
{ACAD_REACTORS
330
C
102
}
330
C
100
AcDbDictionary
1001
ACAD
1000
TREAT_AS_HARD
1070
     0
  0
DICTIONARY
  5
1A
102
{ACAD_REACTORS
330
C
102
}
330
C
100
AcDbDictionary
1001
ACAD
1000
TREAT_AS_HARD
1070
     0
  0
DICTIONARY
  5
17
102
{ACAD_REACTORS
330
C
102
}
330
C
100
AcDbDictionary
  3
STANDARD
350
18
1001
ACAD
1000
TREAT_AS_HARD
1070
     0
  0
DICTIONARY
  5
19
102
{ACAD_REACTORS
330
C
102
}
330
C
100
AcDbDictionary
1001
ACAD
1000
TREAT_AS_HARD
1070
     0
  0
DICTIONARY
  5
2A
102
{ACAD_REACTORS
330
C
102
}
330
C
100
AcDbDictionary
  3
STANDARD
350
2B
1001
ACAD
1000
TREAT_AS_HARD
1070
     0
  0
DICTIONARY
  5
2C
102
{ACAD_REACTORS
330
C
102
}
330
C
100
AcDbDictionary
  3
CTABLESTYLE
350
2D
1001
ACAD
1000
TREAT_AS_HARD
1070
     0
  0
XRECORD
  5
1F5
102
{ACAD_REACTORS
330
1F4
102
}
330
1F4
100
AcDbXrecord
102
UCS
 74
     0
 71
     1
 10
0.0
 20
0.0
 30
0.0
 10
1.0
 20
0.0
 30
0.0
 10
0.0
 20
1.0
 30
0.0
146
0.0
 79
     0
102
VIEW
281
     0
  0
MLINESTYLE
  5
18
102
{ACAD_REACTORS
330
17
102
}
330
17
100
AcDbMlineStyle
  2
Standard
 70
     0
  3

 62
   256
 51
90.0
 52
90.0
 71
     2
 49
0.5
 62
   256
  6
BYLAYER
 49
-0.5
 62
   256
  6
BYLAYER
  0
TABLESTYLE
  5
2B
102
{ACAD_REACTORS
330
2A
102
}
330
2A
100
AcDbTableStyle
  3
Standard
 70
     0
 71
     0
 40
0.06
 41
0.06
280
     0
281
     0
  7
STANDARD
140
0.18
170
     2
 62
     0
 63
     7
283
     0
274
    -2
284
     1
 64
     0
275
    -2
285
     1
 65
     0
276
    -2
286
     1
 66
     0
277
    -2
287
     1
 67
     0
278
    -2
288
     1
 68
     0
279
    -2
289
     1
 69
     0
  7
STANDARD
140
0.25
170
     5
 62
     0
 63
     7
283
     0
274
    -2
284
     1
 64
     0
275
    -2
285
     1
 65
     0
276
    -2
286
     1
 66
     0
277
    -2
287
     1
 67
     0
278
    -2
288
     1
 68
     0
279
    -2
289
     1
 69
     0
  7
STANDARD
140
0.18
170
     5
 62
     0
 63
     7
283
     0
274
    -2
284
     1
 64
     0
275
    -2
285
     1
 65
     0
276
    -2
286
     1
 66
     0
277
    -2
287
     1
 67
     0
278
    -2
288
     1
 68
     0
279
    -2
289
     1
 69
     0
  0
DICTIONARYVAR
  5
2D
102
{ACAD_REACTORS
330
2C
102
}
330
2C
100
DictionaryVariables
280
     0
  1
Standard
  0
ENDSEC
  0
EOF
