  0
SECTION
  2
HEADER
  9
$ACADVER
  1
AC1012
  9
$DWGCODEPAGE
  3
ansi_1252
  9
$INSBASE
 10
0.0
 20
0.0
 30
0.0
  9
$EXTMIN
 10
0.0
 20
0.0
 30
0.0
  9
$EXTMAX
 10
210.0
 20
310.0
 30
0.0
  9
$LIMMIN
 10
0.0
 20
0.0
  9
$LIMMAX
 10
210.0
 20
310.0
  9
$ORTHOMODE
 70
     0
  9
$REGENMODE
 70
     1
  9
$FILLMODE
 70
     1
  9
$QTEXTMODE
 70
     0
  9
$MIRRTEXT
 70
     1
  9
$DRAGMODE
 70
     2
  9
$LTSCALE
 40
1.0
  9
$OSMODE
 70
    37
  9
$ATTMODE
 70
     1
  9
$TEXTSIZE
 40
0.2
  9
$TRACEWID
 40
0.05
  9
$TEXTSTYLE
  7
STANDARD
  9
$CLAYER
  8
0
  9
$CELTYPE
  6
BYLAYER
  9
$CECOLOR
 62
   256
  9
$CELTSCALE
 40
25.4
  9
$DELOBJ
 70
     1
  9
$DISPSILH
 70
     0
  9
$DIMSCALE
 40
1.0
  9
$DIMASZ
 40
0.18
  9
$DIMEXO
 40
0.0625
  9
$DIMDLI
 40
0.38
  9
$DIMRND
 40
0.0
  9
$DIMDLE
 40
0.0
  9
$DIMEXE
 40
0.18
  9
$DIMTP
 40
0.0
  9
$DIMTM
 40
0.0
  9
$DIMTXT
 40
0.18
  9
$DIMCEN
 40
0.09
  9
$DIMTSZ
 40
0.0
  9
$DIMTOL
 70
     0
  9
$DIMLIM
 70
     0
  9
$DIMTIH
 70
     1
  9
$DIMTOH
 70
     1
  9
$DIMSE1
 70
     0
  9
$DIMSE2
 70
     0
  9
$DIMTAD
 70
     0
  9
$DIMZIN
 70
     0
  9
$DIMBLK
  1

  9
$DIMASO
 70
     1
  9
$DIMSHO
 70
     1
  9
$DIMPOST
  1

  9
$DIMAPOST
  1

  9
$DIMALT
 70
     0
  9
$DIMALTD
 70
     2
  9
$DIMALTF
 40
25.4
  9
$DIMLFAC
 40
1.0
  9
$DIMTOFL
 70
     0
  9
$DIMTVP
 40
0.0
  9
$DIMTIX
 70
     0
  9
$DIMSOXD
 70
     0
  9
$DIMSAH
 70
     0
  9
$DIMBLK1
  1

  9
$DIMBLK2
  1

  9
$DIMSTYLE
  2
STANDARD
  9
$DIMCLRD
 70
     0
  9
$DIMCLRE
 70
     0
  9
$DIMCLRT
 70
     0
  9
$DIMTFAC
 40
1.0
  9
$DIMGAP
 40
0.09
  9
$DIMJUST
 70
     0
  9
$DIMSD1
 70
     0
  9
$DIMSD2
 70
     0
  9
$DIMTOLJ
 70
     1
  9
$DIMTZIN
 70
     0
  9
$DIMALTZ
 70
     0
  9
$DIMALTTZ
 70
     0
  9
$DIMFIT
 70
     3
  9
$DIMUPT
 70
     0
  9
$DIMUNIT
 70
     2
  9
$DIMDEC
 70
     4
  9
$DIMTDEC
 70
     4
  9
$DIMALTU
 70
     2
  9
$DIMALTTD
 70
     2
  9
$DIMTXSTY
  7
STANDARD
  9
$DIMAUNIT
 70
     0
  9
$LUNITS
 70
     2
  9
$LUPREC
 70
     4
  9
$SKETCHINC
 40
0.1
  9
$FILLETRAD
 40
0.5
  9
$AUNITS
 70
     0
  9
$AUPREC
 70
     0
  9
$MENU
  1
.
  9
$ELEVATION
 40
0.0
  9
$PELEVATION
 40
0.0
  9
$THICKNESS
 40
0.0
  9
$LIMCHECK
 70
     0
  9
$CHAMFERA
 40
0.5
  9
$CHAMFERB
 40
0.5
  9
$CHAMFERC
 40
1.0
  9
$CHAMFERD
 40
0.0
  9
$SKPOLY
 70
     0
  9
$TDCREATE
 40
2453762.54393059
  9
$TDUPDATE
 40
2453762.543930602
  9
$TDINDWG
 40
0.0000000116
  9
$TDUSRTIMER
 40
0.0000000116
  9
$USRTIMER
 70
     1
  9
$ANGBASE
 50
0.0
  9
$ANGDIR
 70
     0
  9
$PDMODE
 70
     0
  9
$PDSIZE
 40
0.0
  9
$PLINEWID
 40
0.0
  9
$COORDS
 70
     1
  9
$SPLFRAME
 70
     0
  9
$SPLINETYPE
 70
     6
  9
$SPLINESEGS
 70
     8
  9
$ATTDIA
 70
     0
  9
$ATTREQ
 70
     1
  9
$HANDLING
 70
     1
  9
$HANDSEED
  5
1C5
  9
$SURFTAB1
 70
     6
  9
$SURFTAB2
 70
     6
  9
$SURFTYPE
 70
     6
  9
$SURFU
 70
     6
  9
$SURFV
 70
     6
  9
$UCSNAME
  2

  9
$UCSORG
 10
0.0
 20
0.0
 30
0.0
  9
$UCSXDIR
 10
1.0
 20
0.0
 30
0.0
  9
$UCSYDIR
 10
0.0
 20
1.0
 30
0.0
  9
$PUCSNAME
  2

  9
$PUCSORG
 10
0.0
 20
0.0
 30
0.0
  9
$PUCSXDIR
 10
1.0
 20
0.0
 30
0.0
  9
$PUCSYDIR
 10
0.0
 20
1.0
 30
0.0
  9
$USERI1
 70
     0
  9
$USERI2
 70
     0
  9
$USERI3
 70
     0
  9
$USERI4
 70
     0
  9
$USERI5
 70
     0
  9
$USERR1
 40
0.0
  9
$USERR2
 40
0.0
  9
$USERR3
 40
0.0
  9
$USERR4
 40
0.0
  9
$USERR5
 40
0.0
  9
$WORLDVIEW
 70
     1
  9
$SHADEDGE
 70
     3
  9
$SHADEDIF
 70
    70
  9
$TILEMODE
 70
     1
  9
$MAXACTVP
 70
    64
  9
$PINSBASE
 10
0.0
 20
0.0
 30
0.0
  9
$PLIMCHECK
 70
     0
  9
$PEXTMIN
 10
0.0
 20
0.0
 30
0.0
  9
$PEXTMAX
 10
210.0
 20
310.0
 30
0.0
  9
$PLIMMIN
 10
0.0
 20
0.0
  9
$PLIMMAX
 10
12.0
 20
9.0
  9
$UNITMODE
 70
     0
  9
$VISRETAIN
 70
     1
  9
$PLINEGEN
 70
     0
  9
$PSLTSCALE
 70
     1
  9
$TREEDEPTH
 70
  3020
  9
$PICKSTYLE
 70
     1
  9
$CMLSTYLE
  2
STANDARD
  9
$CMLJUST
 70
     0
  9
$CMLSCALE
 40
1.0
  9
$SAVEIMAGES
 70
     1
  0
ENDSEC
  0
SECTION
  2
CLASSES
  0
CLASS
  1
ACDBDICTIONARYWDFLT
  2
AcDbDictionaryWithDefault
  3
ObjectDBX Classes
 90
        0
280
     0
281
     0
  0
CLASS
  1
TABLESTYLE
  2
AcDbTableStyle
  3
ObjectDBX Classes
 90
     2047
280
     0
281
     0
  0
CLASS
  1
DICTIONARYVAR
  2
AcDbDictionaryVar
  3
ObjectDBX Classes
 90
        0
280
     0
281
     0
  0
CLASS
  1
XRECORD
  2
AcDbXrecord
  3
AutoCAD 2000
 90
    32768
280
     0
281
     0
  0
CLASS
  1
LWPOLYLINE
  2
AcDbPolyline
  3
AutoCAD 2000
 90
    32768
280
     0
281
     1
  0
CLASS
  1
HATCH
  2
AcDbHatch
  3
AutoCAD 2000
 90
    32768
280
     0
281
     1
  0
CLASS
  1
ACDBPLACEHOLDER
  2
AcDbPlaceHolder
  3
ObjectDBX Classes
 90
        0
280
     0
281
     0
  0
CLASS
  1
LAYOUT
  2
AcDbLayout
  3
ObjectDBX Classes
 90
        0
280
     0
281
     0
  0
ENDSEC
  0
SECTION
  2
TABLES
  0
TABLE
  2
VPORT
  5
8
330
0
100
AcDbSymbolTable
 70
     2
  0
VPORT
  5
29
102
{ACAD_XDICTIONARY
360
1C3
102
}
330
8
100
AcDbSymbolTableRecord
100
AcDbViewportTableRecord
  2
*ACTIVE
 70
     0
 10
0.0
 20
0.0
 11
1.0
 21
1.0
 12
10.4299065421
 22
4.5
 13
0.0
 23
0.0
 14
0.5
 24
0.5
 15
0.5
 25
0.5
 16
0.0
 26
0.0
 36
1.0
 17
0.0
 27
0.0
 37
0.0
 40
9.0
 41
1.9729729729
 42
50.0
 43
0.0
 44
0.0
 50
0.0
 51
0.0
 71
     0
 72
   100
 73
     1
 74
     3
 75
     0
 76
     0
 77
     0
 78
     0
  0
ENDTAB
  0
TABLE
  2
LTYPE
  5
5
330
0
100
AcDbSymbolTable
 70
     3
  0
LTYPE
  5
14
330
5
100
AcDbSymbolTableRecord
100
AcDbLinetypeTableRecord
  2
BYBLOCK
 70
     0
  3

 72
    65
 73
     0
 40
0.0
  0
LTYPE
  5
15
330
5
100
AcDbSymbolTableRecord
100
AcDbLinetypeTableRecord
  2
BYLAYER
 70
     0
  3

 72
    65
 73
     0
 40
0.0
  0
LTYPE
  5
16
330
5
100
AcDbSymbolTableRecord
100
AcDbLinetypeTableRecord
  2
CONTINUOUS
 70
     0
  3
Solid line
 72
    65
 73
     0
 40
0.0
  0
LTYPE
  5
55
330
5
100
AcDbSymbolTableRecord
100
AcDbLinetypeTableRecord
  2
HIDDEN2
 70
     0
  3
_ _ _ _ _ _ _ _ _ _ _ _ _ _ _ _ _ _ _ _ _ _ _ _
 72
    65
 73
     2
 40
0.1875
 49
0.125
 74
     4
 75
     0
340
0
 46
0.0
 50
0.0
 44
0.0
 45
0.0
 49
-0.0625
 74
     4
 75
     0
340
0
 46
0.0
 50
0.0
 44
0.0
 45
0.0
  0
LTYPE
  5
5E
330
5
100
AcDbSymbolTableRecord
100
AcDbLinetypeTableRecord
  2
CENTER2
 70
     0
  3
___ _ ___ _ ___ _ ___ _ ___ _ ___ _ ___ _ ___ _
 72
    65
 73
     4
 40
1.125
 49
0.75
 74
     4
 75
     0
340
0
 46
0.0
 50
0.0
 44
0.0
 45
0.0
 49
-0.125
 74
     4
 75
     0
340
0
 46
0.0
 50
0.0
 44
0.0
 45
0.0
 49
0.125
 74
     4
 75
     0
340
0
 46
0.0
 50
0.0
 44
0.0
 45
0.0
 49
-0.125
 74
     4
 75
     0
340
0
 46
0.0
 50
0.0
 44
0.0
 45
0.0
  0
ENDTAB
  0
TABLE
  2
LAYER
  5
2
330
0
100
AcDbSymbolTable
 70
     6
  0
LAYER
  5
10
330
2
100
AcDbSymbolTableRecord
100
AcDbLayerTableRecord
  2
0
 70
     0
 62
     7
  6
CONTINUOUS
  0
LAYER
  5
30
330
2
100
AcDbSymbolTableRecord
100
AcDbLayerTableRecord
  2
MEGA_002049
 70
     0
 62
     7
  6
CONTINUOUS
  0
LAYER
  5
51
330
2
100
AcDbSymbolTableRecord
100
AcDbLayerTableRecord
  2
MEGA_002010
 70
     0
 62
     7
  6
CONTINUOUS
  0
LAYER
  5
59
330
2
100
AcDbSymbolTableRecord
100
AcDbLayerTableRecord
  2
MEGA_000863
 70
     0
 62
     7
  6
CONTINUOUS
  0
LAYER
  5
5D
330
2
100
AcDbSymbolTableRecord
100
AcDbLayerTableRecord
  2
STANDARD
 70
     0
 62
     7
  6
CONTINUOUS
  0
LAYER
  5
AD
330
2
100
AcDbSymbolTableRecord
100
AcDbLayerTableRecord
  2
DEFAULT
 70
     0
 62
     7
  6
CONTINUOUS
  0
ENDTAB
  0
TABLE
  2
STYLE
  5
3
330
0
100
AcDbSymbolTable
 70
     3
  0
STYLE
  5
11
330
3
100
AcDbSymbolTableRecord
100
AcDbTextStyleTableRecord
  2
STANDARD
 70
     0
 40
0.0
 41
1.0
 50
0.0
 71
     0
 42
0.2
  3
txt
  4

  0
STYLE
  5
B2
330
3
100
AcDbSymbolTableRecord
100
AcDbTextStyleTableRecord
  2
SEACAD_SEISO_TTF
 70
     0
 40
0.2
 41
1.0
 50
0.0
 71
     0
 42
0.2
  3
seiso.ttf
  4

  0
STYLE
  5
138
330
3
100
AcDbSymbolTableRecord
100
AcDbTextStyleTableRecord
  2
SEACAD_SEMECI1_TTF
 70
     0
 40
0.2
 41
1.0
 50
0.0
 71
     0
 42
0.2
  3
semeci1.ttf
  4

  0
ENDTAB
  0
TABLE
  2
VIEW
  5
6
330
0
100
AcDbSymbolTable
 70
     0
  0
ENDTAB
  0
TABLE
  2
UCS
  5
7
330
0
100
AcDbSymbolTable
 70
     0
  0
ENDTAB
  0
TABLE
  2
APPID
  5
9
330
0
100
AcDbSymbolTable
 70
     1
  0
APPID
  5
12
330
9
100
AcDbSymbolTableRecord
100
AcDbRegAppTableRecord
  2
ACAD
 70
     0
  0
ENDTAB
  0
TABLE
  2
DIMSTYLE
  5
A
330
0
100
AcDbSymbolTable
 70
     1
  0
DIMSTYLE
105
27
330
A
100
AcDbSymbolTableRecord
100
AcDbDimStyleTableRecord
  2
STANDARD
 70
     0
  3

  4

  5

  6

  7

 40
1.0
 41
0.18
 42
0.0625
 43
0.38
 44
0.18
 45
0.0
 46
0.0
 47
0.0
 48
0.0
140
0.18
141
0.09
142
0.0
143
25.4
144
1.0
145
0.0
146
1.0
147
0.09
 71
     0
 72
     0
 73
     1
 74
     1
 75
     0
 76
     0
 77
     0
 78
     0
170
     0
171
     2
172
     0
173
     0
174
     0
175
     0
176
     0
177
     0
178
     0
270
     2
271
     4
272
     4
273
     2
274
     2
340
11
275
     0
280
     0
281
     0
282
     0
283
     1
284
     0
285
     0
286
     0
287
     3
288
     0
  0
ENDTAB
  0
TABLE
  2
BLOCK_RECORD
  5
1
330
0
100
AcDbSymbolTable
 70
    17
  0
BLOCK_RECORD
  5
1F
330
1
100
AcDbSymbolTableRecord
100
AcDbBlockTableRecord
  2
*MODEL_SPACE
  0
BLOCK_RECORD
  5
1B
330
1
100
AcDbSymbolTableRecord
100
AcDbBlockTableRecord
  2
*PAPER_SPACE
  0
BLOCK_RECORD
  5
2E
330
1
100
AcDbSymbolTableRecord
100
AcDbBlockTableRecord
  2
SE
  0
BLOCK_RECORD
  5
6D
330
1
100
AcDbSymbolTableRecord
100
AcDbBlockTableRecord
  2
SE1
  0
BLOCK_RECORD
  5
AB
330
1
100
AcDbSymbolTableRecord
100
AcDbBlockTableRecord
  2
SE2
  0
BLOCK_RECORD
  5
B6
330
1
100
AcDbSymbolTableRecord
100
AcDbBlockTableRecord
  2
SE3
  0
BLOCK_RECORD
  5
C0
330
1
100
AcDbSymbolTableRecord
100
AcDbBlockTableRecord
  2
SE4
  0
BLOCK_RECORD
  5
CA
330
1
100
AcDbSymbolTableRecord
100
AcDbBlockTableRecord
  2
SE5
  0
BLOCK_RECORD
  5
D4
330
1
100
AcDbSymbolTableRecord
100
AcDbBlockTableRecord
  2
SE6
  0
BLOCK_RECORD
  5
DF
330
1
100
AcDbSymbolTableRecord
100
AcDbBlockTableRecord
  2
SE7
  0
BLOCK_RECORD
  5
E9
330
1
100
AcDbSymbolTableRecord
100
AcDbBlockTableRecord
  2
SE8
  0
BLOCK_RECORD
  5
F3
330
1
100
AcDbSymbolTableRecord
100
AcDbBlockTableRecord
  2
SE9
  0
BLOCK_RECORD
  5
FE
330
1
100
AcDbSymbolTableRecord
100
AcDbBlockTableRecord
  2
SE10
  0
BLOCK_RECORD
  5
109
330
1
100
AcDbSymbolTableRecord
100
AcDbBlockTableRecord
  2
SE11
  0
BLOCK_RECORD
  5
113
330
1
100
AcDbSymbolTableRecord
100
AcDbBlockTableRecord
  2
SE12
  0
BLOCK_RECORD
  5
11D
330
1
100
AcDbSymbolTableRecord
100
AcDbBlockTableRecord
  2
SE13
  0
BLOCK_RECORD
  5
126
330
1
100
AcDbSymbolTableRecord
100
AcDbBlockTableRecord
  2
SE14
  0
BLOCK_RECORD
  5
130
330
1
100
AcDbSymbolTableRecord
100
AcDbBlockTableRecord
  2
SE15
  0
ENDTAB
  0
ENDSEC
  0
SECTION
  2
BLOCKS
  0
BLOCK
  5
20
330
1F
100
AcDbEntity
  8
0
100
AcDbBlockBegin
  2
*MODEL_SPACE
 70
     0
 71
     0
 10
0.0
 20
0.0
 30
0.0
  3
*MODEL_SPACE
  1

  0
ENDBLK
  5
21
330
1F
100
AcDbEntity
  8
0
100
AcDbBlockEnd
  0
BLOCK
  5
1C
330
1B
100
AcDbEntity
 67
     1
  8
0
100
AcDbBlockBegin
  2
*PAPER_SPACE
 70
     0
 71
     0
 10
0.0
 20
0.0
 30
0.0
  3
*PAPER_SPACE
  1

  0
ENDBLK
  5
1D
330
1B
100
AcDbEntity
 67
     1
  8
0
100
AcDbBlockEnd
  0
BLOCK
  5
6B
330
2E
100
AcDbEntity
  8
0
100
AcDbBlockBegin
  2
SE
 70
     0
 71
     0
 10
0.0
 20
0.0
 30
0.0
  3
SE
  1

  0
LINE
  5
31
330
2E
100
AcDbEntity
  8
MEGA_002049
  6
CONTINUOUS
 62
     7
 48
25.4
100
AcDbLine
 10
54.8271356284
 20
251.0305870135
 30
0.0
 11
54.8271356284
 21
259.4358002871
 31
0.0
  0
LINE
  5
32
330
2E
100
AcDbEntity
  8
MEGA_002049
  6
CONTINUOUS
 62
     7
 48
25.4
100
AcDbLine
 10
47.8271356284
 20
155.0305870135
 30
0.0
 11
47.8271356284
 21
163.4358002871
 31
0.0
  0
LINE
  5
33
330
2E
100
AcDbEntity
  8
MEGA_002049
  6
CONTINUOUS
 62
     7
 48
25.4
100
AcDbLine
 10
54.529753589
 20
259.7357888641
 30
0.0
 11
40.8271356284
 21
259.8553697994
 31
0.0
  0
LINE
  5
34
330
2E
100
AcDbEntity
  8
MEGA_002049
  6
CONTINUOUS
 62
     7
 48
25.4
100
AcDbLine
 10
40.8271356284
 20
273.2331936503
 30
0.0
 11
40.8271356284
 21
248.2331936503
 31
0.0
  0
LINE
  5
35
330
2E
100
AcDbEntity
  8
MEGA_002049
  6
CONTINUOUS
 62
     7
 48
25.4
100
AcDbLine
 10
40.8271356284
 20
44.2331936503
 30
0.0
 11
40.8271356284
 21
248.2331936503
 31
0.0
  0
LINE
  5
36
330
2E
100
AcDbEntity
  8
MEGA_002049
  6
CONTINUOUS
 62
     7
 48
25.4
100
AcDbLine
 10
32.6271356284
 20
270.6523467784
 30
0.0
 11
32.6271356284
 21
248.2331936503
 31
0.0
  0
LINE
  5
37
330
2E
100
AcDbEntity
  8
MEGA_002049
  6
CONTINUOUS
 62
     7
 48
25.4
100
AcDbLine
 10
40.8271356284
 20
250.6110175013
 30
0.0
 11
54.529753589
 21
250.7305984366
 31
0.0
  0
LINE
  5
38
330
2E
100
AcDbEntity
  8
MEGA_002049
  6
CONTINUOUS
 62
     7
 48
25.4
100
AcDbLine
 10
41.1245176677
 20
154.6747007895
 30
0.0
 11
47.529753589
 21
154.7305984366
 31
0.0
  0
LINE
  5
39
330
2E
100
AcDbEntity
  8
MEGA_002049
  6
CONTINUOUS
 62
     7
 48
25.4
100
AcDbLine
 10
40.8271356284
 20
170.1650635373
 30
0.0
 11
41.1794715846
 21
170.1835286823
 31
0.0
  0
LINE
  5
3A
330
2E
100
AcDbEntity
  8
MEGA_002049
  6
CONTINUOUS
 62
     7
 48
25.4
100
AcDbLine
 10
40.8271356284
 20
273.2331936503
 30
0.0
 11
32.9977261058
 21
271.1353096915
 31
0.0
  0
LINE
  5
3B
330
2E
100
AcDbEntity
  8
MEGA_002049
  6
CONTINUOUS
 62
     7
 48
25.4
100
AcDbLine
 10
32.9977261058
 20
21.3310776091
 30
0.0
 11
40.8271356284
 21
19.2331936503
 31
0.0
  0
ARC
  5
3C
330
2E
100
AcDbEntity
  8
MEGA_002049
  6
CONTINUOUS
 62
     7
 48
25.4
100
AcDbCircle
 10
33.1271356284
 20
270.6523467784
 30
0.0
 40
0.5
100
AcDbArc
 50
105.0
 51
180.0
  0
ARC
  5
3D
330
2E
100
AcDbEntity
  8
MEGA_002049
  6
CONTINUOUS
 62
     7
 48
25.4
100
AcDbCircle
 10
33.1271356284
 20
21.8140405223
 30
0.0
 40
0.5
100
AcDbArc
 50
180.0
 51
255.0
  0
ARC
  5
3E
330
2E
100
AcDbEntity
  8
MEGA_002049
  6
CONTINUOUS
 62
     7
 48
25.4
100
AcDbCircle
 10
54.5271356284
 20
251.0305870135
 30
0.0
 40
0.3000000000000114
100
AcDbArc
 50
270.5
 51
360.0
  0
LINE
  5
3F
330
2E
100
AcDbEntity
  8
MEGA_002049
  6
CONTINUOUS
 62
     7
 48
25.4
100
AcDbLine
 10
40.8271356284
 20
32.6110175013
 30
0.0
 11
54.529753589
 21
32.7305984366
 31
0.0
  0
ARC
  5
40
330
2E
100
AcDbEntity
  8
MEGA_002049
  6
CONTINUOUS
 62
     7
 48
25.4
100
AcDbCircle
 10
54.5271356284
 20
33.0305870135
 30
0.0
 40
0.3000000000000114
100
AcDbArc
 50
270.5
 51
360.0
  0
ARC
  5
41
330
2E
100
AcDbEntity
  8
MEGA_002049
  6
CONTINUOUS
 62
     7
 48
25.4
100
AcDbCircle
 10
47.5271356284
 20
155.0305870135
 30
0.0
 40
0.3000000000000114
100
AcDbArc
 50
270.5
 51
360.0
  0
ARC
  5
42
330
2E
100
AcDbEntity
  8
MEGA_002049
  6
CONTINUOUS
 62
     7
 48
25.4
100
AcDbCircle
 10
41.1271356284
 20
154.3747122126
 30
0.0
 40
0.3000000000000114
100
AcDbArc
 50
90.5
 51
180.0
  0
ARC
  5
43
330
2E
100
AcDbEntity
  8
MEGA_002049
  6
CONTINUOUS
 62
     7
 48
25.4
100
AcDbCircle
 10
41.1271356284
 20
171.182158217
 30
0.0
 40
1.0
100
AcDbArc
 50
273.0
 51
360.0
  0
LINE
  5
44
330
2E
100
AcDbEntity
  8
MEGA_002049
  6
CONTINUOUS
 62
     7
 48
25.4
100
AcDbLine
 10
47.529753589
 20
163.7357888641
 30
0.0
 11
41.1245176677
 21
163.7916865111
 31
0.0
  0
LINE
  5
45
330
2E
100
AcDbEntity
  8
MEGA_002049
  6
CONTINUOUS
 62
     7
 48
25.4
100
AcDbLine
 10
41.1794715846
 20
192.2828586184
 30
0.0
 11
40.8271356284
 21
192.3013237634
 31
0.0
  0
LINE
  5
46
330
2E
100
AcDbEntity
  8
MEGA_002049
  6
CONTINUOUS
 62
     7
 48
25.4
100
AcDbLine
 10
54.8271356284
 20
33.0305870135
 30
0.0
 11
54.8271356284
 21
41.4358002871
 31
0.0
  0
ARC
  5
47
330
2E
100
AcDbEntity
  8
MEGA_002049
  6
CONTINUOUS
 62
     7
 48
25.4
100
AcDbCircle
 10
54.5271356284
 20
259.4358002871
 30
0.0
 40
0.3000000000000114
100
AcDbArc
 50
0.0
 51
89.5
  0
LINE
  5
48
330
2E
100
AcDbEntity
  8
MEGA_002049
  6
CONTINUOUS
 62
     7
 48
25.4
100
AcDbLine
 10
54.529753589
 20
41.7357888641
 30
0.0
 11
40.8271356284
 21
41.8553697994
 31
0.0
  0
ARC
  5
49
330
2E
100
AcDbEntity
  8
MEGA_002049
  6
CONTINUOUS
 62
     7
 48
25.4
100
AcDbCircle
 10
54.5271356284
 20
41.4358002871
 30
0.0
 40
0.3000000000000114
100
AcDbArc
 50
0.0
 51
89.5
  0
ARC
  5
4A
330
2E
100
AcDbEntity
  8
MEGA_002049
  6
CONTINUOUS
 62
     7
 48
25.4
100
AcDbCircle
 10
47.5271356284
 20
163.4358002871
 30
0.0
 40
0.3000000000000114
100
AcDbArc
 50
0.0
 51
89.5
  0
ARC
  5
4B
330
2E
100
AcDbEntity
  8
MEGA_002049
  6
CONTINUOUS
 62
     7
 48
25.4
100
AcDbCircle
 10
41.1271356284
 20
164.091675088
 30
0.0
 40
0.3000000000000114
100
AcDbArc
 50
180.0
 51
269.5
  0
ARC
  5
4C
330
2E
100
AcDbEntity
  8
MEGA_002049
  6
CONTINUOUS
 62
     7
 48
25.4
100
AcDbCircle
 10
41.1271356284
 20
191.2842290836
 30
0.0
 40
1.0
100
AcDbArc
 50
0.0
 51
87.0
  0
LINE
  5
4D
330
2E
100
AcDbEntity
  8
MEGA_002049
  6
CONTINUOUS
 62
     7
 48
25.4
100
AcDbLine
 10
32.6271356284
 20
21.8140405223
 30
0.0
 11
32.6271356284
 21
44.2331936503
 31
0.0
  0
LINE
  5
4E
330
2E
100
AcDbEntity
  8
MEGA_002049
  6
CONTINUOUS
 62
     7
 48
25.4
100
AcDbLine
 10
40.8271356284
 20
19.2331936503
 30
0.0
 11
40.8271356284
 21
44.2331936503
 31
0.0
  0
LINE
  5
4F
330
2E
100
AcDbEntity
  8
MEGA_002049
  6
CONTINUOUS
 62
     7
 48
25.4
100
AcDbLine
 10
32.6271356284
 20
44.2331936503
 30
0.0
 11
32.6271356284
 21
248.2331936503
 31
0.0
  0
LINE
  5
50
330
2E
100
AcDbEntity
  8
MEGA_002049
  6
CONTINUOUS
 62
     7
 48
25.4
100
AcDbLine
 10
42.1271356284
 20
171.182158217
 30
0.0
 11
42.1271356284
 21
191.2842290836
 31
0.0
  0
LINE
  5
52
330
2E
100
AcDbEntity
  8
MEGA_002010
  6
CONTINUOUS
 62
     7
 48
25.4
100
AcDbLine
 10
29.5271356284
 20
82.5525640867
 30
0.0
 11
29.5271356284
 21
94.2331936503
 31
0.0
  0
LINE
  5
53
330
2E
100
AcDbEntity
  8
MEGA_002010
  6
CONTINUOUS
 62
     7
 48
25.4
100
AcDbLine
 10
32.6271356284
 20
121.4325853022
 30
0.0
 11
29.5271356284
 21
120.913823214
 31
0.0
  0
LINE
  5
54
330
2E
100
AcDbEntity
  8
MEGA_002010
  6
CONTINUOUS
 62
     7
 48
25.4
100
AcDbLine
 10
29.5271356284
 20
82.5525640867
 30
0.0
 11
32.6271356284
 21
82.0338019985
 31
0.0
  0
LINE
  5
56
330
2E
100
AcDbEntity
  8
MEGA_002010
  6
HIDDEN2
 62
     7
 48
25.4
100
AcDbLine
 10
32.6271356284
 20
82.0338019985
 30
0.0
 11
33.5271356284
 21
81.8831936503
 31
0.0
  0
LINE
  5
57
330
2E
100
AcDbEntity
  8
MEGA_002010
  6
CONTINUOUS
 62
     7
 48
25.4
100
AcDbLine
 10
29.5271356284
 20
109.2331936503
 30
0.0
 11
29.5271356284
 21
94.2331936503
 31
0.0
  0
LINE
  5
58
330
2E
100
AcDbEntity
  8
MEGA_002010
  6
CONTINUOUS
 62
     7
 48
25.4
100
AcDbLine
 10
29.5271356284
 20
120.913823214
 30
0.0
 11
29.5271356284
 21
109.2331936503
 31
0.0
  0
LINE
  5
5A
330
2E
100
AcDbEntity
  8
MEGA_000863
  6
CONTINUOUS
 62
     7
 48
25.4
100
AcDbLine
 10
31.6271356284
 20
170.3974072127
 30
0.0
 11
31.6271356284
 21
192.068980088
 31
0.0
  0
ARC
  5
5B
330
2E
100
AcDbEntity
  8
MEGA_000863
  6
CONTINUOUS
 62
     7
 48
25.4
100
AcDbCircle
 10
33.1271356284
 20
170.3974072127
 30
0.0
 40
1.5
100
AcDbArc
 50
180.0
 51
250.5287793655
  0
ARC
  5
5C
330
2E
100
AcDbEntity
  8
MEGA_000863
  6
CONTINUOUS
 62
     7
 48
25.4
100
AcDbCircle
 10
33.1271356284
 20
192.068980088
 30
0.0
 40
1.5
100
AcDbArc
 50
109.4712206345
 51
180.0
  0
LINE
  5
5F
330
2E
100
AcDbEntity
  8
STANDARD
  6
CENTER2
 62
     7
 48
25.4
100
AcDbLine
 10
54.8271356284
 20
255.2331936503
 30
0.0
 11
40.8271356284
 21
255.2331936503
 31
0.0
  0
LINE
  5
60
330
2E
100
AcDbEntity
  8
STANDARD
  6
CENTER2
 62
     7
 48
25.4
100
AcDbLine
 10
47.8271356284
 20
159.2331936503
 30
0.0
 11
40.8271356284
 21
159.2331936503
 31
0.0
  0
LINE
  5
61
330
2E
100
AcDbEntity
  8
STANDARD
  6
CENTER2
 62
     7
 48
25.4
100
AcDbLine
 10
31.6271356284
 20
181.2331936503
 30
0.0
 11
42.1271356284
 21
181.2331936503
 31
0.0
  0
LINE
  5
62
330
2E
100
AcDbEntity
  8
STANDARD
  6
CENTER2
 62
     7
 48
25.4
100
AcDbLine
 10
54.8271356284
 20
37.2331936503
 30
0.0
 11
40.8271356284
 21
37.2331936503
 31
0.0
  0
LINE
  5
63
330
2E
100
AcDbEntity
  8
STANDARD
  6
CENTER2
 62
     7
 48
25.4
100
AcDbLine
 10
54.8271356284
 20
255.2331936503
 30
0.0
 11
58.241350186
 21
255.2331936503
 31
0.0
  0
LINE
  5
64
330
2E
100
AcDbEntity
  8
STANDARD
  6
CENTER2
 62
     7
 48
25.4
100
AcDbLine
 10
40.8271356284
 20
255.2331936503
 30
0.0
 11
36.9734233612
 21
255.2331936503
 31
0.0
  0
LINE
  5
65
330
2E
100
AcDbEntity
  8
STANDARD
  6
CENTER2
 62
     7
 48
25.4
100
AcDbLine
 10
42.1271356284
 20
181.2331936503
 30
0.0
 11
47.7334812014
 21
181.2331936503
 31
0.0
  0
LINE
  5
66
330
2E
100
AcDbEntity
  8
STANDARD
  6
CENTER2
 62
     7
 48
25.4
100
AcDbLine
 10
31.6271356284
 20
181.2331936503
 30
0.0
 11
27.0539950397
 21
181.2331936503
 31
0.0
  0
LINE
  5
67
330
2E
100
AcDbEntity
  8
STANDARD
  6
CENTER2
 62
     7
 48
25.4
100
AcDbLine
 10
40.8271356284
 20
159.2331936503
 30
0.0
 11
35.5443531793
 21
159.2331936503
 31
0.0
  0
LINE
  5
68
330
2E
100
AcDbEntity
  8
STANDARD
  6
CENTER2
 62
     7
 48
25.4
100
AcDbLine
 10
47.8271356284
 20
159.2331936503
 30
0.0
 11
52.3569435546
 21
159.2331936503
 31
0.0
  0
LINE
  5
69
330
2E
100
AcDbEntity
  8
STANDARD
  6
CENTER2
 62
     7
 48
25.4
100
AcDbLine
 10
54.8271356284
 20
37.2331936503
 30
0.0
 11
58.8297908491
 21
37.2331936503
 31
0.0
  0
LINE
  5
6A
330
2E
100
AcDbEntity
  8
STANDARD
  6
CENTER2
 62
     7
 48
25.4
100
AcDbLine
 10
40.8271356284
 20
37.2331936503
 30
0.0
 11
35.9646679386
 21
37.2331936503
 31
0.0
  0
ENDBLK
  5
6C
330
2E
100
AcDbEntity
  8
0
100
AcDbBlockEnd
  0
BLOCK
  5
A9
330
6D
100
AcDbEntity
  8
0
100
AcDbBlockBegin
  2
SE1
 70
     0
 71
     0
 10
0.0
 20
0.0
 30
0.0
  3
SE1
  1

  0
CIRCLE
  5
6F
330
6D
100
AcDbEntity
  8
MEGA_002049
  6
HIDDEN2
 62
     7
 48
25.4
100
AcDbCircle
 10
156.3250215465
 20
255.2331936503
 30
0.0
 40
2.458500000000072
  0
CIRCLE
  5
70
330
6D
100
AcDbEntity
  8
MEGA_002049
  6
HIDDEN2
 62
     7
 48
25.4
100
AcDbCircle
 10
156.3250215465
 20
159.2331936503
 30
0.0
 40
2.458500000000072
  0
CIRCLE
  5
71
330
6D
100
AcDbEntity
  8
MEGA_002049
  6
HIDDEN2
 62
     7
 48
25.4
100
AcDbCircle
 10
156.3250215465
 20
37.2331936503
 30
0.0
 40
2.458500000000072
  0
LINE
  5
72
330
6D
100
AcDbEntity
  8
MEGA_002049
  6
CONTINUOUS
 62
     7
 48
25.4
100
AcDbLine
 10
131.3250215465
 20
248.2331936503
 30
0.0
 11
131.3250215465
 21
44.2331936503
 31
0.0
  0
LINE
  5
73
330
6D
100
AcDbEntity
  8
MEGA_002049
  6
CONTINUOUS
 62
     7
 48
25.4
100
AcDbLine
 10
181.3250215465
 20
44.2331936503
 30
0.0
 11
181.3250215465
 21
248.2331936503
 31
0.0
  0
ARC
  5
74
330
6D
100
AcDbEntity
  8
MEGA_002049
  6
CONTINUOUS
 62
     7
 48
25.4
100
AcDbCircle
 10
156.3250215465
 20
109.2331936503
 30
0.0
 40
12.35000000000002
100
AcDbArc
 50
0.0
 51
180.0
  0
LINE
  5
75
330
6D
100
AcDbEntity
  8
MEGA_002049
  6
CONTINUOUS
 62
     7
 48
25.4
100
AcDbLine
 10
168.6750215465
 20
109.2331936503
 30
0.0
 11
168.6750215465
 21
94.233193651
 31
0.0
  0
LINE
  5
76
330
6D
100
AcDbEntity
  8
MEGA_002049
  6
CONTINUOUS
 62
     7
 48
25.4
100
AcDbLine
 10
143.9750215465
 20
94.233193651
 30
0.0
 11
143.9750215465
 21
109.2331936503
 31
0.0
  0
ARC
  5
77
330
6D
100
AcDbEntity
  8
MEGA_002049
  6
CONTINUOUS
 62
     7
 48
25.4
100
AcDbCircle
 10
156.3250215465
 20
94.233193651
 30
0.0
 40
12.35000000000002
100
AcDbArc
 50
180.0
 51
360.0
  0
LINE
  5
78
330
6D
100
AcDbEntity
  8
MEGA_002049
  6
CONTINUOUS
 62
     7
 48
25.4
100
AcDbLine
 10
133.4229055053
 20
248.2331936503
 30
0.0
 11
131.3250215465
 21
248.2331936503
 31
0.0
  0
LINE
  5
79
330
6D
100
AcDbEntity
  8
MEGA_002049
  6
CONTINUOUS
 62
     7
 48
25.4
100
AcDbLine
 10
133.4229055053
 20
44.2331936503
 30
0.0
 11
131.3250215465
 21
44.2331936503
 31
0.0
  0
LINE
  5
7A
330
6D
100
AcDbEntity
  8
MEGA_002049
  6
CONTINUOUS
 62
     7
 48
25.4
100
AcDbLine
 10
133.4229055053
 20
44.2331936503
 30
0.0
 11
133.4229055053
 21
248.2331936503
 31
0.0
  0
LINE
  5
7B
330
6D
100
AcDbEntity
  8
MEGA_002049
  6
CONTINUOUS
 62
     7
 48
25.4
100
AcDbLine
 10
133.4229055053
 20
44.2331936503
 30
0.0
 11
133.9058684184
 21
44.2331936503
 31
0.0
  0
ARC
  5
7C
330
6D
100
AcDbEntity
  8
MEGA_002049
  6
CONTINUOUS
 62
     7
 48
25.4
100
AcDbCircle
 10
156.3250215465
 20
44.2331936503
 30
0.0
 40
22.90211604119997
100
AcDbArc
 50
180.0
 51
360.0
  0
LINE
  5
7D
330
6D
100
AcDbEntity
  8
MEGA_002049
  6
CONTINUOUS
 62
     7
 48
25.4
100
AcDbLine
 10
133.9058684184
 20
248.2331936503
 30
0.0
 11
133.9058684184
 21
44.2331936503
 31
0.0
  0
ARC
  5
7E
330
6D
100
AcDbEntity
  8
MEGA_002049
  6
CONTINUOUS
 62
     7
 48
25.4
100
AcDbCircle
 10
156.3250215465
 20
44.2331936503
 30
0.0
 40
22.41915312809999
100
AcDbArc
 50
180.0
 51
360.0
  0
ARC
  5
7F
330
6D
100
AcDbEntity
  8
MEGA_002049
  6
CONTINUOUS
 62
     7
 48
25.4
100
AcDbCircle
 10
156.3250215465
 20
248.2331936503
 30
0.0
 40
22.90211604119997
100
AcDbArc
 50
0.0
 51
180.0
  0
LINE
  5
80
330
6D
100
AcDbEntity
  8
MEGA_002049
  6
CONTINUOUS
 62
     7
 48
25.4
100
AcDbLine
 10
133.9058684184
 20
248.2331936503
 30
0.0
 11
133.4229055053
 21
248.2331936503
 31
0.0
  0
ARC
  5
81
330
6D
100
AcDbEntity
  8
MEGA_002049
  6
CONTINUOUS
 62
     7
 48
25.4
100
AcDbCircle
 10
156.3250215465
 20
248.2331936503
 30
0.0
 40
25.0
100
AcDbArc
 50
0.0
 51
180.0
  0
ARC
  5
82
330
6D
100
AcDbEntity
  8
MEGA_002049
  6
CONTINUOUS
 62
     7
 48
25.4
100
AcDbCircle
 10
156.3250215465
 20
44.2331936503
 30
0.0
 40
25.0
100
AcDbArc
 50
180.0
 51
360.0
  0
LINE
  5
83
330
6D
100
AcDbEntity
  8
MEGA_002049
  6
CONTINUOUS
 62
     7
 48
25.4
100
AcDbLine
 10
179.2271375877
 20
44.2331936503
 30
0.0
 11
178.7441746746
 21
44.2331936503
 31
0.0
  0
LINE
  5
84
330
6D
100
AcDbEntity
  8
MEGA_002049
  6
CONTINUOUS
 62
     7
 48
25.4
100
AcDbLine
 10
178.7441746746
 20
248.2331936503
 30
0.0
 11
179.2271375877
 21
248.2331936503
 31
0.0
  0
LINE
  5
85
330
6D
100
AcDbEntity
  8
MEGA_002049
  6
CONTINUOUS
 62
     7
 48
25.4
100
AcDbLine
 10
179.2271375877
 20
248.2331936503
 30
0.0
 11
181.3250215465
 21
248.2331936503
 31
0.0
  0
LINE
  5
86
330
6D
100
AcDbEntity
  8
MEGA_002049
  6
CONTINUOUS
 62
     7
 48
25.4
100
AcDbLine
 10
179.2271375877
 20
44.2331936503
 30
0.0
 11
181.3250215465
 21
44.2331936503
 31
0.0
  0
LINE
  5
87
330
6D
100
AcDbEntity
  8
MEGA_002049
  6
CONTINUOUS
 62
     7
 48
25.4
100
AcDbLine
 10
178.7441746746
 20
44.2331936503
 30
0.0
 11
178.7441746746
 21
248.2331936503
 31
0.0
  0
LINE
  5
88
330
6D
100
AcDbEntity
  8
MEGA_002049
  6
CONTINUOUS
 62
     7
 48
25.4
100
AcDbLine
 10
179.2271375877
 20
248.2331936503
 30
0.0
 11
179.2271375877
 21
44.2331936503
 31
0.0
  0
ARC
  5
89
330
6D
100
AcDbEntity
  8
MEGA_002049
  6
CONTINUOUS
 62
     7
 48
25.4
100
AcDbCircle
 10
156.3250215465
 20
248.2331936503
 30
0.0
 40
22.41915312809999
100
AcDbArc
 50
0.0
 51
180.0
  0
ARC
  5
8A
330
6D
100
AcDbEntity
  8
MEGA_002049
  6
HIDDEN2
 62
     7
 48
25.4
100
AcDbCircle
 10
156.3250215465
 20
159.2331936503
 30
0.0
 40
3.0
100
AcDbArc
 50
255.0
 51
195.0
  0
ARC
  5
8B
330
6D
100
AcDbEntity
  8
MEGA_002049
  6
HIDDEN2
 62
     7
 48
25.4
100
AcDbCircle
 10
156.3250215465
 20
255.2331936503
 30
0.0
 40
2.999999999999972
100
AcDbArc
 50
255.0
 51
195.0
  0
ARC
  5
8C
330
6D
100
AcDbEntity
  8
MEGA_002049
  6
HIDDEN2
 62
     7
 48
25.4
100
AcDbCircle
 10
156.3250215465
 20
37.2331936503
 30
0.0
 40
3.0
100
AcDbArc
 50
255.0
 51
195.0
  0
ARC
  5
8D
330
6D
100
AcDbEntity
  8
MEGA_002010
  6
CONTINUOUS
 62
     7
 48
25.4
100
AcDbCircle
 10
156.3250215465
 20
89.4831936503
 30
0.0
 40
5.149999999999977
100
AcDbArc
 50
180.0
 51
360.0
  0
LINE
  5
8E
330
6D
100
AcDbEntity
  8
MEGA_002010
  6
CONTINUOUS
 62
     7
 48
25.4
100
AcDbLine
 10
151.1750215465
 20
89.4831936503
 30
0.0
 11
151.1750215465
 21
102.2212395718
 31
0.0
  0
LINE
  5
8F
330
6D
100
AcDbEntity
  8
MEGA_002010
  6
CONTINUOUS
 62
     7
 48
25.4
100
AcDbLine
 10
161.4750215465
 20
102.2212395718
 30
0.0
 11
161.4750215465
 21
89.4831936503
 31
0.0
  0
ARC
  5
90
330
6D
100
AcDbEntity
  8
MEGA_002010
  6
CONTINUOUS
 62
     7
 48
25.4
100
AcDbCircle
 10
156.3250215465
 20
109.2331936503
 30
0.0
 40
8.700000000000003
100
AcDbArc
 50
306.2957945552
 51
233.7042054448
  0
LINE
  5
91
330
6D
100
AcDbEntity
  8
MEGA_002010
  6
CONTINUOUS
 62
     7
 48
25.4
100
AcDbLine
 10
168.0056511102
 20
94.2331936503
 30
0.0
 11
168.6750215465
 21
94.2331936503
 31
0.0
  0
LINE
  5
92
330
6D
100
AcDbEntity
  8
MEGA_002010
  6
CONTINUOUS
 62
     7
 48
25.4
100
AcDbLine
 10
168.0056511102
 20
109.2331936503
 30
0.0
 11
168.0056511102
 21
94.2331936503
 31
0.0
  0
ARC
  5
93
330
6D
100
AcDbEntity
  8
MEGA_002010
  6
CONTINUOUS
 62
     7
 48
25.4
100
AcDbCircle
 10
156.3250215465
 20
94.2331936503
 30
0.0
 40
11.6806295637
100
AcDbArc
 50
180.0
 51
360.0
  0
LINE
  5
94
330
6D
100
AcDbEntity
  8
MEGA_002010
  6
CONTINUOUS
 62
     7
 48
25.4
100
AcDbLine
 10
144.6443919828
 20
109.2331936503
 30
0.0
 11
143.9750215465
 21
109.2331936503
 31
0.0
  0
LINE
  5
95
330
6D
100
AcDbEntity
  8
MEGA_002010
  6
CONTINUOUS
 62
     7
 48
25.4
100
AcDbLine
 10
168.0056511102
 20
109.2331936503
 30
0.0
 11
168.6750215465
 21
109.2331936503
 31
0.0
  0
LINE
  5
96
330
6D
100
AcDbEntity
  8
MEGA_002010
  6
CONTINUOUS
 62
     7
 48
25.4
100
AcDbLine
 10
144.6443919828
 20
94.2331936503
 30
0.0
 11
143.9750215465
 21
94.2331936503
 31
0.0
  0
ARC
  5
97
330
6D
100
AcDbEntity
  8
MEGA_002010
  6
CONTINUOUS
 62
     7
 48
25.4
100
AcDbCircle
 10
156.3250215465
 20
109.2331936503
 30
0.0
 40
11.6806295637
100
AcDbArc
 50
0.0
 51
180.0
  0
LINE
  5
98
330
6D
100
AcDbEntity
  8
MEGA_002010
  6
CONTINUOUS
 62
     7
 48
25.4
100
AcDbLine
 10
144.6443919828
 20
94.2331936503
 30
0.0
 11
144.6443919828
 21
109.2331936503
 31
0.0
  0
CIRCLE
  5
99
330
6D
100
AcDbEntity
  8
MEGA_000863
  6
CONTINUOUS
 62
     7
 48
25.4
100
AcDbCircle
 10
156.3250215465
 20
181.2331936503
 30
0.0
 40
8.200000000000046
  0
CIRCLE
  5
9A
330
6D
100
AcDbEntity
  8
MEGA_000863
  6
CONTINUOUS
 62
     7
 48
25.4
100
AcDbCircle
 10
156.3250215465
 20
181.2331936503
 30
0.0
 40
12.25
  0
CIRCLE
  5
9B
330
6D
100
AcDbEntity
  8
MEGA_000863
  6
CONTINUOUS
 62
     7
 48
25.4
100
AcDbCircle
 10
156.3250215465
 20
181.2331936503
 30
0.0
 40
10.83578643760001
  0
LINE
  5
9C
330
6D
100
AcDbEntity
  8
STANDARD
  6
CENTER2
 62
     7
 48
25.4
100
AcDbLine
 10
156.3250215465
 20
273.2331936503
 30
0.0
 11
156.3250215465
 21
19.2331936503
 31
0.0
  0
LINE
  5
9D
330
6D
100
AcDbEntity
  8
STANDARD
  6
CENTER2
 62
     7
 48
25.4
100
AcDbLine
 10
144.0750215465
 20
181.2331936503
 30
0.0
 11
168.5750215465
 21
181.2331936503
 31
0.0
  0
LINE
  5
9E
330
6D
100
AcDbEntity
  8
STANDARD
  6
CENTER2
 62
     7
 48
25.4
100
AcDbLine
 10
147.6250215465
 20
109.2331936503
 30
0.0
 11
165.0250215465
 21
109.2331936503
 31
0.0
  0
LINE
  5
9F
330
6D
100
AcDbEntity
  8
STANDARD
  6
CENTER2
 62
     7
 48
25.4
100
AcDbLine
 10
151.1750215465
 20
89.4831936503
 30
0.0
 11
161.4750215465
 21
89.4831936503
 31
0.0
  0
LINE
  5
A0
330
6D
100
AcDbEntity
  8
STANDARD
  6
CONTINUOUS
 62
     7
 48
25.4
100
AcDbLine
 10
156.3250215465
 20
252.2331936503
 30
0.0
 11
156.3250215465
 21
258.2331936503
 31
0.0
  0
LINE
  5
A1
330
6D
100
AcDbEntity
  8
STANDARD
  6
CENTER2
 62
     7
 48
25.4
100
AcDbLine
 10
156.3250215465
 20
273.2331936503
 30
0.0
 11
156.3250215465
 21
283.5003655646
 31
0.0
  0
LINE
  5
A2
330
6D
100
AcDbEntity
  8
STANDARD
  6
CENTER2
 62
     7
 48
25.4
100
AcDbLine
 10
156.3250215465
 20
19.2331936503
 30
0.0
 11
156.3250215465
 21
6.7742151656
 31
0.0
  0
LINE
  5
A3
330
6D
100
AcDbEntity
  8
STANDARD
  6
CENTER2
 62
     7
 48
25.4
100
AcDbLine
 10
168.5750215465
 20
181.2331936503
 30
0.0
 11
173.5538884855
 21
181.2331936503
 31
0.0
  0
LINE
  5
A4
330
6D
100
AcDbEntity
  8
STANDARD
  6
CENTER2
 62
     7
 48
25.4
100
AcDbLine
 10
144.0750215465
 20
181.2331936503
 30
0.0
 11
138.1086605483
 21
181.2331936503
 31
0.0
  0
LINE
  5
A5
330
6D
100
AcDbEntity
  8
STANDARD
  6
CENTER2
 62
     7
 48
25.4
100
AcDbLine
 10
161.4750215465
 20
89.4831936503
 30
0.0
 11
165.029491239
 21
89.4831936503
 31
0.0
  0
LINE
  5
A6
330
6D
100
AcDbEntity
  8
STANDARD
  6
CENTER2
 62
     7
 48
25.4
100
AcDbLine
 10
151.1750215465
 20
89.4831936503
 30
0.0
 11
147.7773891457
 21
89.4831936503
 31
0.0
  0
LINE
  5
A7
330
6D
100
AcDbEntity
  8
STANDARD
  6
CENTER2
 62
     7
 48
25.4
100
AcDbLine
 10
165.0250215465
 20
109.2331936503
 30
0.0
 11
171.9303320763
 21
109.2331936503
 31
0.0
  0
LINE
  5
A8
330
6D
100
AcDbEntity
  8
STANDARD
  6
CENTER2
 62
     7
 48
25.4
100
AcDbLine
 10
147.6250215465
 20
109.2331936503
 30
0.0
 11
140.7197110166
 21
109.2331936503
 31
0.0
  0
ENDBLK
  5
AA
330
6D
100
AcDbEntity
  8
0
100
AcDbBlockEnd
  0
BLOCK
  5
B4
330
AB
100
AcDbEntity
  8
0
100
AcDbBlockBegin
  2
SE2
 70
     0
 71
     0
 10
0.0
 20
0.0
 30
0.0
  3
SE2
  1

  0
POLYLINE
  5
AE
330
AB
100
AcDbEntity
  8
DEFAULT
  6
CONTINUOUS
 62
     7
 48
25.4
100
AcDb2dPolyline
 66
     1
 10
0.0
 20
0.0
 30
0.0
 70
     1
  0
VERTEX
  5
13D
330
AE
100
AcDbEntity
  8
DEFAULT
  6
CONTINUOUS
 62
     7
100
AcDbVertex
100
AcDb2dVertex
 10
79.3503474961
 20
22.2331936764
 30
0.0
  0
VERTEX
  5
13E
330
AE
100
AcDbEntity
  8
DEFAULT
  6
CONTINUOUS
 62
     7
100
AcDbVertex
100
AcDb2dVertex
 10
79.8503475005
 20
19.2331936503
 30
0.0
  0
VERTEX
  5
13F
330
AE
100
AcDbEntity
  8
DEFAULT
  6
CONTINUOUS
 62
     7
100
AcDbVertex
100
AcDb2dVertex
 10
80.3503475048
 20
22.2331936764
 30
0.0
  0
VERTEX
  5
140
330
AE
100
AcDbEntity
  8
DEFAULT
  6
CONTINUOUS
 62
     7
100
AcDbVertex
100
AcDb2dVertex
 10
79.3503474961
 20
22.2331936764
 30
0.0
  0
SEQEND
  5
13C
330
AE
100
AcDbEntity
  8
DEFAULT
  6
CONTINUOUS
 62
     7
 48
25.4
  0
LINE
  5
AF
330
AB
100
AcDbEntity
  8
DEFAULT
  6
CONTINUOUS
 62
     7
 48
25.4
100
AcDbLine
 10
156.3250215465
 20
273.2331936503
 30
0.0
 11
78.3503474874
 21
273.2331936503
 31
0.0
  0
LINE
  5
B0
330
AB
100
AcDbEntity
  8
DEFAULT
  6
CONTINUOUS
 62
     7
 48
25.4
100
AcDbLine
 10
156.3250215465
 20
19.2331936503
 30
0.0
 11
78.3503474874
 21
19.2331936503
 31
0.0
  0
LINE
  5
B1
330
AB
100
AcDbEntity
  8
DEFAULT
  6
CONTINUOUS
 62
     7
 48
25.4
100
AcDbLine
 10
79.8503475004
 20
273.2331936503
 30
0.0
 11
79.8503475004
 21
19.2331855441
 31
0.0
  0
TEXT
  5
B3
330
AB
100
AcDbEntity
  8
DEFAULT
  6
CONTINUOUS
 62
     7
 48
25.4
100
AcDbText
 10
79.1003475004
 20
143.5740986881
 30
0.0
 40
3.0
  1
254
 50
90.0
  7
SEACAD_SEISO_TTF
 11
76.1003475004
 21
143.5740986881
 31
0.0
100
AcDbText
 73
     3
  0
ENDBLK
  5
B5
330
AB
100
AcDbEntity
  8
0
100
AcDbBlockEnd
  0
BLOCK
  5
BE
330
B6
100
AcDbEntity
  8
0
100
AcDbBlockBegin
  2
SE3
 70
     0
 71
     0
 10
0.0
 20
0.0
 30
0.0
  3
SE3
  1

  0
POLYLINE
  5
B8
330
B6
100
AcDbEntity
  8
DEFAULT
  6
CONTINUOUS
 62
     7
 48
25.4
100
AcDb2dPolyline
 66
     1
 10
0.0
 20
0.0
 30
0.0
 70
     1
  0
VERTEX
  5
142
330
B8
100
AcDbEntity
  8
DEFAULT
  6
CONTINUOUS
 62
     7
100
AcDbVertex
100
AcDb2dVertex
 10
89.0739139687
 20
184.2331936764
 30
0.0
  0
VERTEX
  5
143
330
B8
100
AcDbEntity
  8
DEFAULT
  6
CONTINUOUS
 62
     7
100
AcDbVertex
100
AcDb2dVertex
 10
89.573913973
 20
181.2331936503
 30
0.0
  0
VERTEX
  5
144
330
B8
100
AcDbEntity
  8
DEFAULT
  6
CONTINUOUS
 62
     7
100
AcDbVertex
100
AcDb2dVertex
 10
90.0739139774
 20
184.2331936764
 30
0.0
  0
VERTEX
  5
145
330
B8
100
AcDbEntity
  8
DEFAULT
  6
CONTINUOUS
 62
     7
100
AcDbVertex
100
AcDb2dVertex
 10
89.0739139687
 20
184.2331936764
 30
0.0
  0
SEQEND
  5
141
330
B8
100
AcDbEntity
  8
DEFAULT
  6
CONTINUOUS
 62
     7
 48
25.4
  0
POLYLINE
  5
B9
330
B6
100
AcDbEntity
  8
DEFAULT
  6
CONTINUOUS
 62
     7
 48
25.4
100
AcDb2dPolyline
 66
     1
 10
0.0
 20
0.0
 30
0.0
 70
     1
  0
VERTEX
  5
147
330
B9
100
AcDbEntity
  8
DEFAULT
  6
CONTINUOUS
 62
     7
100
AcDbVertex
100
AcDb2dVertex
 10
89.0739139687
 20
270.2331936242
 30
0.0
  0
VERTEX
  5
148
330
B9
100
AcDbEntity
  8
DEFAULT
  6
CONTINUOUS
 62
     7
100
AcDbVertex
100
AcDb2dVertex
 10
89.573913973
 20
273.2331936503
 30
0.0
  0
VERTEX
  5
149
330
B9
100
AcDbEntity
  8
DEFAULT
  6
CONTINUOUS
 62
     7
100
AcDbVertex
100
AcDb2dVertex
 10
90.0739139774
 20
270.2331936242
 30
0.0
  0
VERTEX
  5
14A
330
B9
100
AcDbEntity
  8
DEFAULT
  6
CONTINUOUS
 62
     7
100
AcDbVertex
100
AcDb2dVertex
 10
89.0739139687
 20
270.2331936242
 30
0.0
  0
SEQEND
  5
146
330
B9
100
AcDbEntity
  8
DEFAULT
  6
CONTINUOUS
 62
     7
 48
25.4
  0
LINE
  5
BA
330
B6
100
AcDbEntity
  8
DEFAULT
  6
CONTINUOUS
 62
     7
 48
25.4
100
AcDbLine
 10
156.3250215465
 20
181.2331936503
 30
0.0
 11
88.0739139599
 21
181.2331936503
 31
0.0
  0
LINE
  5
BB
330
B6
100
AcDbEntity
  8
DEFAULT
  6
CONTINUOUS
 62
     7
 48
25.4
100
AcDbLine
 10
156.3250215465
 20
273.2331936503
 30
0.0
 11
88.0739139599
 21
273.2331936503
 31
0.0
  0
LINE
  5
BC
330
B6
100
AcDbEntity
  8
DEFAULT
  6
CONTINUOUS
 62
     7
 48
25.4
100
AcDbLine
 10
89.573913973
 20
181.2331936503
 30
0.0
 11
89.573913973
 21
273.2331938291
 31
0.0
  0
TEXT
  5
BD
330
B6
100
AcDbEntity
  8
DEFAULT
  6
CONTINUOUS
 62
     7
 48
25.4
100
AcDbText
 10
88.823913973
 20
225.3922846488
 30
0.0
 40
3.0
  1
92
 50
90.0
  7
SEACAD_SEISO_TTF
 11
85.823913973
 21
225.3922846488
 31
0.0
100
AcDbText
 73
     3
  0
ENDBLK
  5
BF
330
B6
100
AcDbEntity
  8
0
100
AcDbBlockEnd
  0
BLOCK
  5
C8
330
C0
100
AcDbEntity
  8
0
100
AcDbBlockBegin
  2
SE4
 70
     0
 71
     0
 10
0.0
 20
0.0
 30
0.0
  3
SE4
  1

  0
POLYLINE
  5
C2
330
C0
100
AcDbEntity
  8
DEFAULT
  6
CONTINUOUS
 62
     7
 48
25.4
100
AcDb2dPolyline
 66
     1
 10
0.0
 20
0.0
 30
0.0
 70
     1
  0
VERTEX
  5
14C
330
C2
100
AcDbEntity
  8
DEFAULT
  6
CONTINUOUS
 62
     7
100
AcDbVertex
100
AcDb2dVertex
 10
99.821007676
 20
184.2331936764
 30
0.0
  0
VERTEX
  5
14D
330
C2
100
AcDbEntity
  8
DEFAULT
  6
CONTINUOUS
 62
     7
100
AcDbVertex
100
AcDb2dVertex
 10
100.3210076803
 20
181.2331936503
 30
0.0
  0
VERTEX
  5
14E
330
C2
100
AcDbEntity
  8
DEFAULT
  6
CONTINUOUS
 62
     7
100
AcDbVertex
100
AcDb2dVertex
 10
100.8210076847
 20
184.2331936764
 30
0.0
  0
VERTEX
  5
14F
330
C2
100
AcDbEntity
  8
DEFAULT
  6
CONTINUOUS
 62
     7
100
AcDbVertex
100
AcDb2dVertex
 10
99.821007676
 20
184.2331936764
 30
0.0
  0
SEQEND
  5
14B
330
C2
100
AcDbEntity
  8
DEFAULT
  6
CONTINUOUS
 62
     7
 48
25.4
  0
POLYLINE
  5
C3
330
C0
100
AcDbEntity
  8
DEFAULT
  6
CONTINUOUS
 62
     7
 48
25.4
100
AcDb2dPolyline
 66
     1
 10
0.0
 20
0.0
 30
0.0
 70
     1
  0
VERTEX
  5
151
330
C3
100
AcDbEntity
  8
DEFAULT
  6
CONTINUOUS
 62
     7
100
AcDbVertex
100
AcDb2dVertex
 10
99.821007676
 20
252.2331936242
 30
0.0
  0
VERTEX
  5
152
330
C3
100
AcDbEntity
  8
DEFAULT
  6
CONTINUOUS
 62
     7
100
AcDbVertex
100
AcDb2dVertex
 10
100.3210076803
 20
255.2331936503
 30
0.0
  0
VERTEX
  5
153
330
C3
100
AcDbEntity
  8
DEFAULT
  6
CONTINUOUS
 62
     7
100
AcDbVertex
100
AcDb2dVertex
 10
100.8210076847
 20
252.2331936242
 30
0.0
  0
VERTEX
  5
154
330
C3
100
AcDbEntity
  8
DEFAULT
  6
CONTINUOUS
 62
     7
100
AcDbVertex
100
AcDb2dVertex
 10
99.821007676
 20
252.2331936242
 30
0.0
  0
SEQEND
  5
150
330
C3
100
AcDbEntity
  8
DEFAULT
  6
CONTINUOUS
 62
     7
 48
25.4
  0
LINE
  5
C4
330
C0
100
AcDbEntity
  8
DEFAULT
  6
CONTINUOUS
 62
     7
 48
25.4
100
AcDbLine
 10
156.3250215465
 20
181.2331936503
 30
0.0
 11
98.8210076673
 21
181.2331936503
 31
0.0
  0
LINE
  5
C5
330
C0
100
AcDbEntity
  8
DEFAULT
  6
CONTINUOUS
 62
     7
 48
25.4
100
AcDbLine
 10
156.3250215465
 20
255.2331936503
 30
0.0
 11
98.8210076673
 21
255.2331936503
 31
0.0
  0
LINE
  5
C6
330
C0
100
AcDbEntity
  8
DEFAULT
  6
CONTINUOUS
 62
     7
 48
25.4
100
AcDbLine
 10
100.3210076803
 20
181.2331936503
 30
0.0
 11
100.3210076803
 21
255.233194604
 31
0.0
  0
TEXT
  5
C7
330
C0
100
AcDbEntity
  8
DEFAULT
  6
CONTINUOUS
 62
     7
 48
25.4
100
AcDbText
 10
99.5710076803
 20
216.3922850363
 30
0.0
 40
3.0
  1
74
 50
90.0
  7
SEACAD_SEISO_TTF
 11
96.5710076803
 21
216.3922850363
 31
0.0
100
AcDbText
 73
     3
  0
ENDBLK
  5
C9
330
C0
100
AcDbEntity
  8
0
100
AcDbBlockEnd
  0
BLOCK
  5
D2
330
CA
100
AcDbEntity
  8
0
100
AcDbBlockBegin
  2
SE5
 70
     0
 71
     0
 10
0.0
 20
0.0
 30
0.0
  3
SE5
  1

  0
POLYLINE
  5
CC
330
CA
100
AcDbEntity
  8
DEFAULT
  6
CONTINUOUS
 62
     7
 48
25.4
100
AcDb2dPolyline
 66
     1
 10
0.0
 20
0.0
 30
0.0
 70
     1
  0
VERTEX
  5
156
330
CC
100
AcDbEntity
  8
DEFAULT
  6
CONTINUOUS
 62
     7
100
AcDbVertex
100
AcDb2dVertex
 10
99.821007676
 20
178.2331936242
 30
0.0
  0
VERTEX
  5
157
330
CC
100
AcDbEntity
  8
DEFAULT
  6
CONTINUOUS
 62
     7
100
AcDbVertex
100
AcDb2dVertex
 10
100.3210076803
 20
181.2331936503
 30
0.0
  0
VERTEX
  5
158
330
CC
100
AcDbEntity
  8
DEFAULT
  6
CONTINUOUS
 62
     7
100
AcDbVertex
100
AcDb2dVertex
 10
100.8210076847
 20
178.2331936242
 30
0.0
  0
VERTEX
  5
159
330
CC
100
AcDbEntity
  8
DEFAULT
  6
CONTINUOUS
 62
     7
100
AcDbVertex
100
AcDb2dVertex
 10
99.821007676
 20
178.2331936242
 30
0.0
  0
SEQEND
  5
155
330
CC
100
AcDbEntity
  8
DEFAULT
  6
CONTINUOUS
 62
     7
 48
25.4
  0
POLYLINE
  5
CD
330
CA
100
AcDbEntity
  8
DEFAULT
  6
CONTINUOUS
 62
     7
 48
25.4
100
AcDb2dPolyline
 66
     1
 10
0.0
 20
0.0
 30
0.0
 70
     1
  0
VERTEX
  5
15B
330
CD
100
AcDbEntity
  8
DEFAULT
  6
CONTINUOUS
 62
     7
100
AcDbVertex
100
AcDb2dVertex
 10
99.821007676
 20
40.2331936764
 30
0.0
  0
VERTEX
  5
15C
330
CD
100
AcDbEntity
  8
DEFAULT
  6
CONTINUOUS
 62
     7
100
AcDbVertex
100
AcDb2dVertex
 10
100.3210076803
 20
37.2331936503
 30
0.0
  0
VERTEX
  5
15D
330
CD
100
AcDbEntity
  8
DEFAULT
  6
CONTINUOUS
 62
     7
100
AcDbVertex
100
AcDb2dVertex
 10
100.8210076847
 20
40.2331936764
 30
0.0
  0
VERTEX
  5
15E
330
CD
100
AcDbEntity
  8
DEFAULT
  6
CONTINUOUS
 62
     7
100
AcDbVertex
100
AcDb2dVertex
 10
99.821007676
 20
40.2331936764
 30
0.0
  0
SEQEND
  5
15A
330
CD
100
AcDbEntity
  8
DEFAULT
  6
CONTINUOUS
 62
     7
 48
25.4
  0
LINE
  5
CE
330
CA
100
AcDbEntity
  8
DEFAULT
  6
CONTINUOUS
 62
     7
 48
25.4
100
AcDbLine
 10
156.3250215465
 20
181.2331936503
 30
0.0
 11
98.8210076673
 21
181.2331936503
 31
0.0
  0
LINE
  5
CF
330
CA
100
AcDbEntity
  8
DEFAULT
  6
CONTINUOUS
 62
     7
 48
25.4
100
AcDbLine
 10
156.3250215465
 20
37.2331936503
 30
0.0
 11
98.8210076673
 21
37.2331936503
 31
0.0
  0
LINE
  5
D0
330
CA
100
AcDbEntity
  8
DEFAULT
  6
CONTINUOUS
 62
     7
 48
25.4
100
AcDbLine
 10
100.3210076803
 20
181.2331936503
 30
0.0
 11
100.3210076803
 21
37.2331998492
 31
0.0
  0
TEXT
  5
D1
330
CA
100
AcDbEntity
  8
DEFAULT
  6
CONTINUOUS
 62
     7
 48
25.4
100
AcDbText
 10
99.5710076803
 20
106.8468331134
 30
0.0
 40
3.0
  1
144
 50
90.0
  7
SEACAD_SEISO_TTF
 11
96.5710076803
 21
106.8468331134
 31
0.0
100
AcDbText
 73
     3
  0
ENDBLK
  5
D3
330
CA
100
AcDbEntity
  8
0
100
AcDbBlockEnd
  0
BLOCK
  5
DD
330
D4
100
AcDbEntity
  8
0
100
AcDbBlockBegin
  2
SE6
 70
     0
 71
     0
 10
0.0
 20
0.0
 30
0.0
  3
SE6
  1

  0
POLYLINE
  5
D6
330
D4
100
AcDbEntity
  8
DEFAULT
  6
CONTINUOUS
 62
     7
 48
25.4
100
AcDb2dPolyline
 66
     1
 10
0.0
 20
0.0
 30
0.0
 70
     1
  0
VERTEX
  5
160
330
D6
100
AcDbEntity
  8
DEFAULT
  6
CONTINUOUS
 62
     7
100
AcDbVertex
100
AcDb2dVertex
 10
110.5681051086
 20
178.2331936242
 30
0.0
  0
VERTEX
  5
161
330
D6
100
AcDbEntity
  8
DEFAULT
  6
CONTINUOUS
 62
     7
100
AcDbVertex
100
AcDb2dVertex
 10
111.0681051129
 20
181.2331936503
 30
0.0
  0
VERTEX
  5
162
330
D6
100
AcDbEntity
  8
DEFAULT
  6
CONTINUOUS
 62
     7
100
AcDbVertex
100
AcDb2dVertex
 10
111.5681051173
 20
178.2331936242
 30
0.0
  0
VERTEX
  5
163
330
D6
100
AcDbEntity
  8
DEFAULT
  6
CONTINUOUS
 62
     7
100
AcDbVertex
100
AcDb2dVertex
 10
110.5681051086
 20
178.2331936242
 30
0.0
  0
SEQEND
  5
15F
330
D6
100
AcDbEntity
  8
DEFAULT
  6
CONTINUOUS
 62
     7
 48
25.4
  0
POLYLINE
  5
D7
330
D4
100
AcDbEntity
  8
DEFAULT
  6
CONTINUOUS
 62
     7
 48
25.4
100
AcDb2dPolyline
 66
     1
 10
0.0
 20
0.0
 30
0.0
 70
     1
  0
VERTEX
  5
165
330
D7
100
AcDbEntity
  8
DEFAULT
  6
CONTINUOUS
 62
     7
100
AcDbVertex
100
AcDb2dVertex
 10
110.5681051086
 20
112.2331936764
 30
0.0
  0
VERTEX
  5
166
330
D7
100
AcDbEntity
  8
DEFAULT
  6
CONTINUOUS
 62
     7
100
AcDbVertex
100
AcDb2dVertex
 10
111.0681051129
 20
109.2331936503
 30
0.0
  0
VERTEX
  5
167
330
D7
100
AcDbEntity
  8
DEFAULT
  6
CONTINUOUS
 62
     7
100
AcDbVertex
100
AcDb2dVertex
 10
111.5681051173
 20
112.2331936764
 30
0.0
  0
VERTEX
  5
168
330
D7
100
AcDbEntity
  8
DEFAULT
  6
CONTINUOUS
 62
     7
100
AcDbVertex
100
AcDb2dVertex
 10
110.5681051086
 20
112.2331936764
 30
0.0
  0
SEQEND
  5
164
330
D7
100
AcDbEntity
  8
DEFAULT
  6
CONTINUOUS
 62
     7
 48
25.4
  0
LINE
  5
D8
330
D4
100
AcDbEntity
  8
DEFAULT
  6
CONTINUOUS
 62
     7
 48
25.4
100
AcDbLine
 10
156.3250215465
 20
181.2331936503
 30
0.0
 11
109.5681050999
 21
181.2331936503
 31
0.0
  0
LINE
  5
D9
330
D4
100
AcDbEntity
  8
DEFAULT
  6
CONTINUOUS
 62
     7
 48
25.4
100
AcDbLine
 10
156.3250215465
 20
109.2331936503
 30
0.0
 11
109.5681050999
 21
109.2331936503
 31
0.0
  0
LINE
  5
DA
330
D4
100
AcDbEntity
  8
DEFAULT
  6
CONTINUOUS
 62
     7
 48
25.4
100
AcDbLine
 10
111.0681051129
 20
181.2331936503
 30
0.0
 11
111.0681051129
 21
109.2331967498
 31
0.0
  0
TEXT
  5
DB
330
D4
100
AcDbEntity
  8
DEFAULT
  6
CONTINUOUS
 62
     7
 48
25.4
100
AcDbText
 10
110.3181051129
 20
140.7536497455
 30
0.0
 40
3.0
  1
72
 50
90.0
  7
SEACAD_SEISO_TTF
 11
107.3181051129
 21
140.7536497455
 31
0.0
100
AcDbText
 73
     3
  0
TEXT
  5
DC
330
D4
100
AcDbEntity
  8
DEFAULT
  6
CONTINUOUS
 62
     7
 48
25.4
100
AcDbText
 10
110.3181051129
 20
144.8036497455
 30
0.0
 40
3.0
  1
/78
 50
90.0
  7
SEACAD_SEISO_TTF
 11
107.3181051129
 21
144.8036497455
 31
0.0
100
AcDbText
 73
     3
  0
ENDBLK
  5
DE
330
D4
100
AcDbEntity
  8
0
100
AcDbBlockEnd
  0
BLOCK
  5
E7
330
DF
100
AcDbEntity
  8
0
100
AcDbBlockBegin
  2
SE7
 70
     0
 71
     0
 10
0.0
 20
0.0
 30
0.0
  3
SE7
  1

  0
POLYLINE
  5
E1
330
DF
100
AcDbEntity
  8
DEFAULT
  6
CONTINUOUS
 62
     7
 48
25.4
100
AcDb2dPolyline
 66
     1
 10
0.0
 20
0.0
 30
0.0
 70
     1
  0
VERTEX
  5
16A
330
E1
100
AcDbEntity
  8
DEFAULT
  6
CONTINUOUS
 62
     7
100
AcDbVertex
100
AcDb2dVertex
 10
121.8269680213
 20
178.2331936242
 30
0.0
  0
VERTEX
  5
16B
330
E1
100
AcDbEntity
  8
DEFAULT
  6
CONTINUOUS
 62
     7
100
AcDbVertex
100
AcDb2dVertex
 10
122.3269680256
 20
181.2331936503
 30
0.0
  0
VERTEX
  5
16C
330
E1
100
AcDbEntity
  8
DEFAULT
  6
CONTINUOUS
 62
     7
100
AcDbVertex
100
AcDb2dVertex
 10
122.8269680299
 20
178.2331936242
 30
0.0
  0
VERTEX
  5
16D
330
E1
100
AcDbEntity
  8
DEFAULT
  6
CONTINUOUS
 62
     7
100
AcDbVertex
100
AcDb2dVertex
 10
121.8269680213
 20
178.2331936242
 30
0.0
  0
SEQEND
  5
169
330
E1
100
AcDbEntity
  8
DEFAULT
  6
CONTINUOUS
 62
     7
 48
25.4
  0
POLYLINE
  5
E2
330
DF
100
AcDbEntity
  8
DEFAULT
  6
CONTINUOUS
 62
     7
 48
25.4
100
AcDb2dPolyline
 66
     1
 10
0.0
 20
0.0
 30
0.0
 70
     1
  0
VERTEX
  5
16F
330
E2
100
AcDbEntity
  8
DEFAULT
  6
CONTINUOUS
 62
     7
100
AcDbVertex
100
AcDb2dVertex
 10
121.8269680213
 20
162.2331936764
 30
0.0
  0
VERTEX
  5
170
330
E2
100
AcDbEntity
  8
DEFAULT
  6
CONTINUOUS
 62
     7
100
AcDbVertex
100
AcDb2dVertex
 10
122.3269680256
 20
159.2331936503
 30
0.0
  0
VERTEX
  5
171
330
E2
100
AcDbEntity
  8
DEFAULT
  6
CONTINUOUS
 62
     7
100
AcDbVertex
100
AcDb2dVertex
 10
122.8269680299
 20
162.2331936764
 30
0.0
  0
VERTEX
  5
172
330
E2
100
AcDbEntity
  8
DEFAULT
  6
CONTINUOUS
 62
     7
100
AcDbVertex
100
AcDb2dVertex
 10
121.8269680213
 20
162.2331936764
 30
0.0
  0
SEQEND
  5
16E
330
E2
100
AcDbEntity
  8
DEFAULT
  6
CONTINUOUS
 62
     7
 48
25.4
  0
LINE
  5
E3
330
DF
100
AcDbEntity
  8
DEFAULT
  6
CONTINUOUS
 62
     7
 48
25.4
100
AcDbLine
 10
156.3250215465
 20
181.2331936503
 30
0.0
 11
120.8269680125
 21
181.2331936503
 31
0.0
  0
LINE
  5
E4
330
DF
100
AcDbEntity
  8
DEFAULT
  6
CONTINUOUS
 62
     7
 48
25.4
100
AcDbLine
 10
156.3250215465
 20
159.2331936503
 30
0.0
 11
120.8269680125
 21
159.2331936503
 31
0.0
  0
LINE
  5
E5
330
DF
100
AcDbEntity
  8
DEFAULT
  6
CONTINUOUS
 62
     7
 48
25.4
100
AcDbLine
 10
122.3269680256
 20
181.2331936503
 30
0.0
 11
122.3269680256
 21
159.2331937695
 31
0.0
  0
TEXT
  5
E6
330
DF
100
AcDbEntity
  8
DEFAULT
  6
CONTINUOUS
 62
     7
 48
25.4
100
AcDbText
 10
121.5769680256
 20
168.392284619
 30
0.0
 40
3.0
  1
22
 50
90.0
  7
SEACAD_SEISO_TTF
 11
118.5769680256
 21
168.392284619
 31
0.0
100
AcDbText
 73
     3
  0
ENDBLK
  5
E8
330
DF
100
AcDbEntity
  8
0
100
AcDbBlockEnd
  0
BLOCK
  5
F1
330
E9
100
AcDbEntity
  8
0
100
AcDbBlockBegin
  2
SE8
 70
     0
 71
     0
 10
0.0
 20
0.0
 30
0.0
  3
SE8
  1

  0
POLYLINE
  5
EB
330
E9
100
AcDbEntity
  8
DEFAULT
  6
CONTINUOUS
 62
     7
 48
25.4
100
AcDb2dPolyline
 66
     1
 10
0.0
 20
0.0
 30
0.0
 70
     1
  0
VERTEX
  5
174
330
EB
100
AcDbEntity
  8
DEFAULT
  6
CONTINUOUS
 62
     7
100
AcDbVertex
100
AcDb2dVertex
 10
134.3250215726
 20
300.774906803
 30
0.0
  0
VERTEX
  5
175
330
EB
100
AcDbEntity
  8
DEFAULT
  6
CONTINUOUS
 62
     7
100
AcDbVertex
100
AcDb2dVertex
 10
131.3250215465
 20
300.2749067987
 30
0.0
  0
VERTEX
  5
176
330
EB
100
AcDbEntity
  8
DEFAULT
  6
CONTINUOUS
 62
     7
100
AcDbVertex
100
AcDb2dVertex
 10
134.3250215726
 20
299.7749067943
 30
0.0
  0
VERTEX
  5
177
330
EB
100
AcDbEntity
  8
DEFAULT
  6
CONTINUOUS
 62
     7
100
AcDbVertex
100
AcDb2dVertex
 10
134.3250215726
 20
300.774906803
 30
0.0
  0
SEQEND
  5
173
330
EB
100
AcDbEntity
  8
DEFAULT
  6
CONTINUOUS
 62
     7
 48
25.4
  0
POLYLINE
  5
EC
330
E9
100
AcDbEntity
  8
DEFAULT
  6
CONTINUOUS
 62
     7
 48
25.4
100
AcDb2dPolyline
 66
     1
 10
0.0
 20
0.0
 30
0.0
 70
     1
  0
VERTEX
  5
179
330
EC
100
AcDbEntity
  8
DEFAULT
  6
CONTINUOUS
 62
     7
100
AcDbVertex
100
AcDb2dVertex
 10
178.3250215204
 20
300.774906803
 30
0.0
  0
VERTEX
  5
17A
330
EC
100
AcDbEntity
  8
DEFAULT
  6
CONTINUOUS
 62
     7
100
AcDbVertex
100
AcDb2dVertex
 10
181.3250215465
 20
300.2749067987
 30
0.0
  0
VERTEX
  5
17B
330
EC
100
AcDbEntity
  8
DEFAULT
  6
CONTINUOUS
 62
     7
100
AcDbVertex
100
AcDb2dVertex
 10
178.3250215204
 20
299.7749067943
 30
0.0
  0
VERTEX
  5
17C
330
EC
100
AcDbEntity
  8
DEFAULT
  6
CONTINUOUS
 62
     7
100
AcDbVertex
100
AcDb2dVertex
 10
178.3250215204
 20
300.774906803
 30
0.0
  0
SEQEND
  5
178
330
EC
100
AcDbEntity
  8
DEFAULT
  6
CONTINUOUS
 62
     7
 48
25.4
  0
LINE
  5
ED
330
E9
100
AcDbEntity
  8
DEFAULT
  6
CONTINUOUS
 62
     7
 48
25.4
100
AcDbLine
 10
131.3250215465
 20
248.2331936503
 30
0.0
 11
131.3250215465
 21
301.7749068117
 31
0.0
  0
LINE
  5
EE
330
E9
100
AcDbEntity
  8
DEFAULT
  6
CONTINUOUS
 62
     7
 48
25.4
100
AcDbLine
 10
181.3250215465
 20
248.2331936503
 30
0.0
 11
181.3250215465
 21
301.7749068117
 31
0.0
  0
LINE
  5
EF
330
E9
100
AcDbEntity
  8
DEFAULT
  6
CONTINUOUS
 62
     7
 48
25.4
100
AcDbLine
 10
131.3250215465
 20
300.2749067987
 30
0.0
 11
181.3250222915
 21
300.2749067987
 31
0.0
  0
TEXT
  5
F0
330
E9
100
AcDbEntity
  8
DEFAULT
  6
CONTINUOUS
 62
     7
 48
25.4
100
AcDbText
 10
154.5863855554
 20
301.0249067987
 30
0.0
 40
3.0
  1
50
  7
SEACAD_SEISO_TTF
 11
154.5863855554
 21
304.0249067987
 31
0.0
100
AcDbText
 73
     3
  0
ENDBLK
  5
F2
330
E9
100
AcDbEntity
  8
0
100
AcDbBlockEnd
  0
BLOCK
  5
FC
330
F3
100
AcDbEntity
  8
0
100
AcDbBlockBegin
  2
SE9
 70
     0
 71
     0
 10
0.0
 20
0.0
 30
0.0
  3
SE9
  1

  0
POLYLINE
  5
F5
330
F3
100
AcDbEntity
  8
DEFAULT
  6
CONTINUOUS
 62
     7
 48
25.4
100
AcDb2dPolyline
 66
     1
 10
0.0
 20
0.0
 30
0.0
 70
     1
  0
VERTEX
  5
17E
330
F5
100
AcDbEntity
  8
DEFAULT
  6
CONTINUOUS
 62
     7
100
AcDbVertex
100
AcDb2dVertex
 10
200.7601642357
 20
176.0331956187
 30
0.0
  0
VERTEX
  5
17F
330
F5
100
AcDbEntity
  8
DEFAULT
  6
CONTINUOUS
 62
     7
100
AcDbVertex
100
AcDb2dVertex
 10
200.2601643624
 20
173.0331955708
 30
0.0
  0
VERTEX
  5
180
330
F5
100
AcDbEntity
  8
DEFAULT
  6
CONTINUOUS
 62
     7
100
AcDbVertex
100
AcDb2dVertex
 10
199.760164227
 20
176.033195575
 30
0.0
  0
VERTEX
  5
181
330
F5
100
AcDbEntity
  8
DEFAULT
  6
CONTINUOUS
 62
     7
100
AcDbVertex
100
AcDb2dVertex
 10
200.7601642357
 20
176.0331956187
 30
0.0
  0
SEQEND
  5
17D
330
F5
100
AcDbEntity
  8
DEFAULT
  6
CONTINUOUS
 62
     7
 48
25.4
  0
POLYLINE
  5
F6
330
F3
100
AcDbEntity
  8
DEFAULT
  6
CONTINUOUS
 62
     7
 48
25.4
100
AcDb2dPolyline
 66
     1
 10
0.0
 20
0.0
 30
0.0
 70
     1
  0
VERTEX
  5
183
330
F6
100
AcDbEntity
  8
DEFAULT
  6
CONTINUOUS
 62
     7
100
AcDbVertex
100
AcDb2dVertex
 10
200.7601637811
 20
186.4331955666
 30
0.0
  0
VERTEX
  5
184
330
F6
100
AcDbEntity
  8
DEFAULT
  6
CONTINUOUS
 62
     7
100
AcDbVertex
100
AcDb2dVertex
 10
200.2601636456
 20
189.4331955708
 30
0.0
  0
VERTEX
  5
185
330
F6
100
AcDbEntity
  8
DEFAULT
  6
CONTINUOUS
 62
     7
100
AcDbVertex
100
AcDb2dVertex
 10
199.7601637724
 20
186.4331955229
 30
0.0
  0
VERTEX
  5
186
330
F6
100
AcDbEntity
  8
DEFAULT
  6
CONTINUOUS
 62
     7
100
AcDbVertex
100
AcDb2dVertex
 10
200.7601637811
 20
186.4331955666
 30
0.0
  0
SEQEND
  5
182
330
F6
100
AcDbEntity
  8
DEFAULT
  6
CONTINUOUS
 62
     7
 48
25.4
  0
LINE
  5
F7
330
F3
100
AcDbEntity
  8
DEFAULT
  6
CONTINUOUS
 62
     7
 48
25.4
100
AcDbLine
 10
156.3250219049
 20
173.0331936503
 30
0.0
 11
201.7601643754
 21
173.0331956364
 31
0.0
  0
LINE
  5
F8
330
F3
100
AcDbEntity
  8
DEFAULT
  6
CONTINUOUS
 62
     7
 48
25.4
100
AcDbLine
 10
156.325021188
 20
189.4331936503
 30
0.0
 11
201.7601636586
 21
189.4331956364
 31
0.0
  0
LINE
  5
F9
330
F3
100
AcDbEntity
  8
DEFAULT
  6
CONTINUOUS
 62
     7
 48
25.4
100
AcDbLine
 10
200.2601643624
 20
173.0331955708
 30
0.0
 11
200.2601636455
 21
189.4331956513
 31
0.0
  0
TEXT
  5
FA
330
F3
100
AcDbEntity
  8
DEFAULT
  6
CONTINUOUS
 62
     7
 48
25.4
100
AcDbText
 10
199.510164004
 20
177.4354683383
 30
0.0
 40
3.0
  1
16
 50
90.0
  7
SEACAD_SEISO_TTF
 11
196.510164004
 21
177.4354683383
 31
0.0
100
AcDbText
 73
     3
  0
TEXT
  5
FB
330
F3
100
AcDbEntity
  8
DEFAULT
  6
CONTINUOUS
 62
     7
 48
25.4
100
AcDbText
 10
199.510164004
 20
180.8036501565
 30
0.0
 40
3.0
  1
/18
 50
90.0
  7
SEACAD_SEISO_TTF
 11
196.510164004
 21
180.8036501565
 31
0.0
100
AcDbText
 73
     3
  0
ENDBLK
  5
FD
330
F3
100
AcDbEntity
  8
0
100
AcDbBlockEnd
  0
BLOCK
  5
107
330
FE
100
AcDbEntity
  8
0
100
AcDbBlockBegin
  2
SE10
 70
     0
 71
     0
 10
0.0
 20
0.0
 30
0.0
  3
SE10
  1

  0
POLYLINE
  5
100
330
FE
100
AcDbEntity
  8
DEFAULT
  6
CONTINUOUS
 62
     7
 48
25.4
100
AcDb2dPolyline
 66
     1
 10
0.0
 20
0.0
 30
0.0
 70
     1
  0
VERTEX
  5
188
330
100
100
AcDbEntity
  8
DEFAULT
  6
CONTINUOUS
 62
     7
100
AcDbVertex
100
AcDb2dVertex
 10
200.4064812221
 20
249.2331936242
 30
0.0
  0
VERTEX
  5
189
330
100
100
AcDbEntity
  8
DEFAULT
  6
CONTINUOUS
 62
     7
100
AcDbVertex
100
AcDb2dVertex
 10
199.9064812178
 20
252.2331936503
 30
0.0
  0
VERTEX
  5
18A
330
100
100
AcDbEntity
  8
DEFAULT
  6
CONTINUOUS
 62
     7
100
AcDbVertex
100
AcDb2dVertex
 10
199.4064812134
 20
249.2331936242
 30
0.0
  0
VERTEX
  5
18B
330
100
100
AcDbEntity
  8
DEFAULT
  6
CONTINUOUS
 62
     7
100
AcDbVertex
100
AcDb2dVertex
 10
200.4064812221
 20
249.2331936242
 30
0.0
  0
SEQEND
  5
187
330
100
100
AcDbEntity
  8
DEFAULT
  6
CONTINUOUS
 62
     7
 48
25.4
  0
POLYLINE
  5
101
330
FE
100
AcDbEntity
  8
DEFAULT
  6
CONTINUOUS
 62
     7
 48
25.4
100
AcDb2dPolyline
 66
     1
 10
0.0
 20
0.0
 30
0.0
 70
     1
  0
VERTEX
  5
18D
330
101
100
AcDbEntity
  8
DEFAULT
  6
CONTINUOUS
 62
     7
100
AcDbVertex
100
AcDb2dVertex
 10
200.4064812221
 20
261.2331936764
 30
0.0
  0
VERTEX
  5
18E
330
101
100
AcDbEntity
  8
DEFAULT
  6
CONTINUOUS
 62
     7
100
AcDbVertex
100
AcDb2dVertex
 10
199.9064812178
 20
258.2331936503
 30
0.0
  0
VERTEX
  5
18F
330
101
100
AcDbEntity
  8
DEFAULT
  6
CONTINUOUS
 62
     7
100
AcDbVertex
100
AcDb2dVertex
 10
199.4064812134
 20
261.2331936764
 30
0.0
  0
VERTEX
  5
190
330
101
100
AcDbEntity
  8
DEFAULT
  6
CONTINUOUS
 62
     7
100
AcDbVertex
100
AcDb2dVertex
 10
200.4064812221
 20
261.2331936764
 30
0.0
  0
SEQEND
  5
18C
330
101
100
AcDbEntity
  8
DEFAULT
  6
CONTINUOUS
 62
     7
 48
25.4
  0
LINE
  5
102
330
FE
100
AcDbEntity
  8
DEFAULT
  6
CONTINUOUS
 62
     7
 48
25.4
100
AcDbLine
 10
156.3250215465
 20
252.2331936503
 30
0.0
 11
201.4064812308
 21
252.2331936503
 31
0.0
  0
LINE
  5
103
330
FE
100
AcDbEntity
  8
DEFAULT
  6
CONTINUOUS
 62
     7
 48
25.4
100
AcDbLine
 10
156.3250215465
 20
258.2331936503
 30
0.0
 11
201.4064812308
 21
258.2331936503
 31
0.0
  0
LINE
  5
104
330
FE
100
AcDbEntity
  8
DEFAULT
  6
CONTINUOUS
 62
     7
 48
25.4
100
AcDbLine
 10
199.9064812177
 20
239.0692321802
 30
0.0
 11
199.9064812177
 21
264.2331937546
 31
0.0
  0
TEXT
  5
105
330
FE
100
AcDbEntity
  8
DEFAULT
  6
CONTINUOUS
 62
     7
 48
25.4
100
AcDbText
 10
199.1564812177
 20
243.9646869182
 30
0.0
 40
3.0
  1
6
 50
90.0
  7
SEACAD_SEISO_TTF
 11
196.1564812177
 21
243.9646869182
 31
0.0
100
AcDbText
 73
     3
  0
TEXT
  5
106
330
FE
100
AcDbEntity
  8
DEFAULT
  6
CONTINUOUS
 62
     7
 48
25.4
100
AcDbText
 10
199.1564812177
 20
240.1192323728
 30
0.0
 40
3.0
  1
M 
 50
90.0
  7
SEACAD_SEISO_TTF
 11
196.1564812177
 21
240.1192323728
 31
0.0
100
AcDbText
 73
     3
  0
ENDBLK
  5
108
330
FE
100
AcDbEntity
  8
0
100
AcDbBlockEnd
  0
BLOCK
  5
111
330
109
100
AcDbEntity
  8
0
100
AcDbBlockBegin
  2
SE11
 70
     0
 71
     0
 10
0.0
 20
0.0
 30
0.0
  3
SE11
  1

  0
POLYLINE
  5
10B
330
109
100
AcDbEntity
  8
DEFAULT
  6
CONTINUOUS
 62
     7
 48
25.4
100
AcDb2dPolyline
 66
     1
 10
0.0
 20
0.0
 30
0.0
 70
     1
  0
VERTEX
  5
192
330
10B
100
AcDbEntity
  8
DEFAULT
  6
CONTINUOUS
 62
     7
100
AcDbVertex
100
AcDb2dVertex
 10
43.8271356545
 20
300.8789314368
 30
0.0
  0
VERTEX
  5
193
330
10B
100
AcDbEntity
  8
DEFAULT
  6
CONTINUOUS
 62
     7
100
AcDbVertex
100
AcDb2dVertex
 10
40.8271356284
 20
300.3789314324
 30
0.0
  0
VERTEX
  5
194
330
10B
100
AcDbEntity
  8
DEFAULT
  6
CONTINUOUS
 62
     7
100
AcDbVertex
100
AcDb2dVertex
 10
43.8271356545
 20
299.8789314281
 30
0.0
  0
VERTEX
  5
195
330
10B
100
AcDbEntity
  8
DEFAULT
  6
CONTINUOUS
 62
     7
100
AcDbVertex
100
AcDb2dVertex
 10
43.8271356545
 20
300.8789314368
 30
0.0
  0
SEQEND
  5
191
330
10B
100
AcDbEntity
  8
DEFAULT
  6
CONTINUOUS
 62
     7
 48
25.4
  0
POLYLINE
  5
10C
330
109
100
AcDbEntity
  8
DEFAULT
  6
CONTINUOUS
 62
     7
 48
25.4
100
AcDb2dPolyline
 66
     1
 10
0.0
 20
0.0
 30
0.0
 70
     1
  0
VERTEX
  5
197
330
10C
100
AcDbEntity
  8
DEFAULT
  6
CONTINUOUS
 62
     7
100
AcDbVertex
100
AcDb2dVertex
 10
29.6271356023
 20
300.8789314368
 30
0.0
  0
VERTEX
  5
198
330
10C
100
AcDbEntity
  8
DEFAULT
  6
CONTINUOUS
 62
     7
100
AcDbVertex
100
AcDb2dVertex
 10
32.6271356284
 20
300.3789314324
 30
0.0
  0
VERTEX
  5
199
330
10C
100
AcDbEntity
  8
DEFAULT
  6
CONTINUOUS
 62
     7
100
AcDbVertex
100
AcDb2dVertex
 10
29.6271356023
 20
299.8789314281
 30
0.0
  0
VERTEX
  5
19A
330
10C
100
AcDbEntity
  8
DEFAULT
  6
CONTINUOUS
 62
     7
100
AcDbVertex
100
AcDb2dVertex
 10
29.6271356023
 20
300.8789314368
 30
0.0
  0
SEQEND
  5
196
330
10C
100
AcDbEntity
  8
DEFAULT
  6
CONTINUOUS
 62
     7
 48
25.4
  0
LINE
  5
10D
330
109
100
AcDbEntity
  8
DEFAULT
  6
CONTINUOUS
 62
     7
 48
25.4
100
AcDbLine
 10
40.8271356284
 20
273.2331936503
 30
0.0
 11
40.8271356284
 21
301.8789314455
 31
0.0
  0
LINE
  5
10E
330
109
100
AcDbEntity
  8
DEFAULT
  6
CONTINUOUS
 62
     7
 48
25.4
100
AcDbLine
 10
32.6271356284
 20
270.6523467784
 30
0.0
 11
32.6271356284
 21
301.8789314455
 31
0.0
  0
LINE
  5
10F
330
109
100
AcDbEntity
  8
DEFAULT
  6
CONTINUOUS
 62
     7
 48
25.4
100
AcDbLine
 10
46.8271356805
 20
300.3789314324
 30
0.0
 11
26.627135536
 21
300.3789314324
 31
0.0
  0
TEXT
  5
110
330
109
100
AcDbEntity
  8
DEFAULT
  6
CONTINUOUS
 62
     7
 48
25.4
100
AcDbText
 10
35.7725901537
 20
301.1289314324
 30
0.0
 40
3.0
  1
8
  7
SEACAD_SEISO_TTF
 11
35.7725901537
 21
304.1289314324
 31
0.0
100
AcDbText
 73
     3
  0
ENDBLK
  5
112
330
109
100
AcDbEntity
  8
0
100
AcDbBlockEnd
  0
BLOCK
  5
11B
330
113
100
AcDbEntity
  8
0
100
AcDbBlockBegin
  2
SE12
 70
     0
 71
     0
 10
0.0
 20
0.0
 30
0.0
  3
SE12
  1

  0
POLYLINE
  5
115
330
113
100
AcDbEntity
  8
DEFAULT
  6
CONTINUOUS
 62
     7
 48
25.4
100
AcDb2dPolyline
 66
     1
 10
0.0
 20
0.0
 30
0.0
 70
     1
  0
VERTEX
  5
19C
330
115
100
AcDbEntity
  8
DEFAULT
  6
CONTINUOUS
 62
     7
100
AcDbVertex
100
AcDb2dVertex
 10
43.8271356545
 20
300.8789314368
 30
0.0
  0
VERTEX
  5
19D
330
115
100
AcDbEntity
  8
DEFAULT
  6
CONTINUOUS
 62
     7
100
AcDbVertex
100
AcDb2dVertex
 10
40.8271356284
 20
300.3789314324
 30
0.0
  0
VERTEX
  5
19E
330
115
100
AcDbEntity
  8
DEFAULT
  6
CONTINUOUS
 62
     7
100
AcDbVertex
100
AcDb2dVertex
 10
43.8271356545
 20
299.8789314281
 30
0.0
  0
VERTEX
  5
19F
330
115
100
AcDbEntity
  8
DEFAULT
  6
CONTINUOUS
 62
     7
100
AcDbVertex
100
AcDb2dVertex
 10
43.8271356545
 20
300.8789314368
 30
0.0
  0
SEQEND
  5
19B
330
115
100
AcDbEntity
  8
DEFAULT
  6
CONTINUOUS
 62
     7
 48
25.4
  0
POLYLINE
  5
116
330
113
100
AcDbEntity
  8
DEFAULT
  6
CONTINUOUS
 62
     7
 48
25.4
100
AcDb2dPolyline
 66
     1
 10
0.0
 20
0.0
 30
0.0
 70
     1
  0
VERTEX
  5
1A1
330
116
100
AcDbEntity
  8
DEFAULT
  6
CONTINUOUS
 62
     7
100
AcDbVertex
100
AcDb2dVertex
 10
51.8271356023
 20
300.8789314368
 30
0.0
  0
VERTEX
  5
1A2
330
116
100
AcDbEntity
  8
DEFAULT
  6
CONTINUOUS
 62
     7
100
AcDbVertex
100
AcDb2dVertex
 10
54.8271356284
 20
300.3789314324
 30
0.0
  0
VERTEX
  5
1A3
330
116
100
AcDbEntity
  8
DEFAULT
  6
CONTINUOUS
 62
     7
100
AcDbVertex
100
AcDb2dVertex
 10
51.8271356023
 20
299.8789314281
 30
0.0
  0
VERTEX
  5
1A4
330
116
100
AcDbEntity
  8
DEFAULT
  6
CONTINUOUS
 62
     7
100
AcDbVertex
100
AcDb2dVertex
 10
51.8271356023
 20
300.8789314368
 30
0.0
  0
SEQEND
  5
1A0
330
116
100
AcDbEntity
  8
DEFAULT
  6
CONTINUOUS
 62
     7
 48
25.4
  0
LINE
  5
117
330
113
100
AcDbEntity
  8
DEFAULT
  6
CONTINUOUS
 62
     7
 48
25.4
100
AcDbLine
 10
40.8271356284
 20
273.2331936503
 30
0.0
 11
40.8271356284
 21
301.8789314455
 31
0.0
  0
LINE
  5
118
330
113
100
AcDbEntity
  8
DEFAULT
  6
CONTINUOUS
 62
     7
 48
25.4
100
AcDbLine
 10
54.8271356284
 20
259.4358002871
 30
0.0
 11
54.8271356284
 21
301.8789314455
 31
0.0
  0
LINE
  5
119
330
113
100
AcDbEntity
  8
DEFAULT
  6
CONTINUOUS
 62
     7
 48
25.4
100
AcDbLine
 10
40.8271356284
 20
300.3789314324
 30
0.0
 11
54.8271360605
 21
300.3789314324
 31
0.0
  0
TEXT
  5
11A
330
113
100
AcDbEntity
  8
DEFAULT
  6
CONTINUOUS
 62
     7
 48
25.4
100
AcDbText
 10
46.3271358444
 20
301.1289314324
 30
0.0
 40
3.0
  1
14
  7
SEACAD_SEISO_TTF
 11
46.3271358444
 21
304.1289314324
 31
0.0
100
AcDbText
 73
     3
  0
ENDBLK
  5
11C
330
113
100
AcDbEntity
  8
0
100
AcDbBlockEnd
  0
BLOCK
  5
124
330
11D
100
AcDbEntity
  8
0
100
AcDbBlockBegin
  2
SE13
 70
     0
 71
     0
 10
0.0
 20
0.0
 30
0.0
  3
SE13
  1

  0
POLYLINE
  5
11F
330
11D
100
AcDbEntity
  8
DEFAULT
  6
CONTINUOUS
 62
     7
 48
25.4
100
AcDb2dPolyline
 66
     1
 10
0.0
 20
0.0
 30
0.0
 70
     1
  0
VERTEX
  5
1A6
330
11F
100
AcDbEntity
  8
DEFAULT
  6
CONTINUOUS
 62
     7
100
AcDbVertex
100
AcDb2dVertex
 10
37.8271356023
 20
142.5718918543
 30
0.0
  0
VERTEX
  5
1A7
330
11F
100
AcDbEntity
  8
DEFAULT
  6
CONTINUOUS
 62
     7
100
AcDbVertex
100
AcDb2dVertex
 10
40.8271356284
 20
143.0718918587
 30
0.0
  0
VERTEX
  5
1A8
330
11F
100
AcDbEntity
  8
DEFAULT
  6
CONTINUOUS
 62
     7
100
AcDbVertex
100
AcDb2dVertex
 10
37.8271356023
 20
143.571891863
 30
0.0
  0
VERTEX
  5
1A9
330
11F
100
AcDbEntity
  8
DEFAULT
  6
CONTINUOUS
 62
     7
100
AcDbVertex
100
AcDb2dVertex
 10
37.8271356023
 20
142.5718918543
 30
0.0
  0
SEQEND
  5
1A5
330
11F
100
AcDbEntity
  8
DEFAULT
  6
CONTINUOUS
 62
     7
 48
25.4
  0
POLYLINE
  5
120
330
11D
100
AcDbEntity
  8
DEFAULT
  6
CONTINUOUS
 62
     7
 48
25.4
100
AcDb2dPolyline
 66
     1
 10
0.0
 20
0.0
 30
0.0
 70
     1
  0
VERTEX
  5
1AB
330
120
100
AcDbEntity
  8
DEFAULT
  6
CONTINUOUS
 62
     7
100
AcDbVertex
100
AcDb2dVertex
 10
50.8271356545
 20
142.5718918543
 30
0.0
  0
VERTEX
  5
1AC
330
120
100
AcDbEntity
  8
DEFAULT
  6
CONTINUOUS
 62
     7
100
AcDbVertex
100
AcDb2dVertex
 10
47.8271356284
 20
143.0718918587
 30
0.0
  0
VERTEX
  5
1AD
330
120
100
AcDbEntity
  8
DEFAULT
  6
CONTINUOUS
 62
     7
100
AcDbVertex
100
AcDb2dVertex
 10
50.8271356545
 20
143.571891863
 30
0.0
  0
VERTEX
  5
1AE
330
120
100
AcDbEntity
  8
DEFAULT
  6
CONTINUOUS
 62
     7
100
AcDbVertex
100
AcDb2dVertex
 10
50.8271356545
 20
142.5718918543
 30
0.0
  0
SEQEND
  5
1AA
330
120
100
AcDbEntity
  8
DEFAULT
  6
CONTINUOUS
 62
     7
 48
25.4
  0
LINE
  5
121
330
11D
100
AcDbEntity
  8
DEFAULT
  6
CONTINUOUS
 62
     7
 48
25.4
100
AcDbLine
 10
47.8271356284
 20
155.0305870135
 30
0.0
 11
47.8271356284
 21
141.5718918456
 31
0.0
  0
LINE
  5
122
330
11D
100
AcDbEntity
  8
DEFAULT
  6
CONTINUOUS
 62
     7
 48
25.4
100
AcDbLine
 10
34.8271355762
 20
143.0718918587
 30
0.0
 11
57.2687565147
 21
143.0718918587
 31
0.0
  0
TEXT
  5
123
330
11D
100
AcDbEntity
  8
DEFAULT
  6
CONTINUOUS
 62
     7
 48
25.4
100
AcDbText
 10
54.3096652194
 20
143.8218918587
 30
0.0
 40
3.0
  1
7
  7
SEACAD_SEISO_TTF
 11
54.3096652194
 21
146.8218918587
 31
0.0
100
AcDbText
 73
     3
  0
ENDBLK
  5
125
330
11D
100
AcDbEntity
  8
0
100
AcDbBlockEnd
  0
BLOCK
  5
12E
330
126
100
AcDbEntity
  8
0
100
AcDbBlockBegin
  2
SE14
 70
     0
 71
     0
 10
0.0
 20
0.0
 30
0.0
  3
SE14
  1

  0
POLYLINE
  5
128
330
126
100
AcDbEntity
  8
DEFAULT
  6
CONTINUOUS
 62
     7
 48
25.4
100
AcDb2dPolyline
 66
     1
 10
0.0
 20
0.0
 30
0.0
 70
     1
  0
VERTEX
  5
1B0
330
128
100
AcDbEntity
  8
DEFAULT
  6
CONTINUOUS
 62
     7
100
AcDbVertex
100
AcDb2dVertex
 10
32.5271356545
 20
5.4867427311
 30
0.0
  0
VERTEX
  5
1B1
330
128
100
AcDbEntity
  8
DEFAULT
  6
CONTINUOUS
 62
     7
100
AcDbVertex
100
AcDb2dVertex
 10
29.5271356284
 20
5.9867427355
 30
0.0
  0
VERTEX
  5
1B2
330
128
100
AcDbEntity
  8
DEFAULT
  6
CONTINUOUS
 62
     7
100
AcDbVertex
100
AcDb2dVertex
 10
32.5271356545
 20
6.4867427398
 30
0.0
  0
VERTEX
  5
1B3
330
128
100
AcDbEntity
  8
DEFAULT
  6
CONTINUOUS
 62
     7
100
AcDbVertex
100
AcDb2dVertex
 10
32.5271356545
 20
5.4867427311
 30
0.0
  0
SEQEND
  5
1AF
330
128
100
AcDbEntity
  8
DEFAULT
  6
CONTINUOUS
 62
     7
 48
25.4
  0
POLYLINE
  5
129
330
126
100
AcDbEntity
  8
DEFAULT
  6
CONTINUOUS
 62
     7
 48
25.4
100
AcDb2dPolyline
 66
     1
 10
0.0
 20
0.0
 30
0.0
 70
     1
  0
VERTEX
  5
1B5
330
129
100
AcDbEntity
  8
DEFAULT
  6
CONTINUOUS
 62
     7
100
AcDbVertex
100
AcDb2dVertex
 10
37.8271356023
 20
5.4867427311
 30
0.0
  0
VERTEX
  5
1B6
330
129
100
AcDbEntity
  8
DEFAULT
  6
CONTINUOUS
 62
     7
100
AcDbVertex
100
AcDb2dVertex
 10
40.8271356284
 20
5.9867427355
 30
0.0
  0
VERTEX
  5
1B7
330
129
100
AcDbEntity
  8
DEFAULT
  6
CONTINUOUS
 62
     7
100
AcDbVertex
100
AcDb2dVertex
 10
37.8271356023
 20
6.4867427398
 30
0.0
  0
VERTEX
  5
1B8
330
129
100
AcDbEntity
  8
DEFAULT
  6
CONTINUOUS
 62
     7
100
AcDbVertex
100
AcDb2dVertex
 10
37.8271356023
 20
5.4867427311
 30
0.0
  0
SEQEND
  5
1B4
330
129
100
AcDbEntity
  8
DEFAULT
  6
CONTINUOUS
 62
     7
 48
25.4
  0
LINE
  5
12A
330
126
100
AcDbEntity
  8
DEFAULT
  6
CONTINUOUS
 62
     7
 48
25.4
100
AcDbLine
 10
29.5271356284
 20
93.5178809469
 30
0.0
 11
29.5271356284
 21
4.4867427224
 31
0.0
  0
LINE
  5
12B
330
126
100
AcDbEntity
  8
DEFAULT
  6
CONTINUOUS
 62
     7
 48
25.4
100
AcDbLine
 10
40.8271356284
 20
55.1985100513
 30
0.0
 11
40.8271356284
 21
4.4867427224
 31
0.0
  0
LINE
  5
12C
330
126
100
AcDbEntity
  8
DEFAULT
  6
CONTINUOUS
 62
     7
 48
25.4
100
AcDbLine
 10
29.5271356284
 20
5.9867427355
 30
0.0
 11
40.8271359905
 21
5.9867427355
 31
0.0
  0
TEXT
  5
12D
330
126
100
AcDbEntity
  8
DEFAULT
  6
CONTINUOUS
 62
     7
 48
25.4
100
AcDbText
 10
31.1748630821
 20
6.7367427355
 30
0.0
 40
3.0
  1
10-14
  7
SEACAD_SEISO_TTF
 11
31.1748630821
 21
9.7367427355
 31
0.0
100
AcDbText
 73
     3
  0
ENDBLK
  5
12F
330
126
100
AcDbEntity
  8
0
100
AcDbBlockEnd
  0
BLOCK
  5
13A
330
130
100
AcDbEntity
  8
0
100
AcDbBlockBegin
  2
SE15
 70
     0
 71
     0
 10
0.0
 20
0.0
 30
0.0
  3
SE15
  1

  0
POLYLINE
  5
132
330
130
100
AcDbEntity
  8
DEFAULT
  6
CONTINUOUS
 62
     7
 48
25.4
100
AcDb2dPolyline
 66
     1
 10
0.0
 20
0.0
 30
0.0
 70
     1
  0
VERTEX
  5
1BA
330
132
100
AcDbEntity
  8
DEFAULT
  6
CONTINUOUS
 62
     7
100
AcDbVertex
100
AcDb2dVertex
 10
70.6368405366
 20
253.658969607
 30
0.0
  0
VERTEX
  5
1BB
330
132
100
AcDbEntity
  8
DEFAULT
  6
CONTINUOUS
 62
     7
100
AcDbVertex
100
AcDb2dVertex
 10
70.1368405322
 20
250.6589695809
 30
0.0
  0
VERTEX
  5
1BC
330
132
100
AcDbEntity
  8
DEFAULT
  6
CONTINUOUS
 62
     7
100
AcDbVertex
100
AcDb2dVertex
 10
69.6368405279
 20
253.658969607
 30
0.0
  0
VERTEX
  5
1BD
330
132
100
AcDbEntity
  8
DEFAULT
  6
CONTINUOUS
 62
     7
100
AcDbVertex
100
AcDb2dVertex
 10
70.6368405366
 20
253.658969607
 30
0.0
  0
SEQEND
  5
1B9
330
132
100
AcDbEntity
  8
DEFAULT
  6
CONTINUOUS
 62
     7
 48
25.4
  0
POLYLINE
  5
133
330
130
100
AcDbEntity
  8
DEFAULT
  6
CONTINUOUS
 62
     7
 48
25.4
100
AcDb2dPolyline
 66
     1
 10
0.0
 20
0.0
 30
0.0
 70
     1
  0
VERTEX
  5
1BF
330
133
100
AcDbEntity
  8
DEFAULT
  6
CONTINUOUS
 62
     7
100
AcDbVertex
100
AcDb2dVertex
 10
70.6368405366
 20
256.735788838
 30
0.0
  0
VERTEX
  5
1C0
330
133
100
AcDbEntity
  8
DEFAULT
  6
CONTINUOUS
 62
     7
100
AcDbVertex
100
AcDb2dVertex
 10
70.1368405322
 20
259.7357888641
 30
0.0
  0
VERTEX
  5
1C1
330
133
100
AcDbEntity
  8
DEFAULT
  6
CONTINUOUS
 62
     7
100
AcDbVertex
100
AcDb2dVertex
 10
69.6368405279
 20
256.735788838
 30
0.0
  0
VERTEX
  5
1C2
330
133
100
AcDbEntity
  8
DEFAULT
  6
CONTINUOUS
 62
     7
100
AcDbVertex
100
AcDb2dVertex
 10
70.6368405366
 20
256.735788838
 30
0.0
  0
SEQEND
  5
1BE
330
133
100
AcDbEntity
  8
DEFAULT
  6
CONTINUOUS
 62
     7
 48
25.4
  0
LINE
  5
134
330
130
100
AcDbEntity
  8
DEFAULT
  6
CONTINUOUS
 62
     7
 48
25.4
100
AcDbLine
 10
46.3218997071
 20
250.6589695809
 30
0.0
 11
71.6368405452
 21
250.6589695809
 31
0.0
  0
LINE
  5
135
330
130
100
AcDbEntity
  8
DEFAULT
  6
CONTINUOUS
 62
     7
 48
25.4
100
AcDbLine
 10
54.529753589
 20
259.7357888641
 30
0.0
 11
71.6368405452
 21
259.7357888641
 31
0.0
  0
LINE
  5
136
330
130
100
AcDbEntity
  8
DEFAULT
  6
CONTINUOUS
 62
     7
 48
25.4
100
AcDbLine
 10
70.1368405322
 20
250.6589695809
 30
0.0
 11
70.1368405322
 21
268.4056229887
 31
0.0
  0
TEXT
  5
137
330
130
100
AcDbEntity
  8
DEFAULT
  6
CONTINUOUS
 62
     7
 48
25.4
100
AcDbText
 10
69.3868405322
 20
265.5147135168
 30
0.0
 40
3.0
  1
9
 50
90.0
  7
SEACAD_SEISO_TTF
 11
66.3868405322
 21
265.5147135168
 31
0.0
100
AcDbText
 73
     3
  0
TEXT
  5
139
330
130
100
AcDbEntity
  8
DEFAULT
  6
CONTINUOUS
 62
     7
 48
25.4
100
AcDbText
 10
69.3868405322
 20
261.8741021631
 30
0.0
 40
3.0
  1
O
 50
90.0
  7
SEACAD_SEMECI1_TTF
 11
66.3868405322
 21
261.8741021631
 31
0.0
100
AcDbText
 73
     3
  0
ENDBLK
  5
13B
330
130
100
AcDbEntity
  8
0
100
AcDbBlockEnd
  0
ENDSEC
  0
SECTION
  2
ENTITIES
  0
INSERT
  5
2F
330
1F
100
AcDbEntity
  8
0
100
AcDbBlockReference
  2
SE
 10
0.0
 20
0.0
 30
0.0
  0
INSERT
  5
6E
330
1F
100
AcDbEntity
  8
0
100
AcDbBlockReference
  2
SE1
 10
0.0
 20
0.0
 30
0.0
  0
INSERT
  5
AC
330
1F
100
AcDbEntity
  8
0
100
AcDbBlockReference
  2
SE2
 10
0.0
 20
0.0
 30
0.0
  0
INSERT
  5
B7
330
1F
100
AcDbEntity
  8
0
100
AcDbBlockReference
  2
SE3
 10
0.0
 20
0.0
 30
0.0
  0
INSERT
  5
C1
330
1F
100
AcDbEntity
  8
0
100
AcDbBlockReference
  2
SE4
 10
0.0
 20
0.0
 30
0.0
  0
INSERT
  5
CB
330
1F
100
AcDbEntity
  8
0
100
AcDbBlockReference
  2
SE5
 10
0.0
 20
0.0
 30
0.0
  0
INSERT
  5
D5
330
1F
100
AcDbEntity
  8
0
100
AcDbBlockReference
  2
SE6
 10
0.0
 20
0.0
 30
0.0
  0
INSERT
  5
E0
330
1F
100
AcDbEntity
  8
0
100
AcDbBlockReference
  2
SE7
 10
0.0
 20
0.0
 30
0.0
  0
INSERT
  5
EA
330
1F
100
AcDbEntity
  8
0
100
AcDbBlockReference
  2
SE8
 10
0.0
 20
0.0
 30
0.0
  0
INSERT
  5
F4
330
1F
100
AcDbEntity
  8
0
100
AcDbBlockReference
  2
SE9
 10
0.0
 20
0.0
 30
0.0
  0
INSERT
  5
FF
330
1F
100
AcDbEntity
  8
0
100
AcDbBlockReference
  2
SE10
 10
0.0
 20
0.0
 30
0.0
  0
INSERT
  5
10A
330
1F
100
AcDbEntity
  8
0
100
AcDbBlockReference
  2
SE11
 10
0.0
 20
0.0
 30
0.0
  0
INSERT
  5
114
330
1F
100
AcDbEntity
  8
0
100
AcDbBlockReference
  2
SE12
 10
0.0
 20
0.0
 30
0.0
  0
INSERT
  5
11E
330
1F
100
AcDbEntity
  8
0
100
AcDbBlockReference
  2
SE13
 10
0.0
 20
0.0
 30
0.0
  0
INSERT
  5
127
330
1F
100
AcDbEntity
  8
0
100
AcDbBlockReference
  2
SE14
 10
0.0
 20
0.0
 30
0.0
  0
INSERT
  5
131
330
1F
100
AcDbEntity
  8
0
100
AcDbBlockReference
  2
SE15
 10
0.0
 20
0.0
 30
0.0
  0
ENDSEC
  0
SECTION
  2
OBJECTS
  0
DICTIONARY
  5
C
330
0
100
AcDbDictionary
  3
ACAD_GROUP
350
D
  3
ACAD_LAYOUT
350
1A
  3
ACAD_MLINESTYLE
350
17
  3
ACAD_PLOTSETTINGS
350
19
  3
ACAD_TABLESTYLE
350
2A
  3
ACDBVARIABLEDICTIONARY
350
2C
1001
ACAD
1000
TREAT_AS_HARD
1070
     0
  0
DICTIONARY
  5
1C3
330
29
100
AcDbDictionary
  3
ACAD_XREC_ROUNDTRIP
360
1C4
  0
DICTIONARY
  5
D
102
{ACAD_REACTORS
330
C
102
}
330
C
100
AcDbDictionary
1001
ACAD
1000
TREAT_AS_HARD
1070
     0
  0
DICTIONARY
  5
1A
102
{ACAD_REACTORS
330
C
102
}
330
C
100
AcDbDictionary
1001
ACAD
1000
TREAT_AS_HARD
1070
     0
  0
DICTIONARY
  5
17
102
{ACAD_REACTORS
330
C
102
}
330
C
100
AcDbDictionary
  3
STANDARD
350
18
1001
ACAD
1000
TREAT_AS_HARD
1070
     0
  0
DICTIONARY
  5
19
102
{ACAD_REACTORS
330
C
102
}
330
C
100
AcDbDictionary
1001
ACAD
1000
TREAT_AS_HARD
1070
     0
  0
DICTIONARY
  5
2A
102
{ACAD_REACTORS
330
C
102
}
330
C
100
AcDbDictionary
  3
STANDARD
350
2B
1001
ACAD
1000
TREAT_AS_HARD
1070
     0
  0
DICTIONARY
  5
2C
102
{ACAD_REACTORS
330
C
102
}
330
C
100
AcDbDictionary
  3
CTABLESTYLE
350
2D
1001
ACAD
1000
TREAT_AS_HARD
1070
     0
  0
XRECORD
  5
1C4
102
{ACAD_REACTORS
330
1C3
102
}
330
1C3
100
AcDbXrecord
102
UCS
 74
     0
 71
     1
 10
0.0
 20
0.0
 30
0.0
 10
1.0
 20
0.0
 30
0.0
 10
0.0
 20
1.0
 30
0.0
146
0.0
 79
     0
102
VIEW
281
     0
  0
MLINESTYLE
  5
18
102
{ACAD_REACTORS
330
17
102
}
330
17
100
AcDbMlineStyle
  2
Standard
 70
     0
  3

 62
   256
 51
90.0
 52
90.0
 71
     2
 49
0.5
 62
   256
  6
BYLAYER
 49
-0.5
 62
   256
  6
BYLAYER
  0
TABLESTYLE
  5
2B
102
{ACAD_REACTORS
330
2A
102
}
330
2A
100
AcDbTableStyle
  3
Standard
 70
     0
 71
     0
 40
0.06
 41
0.06
280
     0
281
     0
  7
STANDARD
140
0.18
170
     2
 62
     0
 63
     7
283
     0
274
    -2
284
     1
 64
     0
275
    -2
285
     1
 65
     0
276
    -2
286
     1
 66
     0
277
    -2
287
     1
 67
     0
278
    -2
288
     1
 68
     0
279
    -2
289
     1
 69
     0
  7
STANDARD
140
0.25
170
     5
 62
     0
 63
     7
283
     0
274
    -2
284
     1
 64
     0
275
    -2
285
     1
 65
     0
276
    -2
286
     1
 66
     0
277
    -2
287
     1
 67
     0
278
    -2
288
     1
 68
     0
279
    -2
289
     1
 69
     0
  7
STANDARD
140
0.18
170
     5
 62
     0
 63
     7
283
     0
274
    -2
284
     1
 64
     0
275
    -2
285
     1
 65
     0
276
    -2
286
     1
 66
     0
277
    -2
287
     1
 67
     0
278
    -2
288
     1
 68
     0
279
    -2
289
     1
 69
     0
  0
DICTIONARYVAR
  5
2D
102
{ACAD_REACTORS
330
2C
102
}
330
2C
100
DictionaryVariables
280
     0
  1
Standard
  0
ENDSEC
  0
EOF
