  0
SECTION
  2
HEADER
  9
$ACADVER
  1
AC1012
  9
$DWGCODEPAGE
  3
ansi_1252
  9
$INSBASE
 10
0.0
 20
0.0
 30
0.0
  9
$EXTMIN
 10
0.0
 20
0.0
 30
0.0
  9
$EXTMAX
 10
210.0
 20
297.0
 30
0.0
  9
$LIMMIN
 10
0.0
 20
0.0
  9
$LIMMAX
 10
210.0
 20
297.0
  9
$ORTHOMODE
 70
     0
  9
$REGENMODE
 70
     1
  9
$FILLMODE
 70
     1
  9
$QTEXTMODE
 70
     0
  9
$MIRRTEXT
 70
     1
  9
$DRAGMODE
 70
     2
  9
$LTSCALE
 40
1.0
  9
$OSMODE
 70
    37
  9
$ATTMODE
 70
     1
  9
$TEXTSIZE
 40
0.2
  9
$TRACEWID
 40
0.05
  9
$TEXTSTYLE
  7
STANDARD
  9
$CLAYER
  8
0
  9
$CELTYPE
  6
BYLAYER
  9
$CECOLOR
 62
   256
  9
$CELTSCALE
 40
25.4
  9
$DELOBJ
 70
     1
  9
$DISPSILH
 70
     0
  9
$DIMSCALE
 40
1.0
  9
$DIMASZ
 40
0.18
  9
$DIMEXO
 40
0.0625
  9
$DIMDLI
 40
0.38
  9
$DIMRND
 40
0.0
  9
$DIMDLE
 40
0.0
  9
$DIMEXE
 40
0.18
  9
$DIMTP
 40
0.0
  9
$DIMTM
 40
0.0
  9
$DIMTXT
 40
0.18
  9
$DIMCEN
 40
0.09
  9
$DIMTSZ
 40
0.0
  9
$DIMTOL
 70
     0
  9
$DIMLIM
 70
     0
  9
$DIMTIH
 70
     1
  9
$DIMTOH
 70
     1
  9
$DIMSE1
 70
     0
  9
$DIMSE2
 70
     0
  9
$DIMTAD
 70
     0
  9
$DIMZIN
 70
     0
  9
$DIMBLK
  1

  9
$DIMASO
 70
     1
  9
$DIMSHO
 70
     1
  9
$DIMPOST
  1

  9
$DIMAPOST
  1

  9
$DIMALT
 70
     0
  9
$DIMALTD
 70
     2
  9
$DIMALTF
 40
25.4
  9
$DIMLFAC
 40
1.0
  9
$DIMTOFL
 70
     0
  9
$DIMTVP
 40
0.0
  9
$DIMTIX
 70
     0
  9
$DIMSOXD
 70
     0
  9
$DIMSAH
 70
     0
  9
$DIMBLK1
  1

  9
$DIMBLK2
  1

  9
$DIMSTYLE
  2
STANDARD
  9
$DIMCLRD
 70
     0
  9
$DIMCLRE
 70
     0
  9
$DIMCLRT
 70
     0
  9
$DIMTFAC
 40
1.0
  9
$DIMGAP
 40
0.09
  9
$DIMJUST
 70
     0
  9
$DIMSD1
 70
     0
  9
$DIMSD2
 70
     0
  9
$DIMTOLJ
 70
     1
  9
$DIMTZIN
 70
     0
  9
$DIMALTZ
 70
     0
  9
$DIMALTTZ
 70
     0
  9
$DIMFIT
 70
     3
  9
$DIMUPT
 70
     0
  9
$DIMUNIT
 70
     2
  9
$DIMDEC
 70
     4
  9
$DIMTDEC
 70
     4
  9
$DIMALTU
 70
     2
  9
$DIMALTTD
 70
     2
  9
$DIMTXSTY
  7
STANDARD
  9
$DIMAUNIT
 70
     0
  9
$LUNITS
 70
     2
  9
$LUPREC
 70
     4
  9
$SKETCHINC
 40
0.1
  9
$FILLETRAD
 40
0.5
  9
$AUNITS
 70
     0
  9
$AUPREC
 70
     0
  9
$MENU
  1
.
  9
$ELEVATION
 40
0.0
  9
$PELEVATION
 40
0.0
  9
$THICKNESS
 40
0.0
  9
$LIMCHECK
 70
     0
  9
$CHAMFERA
 40
0.5
  9
$CHAMFERB
 40
0.5
  9
$CHAMFERC
 40
1.0
  9
$CHAMFERD
 40
0.0
  9
$SKPOLY
 70
     0
  9
$TDCREATE
 40
2453762.543619537
  9
$TDUPDATE
 40
2453762.543619548
  9
$TDINDWG
 40
0.0000000116
  9
$TDUSRTIMER
 40
0.0000000116
  9
$USRTIMER
 70
     1
  9
$ANGBASE
 50
0.0
  9
$ANGDIR
 70
     0
  9
$PDMODE
 70
     0
  9
$PDSIZE
 40
0.0
  9
$PLINEWID
 40
0.0
  9
$COORDS
 70
     1
  9
$SPLFRAME
 70
     0
  9
$SPLINETYPE
 70
     6
  9
$SPLINESEGS
 70
     8
  9
$ATTDIA
 70
     0
  9
$ATTREQ
 70
     1
  9
$HANDLING
 70
     1
  9
$HANDSEED
  5
139
  9
$SURFTAB1
 70
     6
  9
$SURFTAB2
 70
     6
  9
$SURFTYPE
 70
     6
  9
$SURFU
 70
     6
  9
$SURFV
 70
     6
  9
$UCSNAME
  2

  9
$UCSORG
 10
0.0
 20
0.0
 30
0.0
  9
$UCSXDIR
 10
1.0
 20
0.0
 30
0.0
  9
$UCSYDIR
 10
0.0
 20
1.0
 30
0.0
  9
$PUCSNAME
  2

  9
$PUCSORG
 10
0.0
 20
0.0
 30
0.0
  9
$PUCSXDIR
 10
1.0
 20
0.0
 30
0.0
  9
$PUCSYDIR
 10
0.0
 20
1.0
 30
0.0
  9
$USERI1
 70
     0
  9
$USERI2
 70
     0
  9
$USERI3
 70
     0
  9
$USERI4
 70
     0
  9
$USERI5
 70
     0
  9
$USERR1
 40
0.0
  9
$USERR2
 40
0.0
  9
$USERR3
 40
0.0
  9
$USERR4
 40
0.0
  9
$USERR5
 40
0.0
  9
$WORLDVIEW
 70
     1
  9
$SHADEDGE
 70
     3
  9
$SHADEDIF
 70
    70
  9
$TILEMODE
 70
     1
  9
$MAXACTVP
 70
    64
  9
$PINSBASE
 10
0.0
 20
0.0
 30
0.0
  9
$PLIMCHECK
 70
     0
  9
$PEXTMIN
 10
0.0
 20
0.0
 30
0.0
  9
$PEXTMAX
 10
210.0
 20
297.0
 30
0.0
  9
$PLIMMIN
 10
0.0
 20
0.0
  9
$PLIMMAX
 10
12.0
 20
9.0
  9
$UNITMODE
 70
     0
  9
$VISRETAIN
 70
     1
  9
$PLINEGEN
 70
     0
  9
$PSLTSCALE
 70
     1
  9
$TREEDEPTH
 70
  3020
  9
$PICKSTYLE
 70
     1
  9
$CMLSTYLE
  2
STANDARD
  9
$CMLJUST
 70
     0
  9
$CMLSCALE
 40
1.0
  9
$SAVEIMAGES
 70
     1
  0
ENDSEC
  0
SECTION
  2
CLASSES
  0
CLASS
  1
ACDBDICTIONARYWDFLT
  2
AcDbDictionaryWithDefault
  3
ObjectDBX Classes
 90
        0
280
     0
281
     0
  0
CLASS
  1
TABLESTYLE
  2
AcDbTableStyle
  3
ObjectDBX Classes
 90
     2047
280
     0
281
     0
  0
CLASS
  1
DICTIONARYVAR
  2
AcDbDictionaryVar
  3
ObjectDBX Classes
 90
        0
280
     0
281
     0
  0
CLASS
  1
XRECORD
  2
AcDbXrecord
  3
AutoCAD 2000
 90
    32768
280
     0
281
     0
  0
CLASS
  1
LWPOLYLINE
  2
AcDbPolyline
  3
AutoCAD 2000
 90
    32768
280
     0
281
     1
  0
CLASS
  1
HATCH
  2
AcDbHatch
  3
AutoCAD 2000
 90
    32768
280
     0
281
     1
  0
CLASS
  1
ACDBPLACEHOLDER
  2
AcDbPlaceHolder
  3
ObjectDBX Classes
 90
        0
280
     0
281
     0
  0
CLASS
  1
LAYOUT
  2
AcDbLayout
  3
ObjectDBX Classes
 90
        0
280
     0
281
     0
  0
ENDSEC
  0
SECTION
  2
TABLES
  0
TABLE
  2
VPORT
  5
8
330
0
100
AcDbSymbolTable
 70
     2
  0
VPORT
  5
29
102
{ACAD_XDICTIONARY
360
137
102
}
330
8
100
AcDbSymbolTableRecord
100
AcDbViewportTableRecord
  2
*ACTIVE
 70
     0
 10
0.0
 20
0.0
 11
1.0
 21
1.0
 12
10.4299065421
 22
4.5
 13
0.0
 23
0.0
 14
0.5
 24
0.5
 15
0.5
 25
0.5
 16
0.0
 26
0.0
 36
1.0
 17
0.0
 27
0.0
 37
0.0
 40
9.0
 41
1.9729729729
 42
50.0
 43
0.0
 44
0.0
 50
0.0
 51
0.0
 71
     0
 72
   100
 73
     1
 74
     3
 75
     0
 76
     0
 77
     0
 78
     0
  0
ENDTAB
  0
TABLE
  2
LTYPE
  5
5
330
0
100
AcDbSymbolTable
 70
     2
  0
LTYPE
  5
14
330
5
100
AcDbSymbolTableRecord
100
AcDbLinetypeTableRecord
  2
BYBLOCK
 70
     0
  3

 72
    65
 73
     0
 40
0.0
  0
LTYPE
  5
15
330
5
100
AcDbSymbolTableRecord
100
AcDbLinetypeTableRecord
  2
BYLAYER
 70
     0
  3

 72
    65
 73
     0
 40
0.0
  0
LTYPE
  5
16
330
5
100
AcDbSymbolTableRecord
100
AcDbLinetypeTableRecord
  2
CONTINUOUS
 70
     0
  3
Solid line
 72
    65
 73
     0
 40
0.0
  0
LTYPE
  5
31
330
5
100
AcDbSymbolTableRecord
100
AcDbLinetypeTableRecord
  2
CENTER2
 70
     0
  3
___ _ ___ _ ___ _ ___ _ ___ _ ___ _ ___ _ ___ _
 72
    65
 73
     4
 40
1.125
 49
0.75
 74
     4
 75
     0
340
0
 46
0.0
 50
0.0
 44
0.0
 45
0.0
 49
-0.125
 74
     4
 75
     0
340
0
 46
0.0
 50
0.0
 44
0.0
 45
0.0
 49
0.125
 74
     4
 75
     0
340
0
 46
0.0
 50
0.0
 44
0.0
 45
0.0
 49
-0.125
 74
     4
 75
     0
340
0
 46
0.0
 50
0.0
 44
0.0
 45
0.0
  0
ENDTAB
  0
TABLE
  2
LAYER
  5
2
330
0
100
AcDbSymbolTable
 70
     4
  0
LAYER
  5
10
330
2
100
AcDbSymbolTableRecord
100
AcDbLayerTableRecord
  2
0
 70
     0
 62
     7
  6
CONTINUOUS
  0
LAYER
  5
30
330
2
100
AcDbSymbolTableRecord
100
AcDbLayerTableRecord
  2
DEFAULT
 70
     0
 62
     7
  6
CONTINUOUS
  0
LAYER
  5
4A
330
2
100
AcDbSymbolTableRecord
100
AcDbLayerTableRecord
  2
MEGA_001848
 70
     0
 62
     7
  6
CONTINUOUS
  0
LAYER
  5
59
330
2
100
AcDbSymbolTableRecord
100
AcDbLayerTableRecord
  2
STANDARD
 70
     0
 62
     7
  6
CONTINUOUS
  0
ENDTAB
  0
TABLE
  2
STYLE
  5
3
330
0
100
AcDbSymbolTable
 70
     2
  0
STYLE
  5
11
330
3
100
AcDbSymbolTableRecord
100
AcDbTextStyleTableRecord
  2
STANDARD
 70
     0
 40
0.0
 41
1.0
 50
0.0
 71
     0
 42
0.2
  3
txt
  4

  0
STYLE
  5
7A
330
3
100
AcDbSymbolTableRecord
100
AcDbTextStyleTableRecord
  2
SEACAD_SEISO_TTF
 70
     0
 40
0.2
 41
1.0
 50
0.0
 71
     0
 42
0.2
  3
seiso.ttf
  4

  0
ENDTAB
  0
TABLE
  2
VIEW
  5
6
330
0
100
AcDbSymbolTable
 70
     0
  0
ENDTAB
  0
TABLE
  2
UCS
  5
7
330
0
100
AcDbSymbolTable
 70
     0
  0
ENDTAB
  0
TABLE
  2
APPID
  5
9
330
0
100
AcDbSymbolTable
 70
     1
  0
APPID
  5
12
330
9
100
AcDbSymbolTableRecord
100
AcDbRegAppTableRecord
  2
ACAD
 70
     0
  0
ENDTAB
  0
TABLE
  2
DIMSTYLE
  5
A
330
0
100
AcDbSymbolTable
 70
     1
  0
DIMSTYLE
105
27
330
A
100
AcDbSymbolTableRecord
100
AcDbDimStyleTableRecord
  2
STANDARD
 70
     0
  3

  4

  5

  6

  7

 40
1.0
 41
0.18
 42
0.0625
 43
0.38
 44
0.18
 45
0.0
 46
0.0
 47
0.0
 48
0.0
140
0.18
141
0.09
142
0.0
143
25.4
144
1.0
145
0.0
146
1.0
147
0.09
 71
     0
 72
     0
 73
     1
 74
     1
 75
     0
 76
     0
 77
     0
 78
     0
170
     0
171
     2
172
     0
173
     0
174
     0
175
     0
176
     0
177
     0
178
     0
270
     2
271
     4
272
     4
273
     2
274
     2
340
11
275
     0
280
     0
281
     0
282
     0
283
     1
284
     0
285
     0
286
     0
287
     3
288
     0
  0
ENDTAB
  0
TABLE
  2
BLOCK_RECORD
  5
1
330
0
100
AcDbSymbolTable
 70
    17
  0
BLOCK_RECORD
  5
1F
330
1
100
AcDbSymbolTableRecord
100
AcDbBlockTableRecord
  2
*MODEL_SPACE
  0
BLOCK_RECORD
  5
1B
330
1
100
AcDbSymbolTableRecord
100
AcDbBlockTableRecord
  2
*PAPER_SPACE
  0
BLOCK_RECORD
  5
2E
330
1
100
AcDbSymbolTableRecord
100
AcDbBlockTableRecord
  2
SE
  0
BLOCK_RECORD
  5
36
330
1
100
AcDbSymbolTableRecord
100
AcDbBlockTableRecord
  2
SE1
  0
BLOCK_RECORD
  5
3C
330
1
100
AcDbSymbolTableRecord
100
AcDbBlockTableRecord
  2
SE2
  0
BLOCK_RECORD
  5
42
330
1
100
AcDbSymbolTableRecord
100
AcDbBlockTableRecord
  2
SE3
  0
BLOCK_RECORD
  5
48
330
1
100
AcDbSymbolTableRecord
100
AcDbBlockTableRecord
  2
SE4
  0
BLOCK_RECORD
  5
60
330
1
100
AcDbSymbolTableRecord
100
AcDbBlockTableRecord
  2
SE5
  0
BLOCK_RECORD
  5
74
330
1
100
AcDbSymbolTableRecord
100
AcDbBlockTableRecord
  2
SE6
  0
BLOCK_RECORD
  5
7E
330
1
100
AcDbSymbolTableRecord
100
AcDbBlockTableRecord
  2
SE7
  0
BLOCK_RECORD
  5
88
330
1
100
AcDbSymbolTableRecord
100
AcDbBlockTableRecord
  2
SE8
  0
BLOCK_RECORD
  5
92
330
1
100
AcDbSymbolTableRecord
100
AcDbBlockTableRecord
  2
SE9
  0
BLOCK_RECORD
  5
9C
330
1
100
AcDbSymbolTableRecord
100
AcDbBlockTableRecord
  2
SE10
  0
BLOCK_RECORD
  5
A6
330
1
100
AcDbSymbolTableRecord
100
AcDbBlockTableRecord
  2
SE11
  0
BLOCK_RECORD
  5
B0
330
1
100
AcDbSymbolTableRecord
100
AcDbBlockTableRecord
  2
SE12
  0
BLOCK_RECORD
  5
BA
330
1
100
AcDbSymbolTableRecord
100
AcDbBlockTableRecord
  2
SE13
  0
BLOCK_RECORD
  5
C4
330
1
100
AcDbSymbolTableRecord
100
AcDbBlockTableRecord
  2
SE14
  0
BLOCK_RECORD
  5
CE
330
1
100
AcDbSymbolTableRecord
100
AcDbBlockTableRecord
  2
SE15
  0
ENDTAB
  0
ENDSEC
  0
SECTION
  2
BLOCKS
  0
BLOCK
  5
20
330
1F
100
AcDbEntity
  8
0
100
AcDbBlockBegin
  2
*MODEL_SPACE
 70
     0
 71
     0
 10
0.0
 20
0.0
 30
0.0
  3
*MODEL_SPACE
  1

  0
ENDBLK
  5
21
330
1F
100
AcDbEntity
  8
0
100
AcDbBlockEnd
  0
BLOCK
  5
1C
330
1B
100
AcDbEntity
 67
     1
  8
0
100
AcDbBlockBegin
  2
*PAPER_SPACE
 70
     0
 71
     0
 10
0.0
 20
0.0
 30
0.0
  3
*PAPER_SPACE
  1

  0
ENDBLK
  5
1D
330
1B
100
AcDbEntity
 67
     1
  8
0
100
AcDbBlockEnd
  0
BLOCK
  5
34
330
2E
100
AcDbEntity
  8
0
100
AcDbBlockBegin
  2
SE
 70
     0
 71
     0
 10
0.0
 20
0.0
 30
0.0
  3
SE
  1

  0
LINE
  5
32
330
2E
100
AcDbEntity
  8
DEFAULT
  6
CENTER2
 62
     7
 48
25.4
100
AcDbLine
 10
80.7920176218
 20
232.0404626219
 30
0.0
 11
68.7920175175
 21
232.0404626219
 31
0.0
  0
LINE
  5
33
330
2E
100
AcDbEntity
  8
DEFAULT
  6
CENTER2
 62
     7
 48
25.4
100
AcDbLine
 10
74.7920175697
 20
238.0404626741
 30
0.0
 11
74.7920175697
 21
226.0404625697
 31
0.0
  0
ENDBLK
  5
35
330
2E
100
AcDbEntity
  8
0
100
AcDbBlockEnd
  0
BLOCK
  5
3A
330
36
100
AcDbEntity
  8
0
100
AcDbBlockBegin
  2
SE1
 70
     0
 71
     0
 10
0.0
 20
0.0
 30
0.0
  3
SE1
  1

  0
LINE
  5
38
330
36
100
AcDbEntity
  8
DEFAULT
  6
CENTER2
 62
     7
 48
25.4
100
AcDbLine
 10
100.7920176218
 20
232.0404626219
 30
0.0
 11
88.7920175175
 21
232.0404626219
 31
0.0
  0
LINE
  5
39
330
36
100
AcDbEntity
  8
DEFAULT
  6
CENTER2
 62
     7
 48
25.4
100
AcDbLine
 10
94.7920175697
 20
238.0404626741
 30
0.0
 11
94.7920175697
 21
226.0404625697
 31
0.0
  0
ENDBLK
  5
3B
330
36
100
AcDbEntity
  8
0
100
AcDbBlockEnd
  0
BLOCK
  5
40
330
3C
100
AcDbEntity
  8
0
100
AcDbBlockBegin
  2
SE2
 70
     0
 71
     0
 10
0.0
 20
0.0
 30
0.0
  3
SE2
  1

  0
LINE
  5
3E
330
3C
100
AcDbEntity
  8
DEFAULT
  6
CENTER2
 62
     7
 48
25.4
100
AcDbLine
 10
100.7920176218
 20
54.0404626219
 30
0.0
 11
88.7920175175
 21
54.0404626219
 31
0.0
  0
LINE
  5
3F
330
3C
100
AcDbEntity
  8
DEFAULT
  6
CENTER2
 62
     7
 48
25.4
100
AcDbLine
 10
94.7920175697
 20
60.0404626741
 30
0.0
 11
94.7920175697
 21
48.0404625697
 31
0.0
  0
ENDBLK
  5
41
330
3C
100
AcDbEntity
  8
0
100
AcDbBlockEnd
  0
BLOCK
  5
46
330
42
100
AcDbEntity
  8
0
100
AcDbBlockBegin
  2
SE3
 70
     0
 71
     0
 10
0.0
 20
0.0
 30
0.0
  3
SE3
  1

  0
LINE
  5
44
330
42
100
AcDbEntity
  8
DEFAULT
  6
CENTER2
 62
     7
 48
25.4
100
AcDbLine
 10
80.7920176218
 20
54.0404626219
 30
0.0
 11
68.7920175175
 21
54.0404626219
 31
0.0
  0
LINE
  5
45
330
42
100
AcDbEntity
  8
DEFAULT
  6
CENTER2
 62
     7
 48
25.4
100
AcDbLine
 10
74.7920175697
 20
60.0404626741
 30
0.0
 11
74.7920175697
 21
48.0404625697
 31
0.0
  0
ENDBLK
  5
47
330
42
100
AcDbEntity
  8
0
100
AcDbBlockEnd
  0
BLOCK
  5
5E
330
48
100
AcDbEntity
  8
0
100
AcDbBlockBegin
  2
SE4
 70
     0
 71
     0
 10
0.0
 20
0.0
 30
0.0
  3
SE4
  1

  0
CIRCLE
  5
4B
330
48
100
AcDbEntity
  8
MEGA_001848
  6
CONTINUOUS
 62
     7
 48
25.4
100
AcDbCircle
 10
84.7920175697
 20
172.0404626219
 30
0.0
 40
9.049999999999997
  0
ARC
  5
4C
330
48
100
AcDbEntity
  8
MEGA_001848
  6
CONTINUOUS
 62
     7
 48
25.4
100
AcDbCircle
 10
84.7920175697
 20
58.5404626219
 30
0.0
 40
17.5
100
AcDbArc
 50
180.0
 51
360.0
  0
LINE
  5
4D
330
48
100
AcDbEntity
  8
MEGA_001848
  6
CONTINUOUS
 62
     7
 48
25.4
100
AcDbLine
 10
102.2920175697
 20
227.5404626219
 30
0.0
 11
102.2920175697
 21
58.5404626219
 31
0.0
  0
CIRCLE
  5
4E
330
48
100
AcDbEntity
  8
MEGA_001848
  6
CONTINUOUS
 62
     7
 48
25.4
100
AcDbCircle
 10
74.7920175697
 20
232.0404626219
 30
0.0
 40
3.099999999999994
  0
CIRCLE
  5
4F
330
48
100
AcDbEntity
  8
MEGA_001848
  6
CONTINUOUS
 62
     7
 48
25.4
100
AcDbCircle
 10
84.7920175697
 20
172.0404626219
 30
0.0
 40
9.549999999999985
  0
CIRCLE
  5
50
330
48
100
AcDbEntity
  8
MEGA_001848
  6
CONTINUOUS
 62
     7
 48
25.4
100
AcDbCircle
 10
94.7920175697
 20
54.0404626219
 30
0.0
 40
1.75
  0
CIRCLE
  5
51
330
48
100
AcDbEntity
  8
MEGA_001848
  6
CONTINUOUS
 62
     7
 48
25.4
100
AcDbCircle
 10
74.7920175697
 20
232.0404626219
 30
0.0
 40
1.75
  0
CIRCLE
  5
52
330
48
100
AcDbEntity
  8
MEGA_001848
  6
CONTINUOUS
 62
     7
 48
25.4
100
AcDbCircle
 10
74.7920175697
 20
54.0404626219
 30
0.0
 40
1.75
  0
CIRCLE
  5
53
330
48
100
AcDbEntity
  8
MEGA_001848
  6
CONTINUOUS
 62
     7
 48
25.4
100
AcDbCircle
 10
94.7920175697
 20
54.0404626219
 30
0.0
 40
3.099999999999981
  0
CIRCLE
  5
54
330
48
100
AcDbEntity
  8
MEGA_001848
  6
CONTINUOUS
 62
     7
 48
25.4
100
AcDbCircle
 10
74.7920175697
 20
54.0404626219
 30
0.0
 40
3.099999999999994
  0
CIRCLE
  5
55
330
48
100
AcDbEntity
  8
MEGA_001848
  6
CONTINUOUS
 62
     7
 48
25.4
100
AcDbCircle
 10
94.7920175697
 20
232.0404626219
 30
0.0
 40
3.099999999999994
  0
CIRCLE
  5
56
330
48
100
AcDbEntity
  8
MEGA_001848
  6
CONTINUOUS
 62
     7
 48
25.4
100
AcDbCircle
 10
94.7920175697
 20
232.0404626219
 30
0.0
 40
1.75
  0
LINE
  5
57
330
48
100
AcDbEntity
  8
MEGA_001848
  6
CONTINUOUS
 62
     7
 48
25.4
100
AcDbLine
 10
67.2920175697
 20
58.5404626219
 30
0.0
 11
67.2920175697
 21
227.5404626219
 31
0.0
  0
ARC
  5
58
330
48
100
AcDbEntity
  8
MEGA_001848
  6
CONTINUOUS
 62
     7
 48
25.4
100
AcDbCircle
 10
84.7920175697
 20
227.5404626219
 30
0.0
 40
17.5
100
AcDbArc
 50
0.0
 51
180.0
  0
LINE
  5
5A
330
48
100
AcDbEntity
  8
STANDARD
  6
CENTER2
 62
     7
 48
25.4
100
AcDbLine
 10
84.7920175697
 20
245.0404626219
 30
0.0
 11
84.7920175697
 21
41.0404626219
 31
0.0
  0
LINE
  5
5B
330
48
100
AcDbEntity
  8
STANDARD
  6
CENTER2
 62
     7
 48
25.4
100
AcDbLine
 10
84.7920175697
 20
245.0404626219
 30
0.0
 11
84.7920175697
 21
248.9511588138
 31
0.0
  0
LINE
  5
5C
330
48
100
AcDbEntity
  8
STANDARD
  6
CENTER2
 62
     7
 48
25.4
100
AcDbLine
 10
84.7920175697
 20
41.0404626219
 30
0.0
 11
84.7920175697
 21
36.9868899641
 31
0.0
  0
LINE
  5
5D
330
48
100
AcDbEntity
  8
STANDARD
  6
CENTER2
 62
     7
 48
25.4
100
AcDbLine
 10
84.7920175697
 20
172.0404626219
 30
0.0
 11
98.9008532092
 21
172.0404626219
 31
0.0
  0
ENDBLK
  5
5F
330
48
100
AcDbEntity
  8
0
100
AcDbBlockEnd
  0
BLOCK
  5
72
330
60
100
AcDbEntity
  8
0
100
AcDbBlockBegin
  2
SE5
 70
     0
 71
     0
 10
0.0
 20
0.0
 30
0.0
  3
SE5
  1

  0
LINE
  5
62
330
60
100
AcDbEntity
  8
MEGA_001848
  6
CONTINUOUS
 62
     7
 48
25.4
100
AcDbLine
 10
134.2395648252
 20
161.0156301379
 30
0.0
 11
138.0657328033
 21
160.815109171
 31
0.0
  0
ARC
  5
63
330
60
100
AcDbEntity
  8
MEGA_001848
  6
CONTINUOUS
 62
     7
 48
25.4
100
AcDbCircle
 10
134.2657328033
 20
182.5659803385
 30
0.0
 40
0.5
100
AcDbArc
 50
93.0
 51
180.0
  0
ARC
  5
64
330
60
100
AcDbEntity
  8
MEGA_001848
  6
CONTINUOUS
 62
     7
 48
25.4
100
AcDbCircle
 10
141.2657328033
 20
42.9331762181
 30
0.0
 40
1.0
100
AcDbArc
 50
285.0
 51
360.0
  0
LINE
  5
65
330
60
100
AcDbEntity
  8
MEGA_001848
  6
CONTINUOUS
 62
     7
 48
25.4
100
AcDbLine
 10
138.0657328033
 20
41.0404626219
 30
0.0
 11
141.5245518484
 21
41.9672503918
 31
0.0
  0
LINE
  5
66
330
60
100
AcDbEntity
  8
MEGA_001848
  6
CONTINUOUS
 62
     7
 48
25.4
100
AcDbLine
 10
138.0657328033
 20
183.2658160728
 30
0.0
 11
134.2395648252
 21
183.0652951059
 31
0.0
  0
ARC
  5
67
330
60
100
AcDbEntity
  8
MEGA_001848
  6
CONTINUOUS
 62
     7
 48
25.4
100
AcDbCircle
 10
141.2657328033
 20
243.1477490257
 30
0.0
 40
1.0
100
AcDbArc
 50
0.0
 51
75.0
  0
LINE
  5
68
330
60
100
AcDbEntity
  8
MEGA_001848
  6
CONTINUOUS
 62
     7
 48
25.4
100
AcDbLine
 10
141.5245518484
 20
244.113674852
 30
0.0
 11
138.0657328033
 21
245.0404626219
 31
0.0
  0
ARC
  5
69
330
60
100
AcDbEntity
  8
MEGA_001848
  6
CONTINUOUS
 62
     7
 48
25.4
100
AcDbCircle
 10
134.2657328033
 20
161.5149449053
 30
0.0
 40
0.5
100
AcDbArc
 50
180.0
 51
267.0
  0
LINE
  5
6A
330
60
100
AcDbEntity
  8
MEGA_001848
  6
CONTINUOUS
 62
     7
 48
25.4
100
AcDbLine
 10
142.2657328033
 20
227.5404626219
 30
0.0
 11
142.2657328033
 21
243.1477490257
 31
0.0
  0
LINE
  5
6B
330
60
100
AcDbEntity
  8
MEGA_001848
  6
CONTINUOUS
 62
     7
 48
25.4
100
AcDbLine
 10
142.2657328033
 20
58.5404626219
 30
0.0
 11
142.2657328033
 21
42.9331762181
 31
0.0
  0
LINE
  5
6C
330
60
100
AcDbEntity
  8
MEGA_001848
  6
CONTINUOUS
 62
     7
 48
25.4
100
AcDbLine
 10
142.2657328033
 20
227.5404626219
 30
0.0
 11
142.2657328033
 21
58.5404626219
 31
0.0
  0
LINE
  5
6D
330
60
100
AcDbEntity
  8
MEGA_001848
  6
CONTINUOUS
 62
     7
 48
25.4
100
AcDbLine
 10
138.0657328033
 20
41.0404626219
 30
0.0
 11
138.0657328033
 21
58.5404626219
 31
0.0
  0
LINE
  5
6E
330
60
100
AcDbEntity
  8
MEGA_001848
  6
CONTINUOUS
 62
     7
 48
25.4
100
AcDbLine
 10
133.7657328033
 20
182.5659803385
 30
0.0
 11
133.7657328033
 21
161.5149449053
 31
0.0
  0
LINE
  5
6F
330
60
100
AcDbEntity
  8
MEGA_001848
  6
CONTINUOUS
 62
     7
 48
25.4
100
AcDbLine
 10
138.0657328033
 20
245.0404626219
 30
0.0
 11
138.0657328033
 21
227.5404626219
 31
0.0
  0
LINE
  5
70
330
60
100
AcDbEntity
  8
MEGA_001848
  6
CONTINUOUS
 62
     7
 48
25.4
100
AcDbLine
 10
138.0657328033
 20
58.5404626219
 30
0.0
 11
138.0657328033
 21
227.5404626219
 31
0.0
  0
LINE
  5
71
330
60
100
AcDbEntity
  8
STANDARD
  6
CENTER2
 62
     7
 48
25.4
100
AcDbLine
 10
133.7657328033
 20
172.0404626219
 30
0.0
 11
142.2657328033
 21
172.0404626219
 31
0.0
  0
ENDBLK
  5
73
330
60
100
AcDbEntity
  8
0
100
AcDbBlockEnd
  0
BLOCK
  5
7C
330
74
100
AcDbEntity
  8
0
100
AcDbBlockBegin
  2
SE6
 70
     0
 71
     0
 10
0.0
 20
0.0
 30
0.0
  3
SE6
  1

  0
POLYLINE
  5
76
330
74
100
AcDbEntity
  8
DEFAULT
  6
CONTINUOUS
 62
     7
 48
25.4
100
AcDb2dPolyline
 66
     1
 10
0.0
 20
0.0
 30
0.0
 70
     1
  0
VERTEX
  5
D9
330
76
100
AcDbEntity
  8
DEFAULT
  6
CONTINUOUS
 62
     7
100
AcDbVertex
100
AcDb2dVertex
 10
37.7212657493
 20
44.040462648
 30
0.0
  0
VERTEX
  5
DA
330
76
100
AcDbEntity
  8
DEFAULT
  6
CONTINUOUS
 62
     7
100
AcDbVertex
100
AcDb2dVertex
 10
38.2212657536
 20
41.0404626219
 30
0.0
  0
VERTEX
  5
DB
330
76
100
AcDbEntity
  8
DEFAULT
  6
CONTINUOUS
 62
     7
100
AcDbVertex
100
AcDb2dVertex
 10
38.721265758
 20
44.040462648
 30
0.0
  0
VERTEX
  5
DC
330
76
100
AcDbEntity
  8
DEFAULT
  6
CONTINUOUS
 62
     7
100
AcDbVertex
100
AcDb2dVertex
 10
37.7212657493
 20
44.040462648
 30
0.0
  0
SEQEND
  5
D8
330
76
100
AcDbEntity
  8
DEFAULT
  6
CONTINUOUS
 62
     7
 48
25.4
  0
LINE
  5
77
330
74
100
AcDbEntity
  8
DEFAULT
  6
CONTINUOUS
 62
     7
 48
25.4
100
AcDbLine
 10
84.7920175697
 20
245.0404626219
 30
0.0
 11
36.7212657406
 21
245.0404626219
 31
0.0
  0
LINE
  5
78
330
74
100
AcDbEntity
  8
DEFAULT
  6
CONTINUOUS
 62
     7
 48
25.4
100
AcDbLine
 10
84.7920175697
 20
41.0404626219
 30
0.0
 11
36.7212657406
 21
41.0404626219
 31
0.0
  0
LINE
  5
79
330
74
100
AcDbEntity
  8
DEFAULT
  6
CONTINUOUS
 62
     7
 48
25.4
100
AcDbLine
 10
38.2212657536
 20
245.0404626219
 30
0.0
 11
38.2212657536
 21
41.0404664366
 31
0.0
  0
TEXT
  5
7B
330
74
100
AcDbEntity
  8
DEFAULT
  6
CONTINUOUS
 62
     7
 48
25.4
100
AcDbText
 10
37.4712657536
 20
140.3472827111
 30
0.0
 40
3.0
  1
204
 50
90.0
  7
SEACAD_SEISO_TTF
 11
34.4712657536
 21
140.3472827111
 31
0.0
100
AcDbText
 73
     3
  0
ENDBLK
  5
7D
330
74
100
AcDbEntity
  8
0
100
AcDbBlockEnd
  0
BLOCK
  5
86
330
7E
100
AcDbEntity
  8
0
100
AcDbBlockBegin
  2
SE7
 70
     0
 71
     0
 10
0.0
 20
0.0
 30
0.0
  3
SE7
  1

  0
POLYLINE
  5
80
330
7E
100
AcDbEntity
  8
DEFAULT
  6
CONTINUOUS
 62
     7
 48
25.4
100
AcDb2dPolyline
 66
     1
 10
0.0
 20
0.0
 30
0.0
 70
     1
  0
VERTEX
  5
DE
330
80
100
AcDbEntity
  8
DEFAULT
  6
CONTINUOUS
 62
     7
100
AcDbVertex
100
AcDb2dVertex
 10
46.4212975364
 20
175.040462648
 30
0.0
  0
VERTEX
  5
DF
330
80
100
AcDbEntity
  8
DEFAULT
  6
CONTINUOUS
 62
     7
100
AcDbVertex
100
AcDb2dVertex
 10
46.9212975408
 20
172.0404626219
 30
0.0
  0
VERTEX
  5
E0
330
80
100
AcDbEntity
  8
DEFAULT
  6
CONTINUOUS
 62
     7
100
AcDbVertex
100
AcDb2dVertex
 10
47.4212975451
 20
175.040462648
 30
0.0
  0
VERTEX
  5
E1
330
80
100
AcDbEntity
  8
DEFAULT
  6
CONTINUOUS
 62
     7
100
AcDbVertex
100
AcDb2dVertex
 10
46.4212975364
 20
175.040462648
 30
0.0
  0
SEQEND
  5
DD
330
80
100
AcDbEntity
  8
DEFAULT
  6
CONTINUOUS
 62
     7
 48
25.4
  0
POLYLINE
  5
81
330
7E
100
AcDbEntity
  8
DEFAULT
  6
CONTINUOUS
 62
     7
 48
25.4
100
AcDb2dPolyline
 66
     1
 10
0.0
 20
0.0
 30
0.0
 70
     1
  0
VERTEX
  5
E3
330
81
100
AcDbEntity
  8
DEFAULT
  6
CONTINUOUS
 62
     7
100
AcDbVertex
100
AcDb2dVertex
 10
46.4212975364
 20
242.0404625958
 30
0.0
  0
VERTEX
  5
E4
330
81
100
AcDbEntity
  8
DEFAULT
  6
CONTINUOUS
 62
     7
100
AcDbVertex
100
AcDb2dVertex
 10
46.9212975408
 20
245.0404626219
 30
0.0
  0
VERTEX
  5
E5
330
81
100
AcDbEntity
  8
DEFAULT
  6
CONTINUOUS
 62
     7
100
AcDbVertex
100
AcDb2dVertex
 10
47.4212975451
 20
242.0404625958
 30
0.0
  0
VERTEX
  5
E6
330
81
100
AcDbEntity
  8
DEFAULT
  6
CONTINUOUS
 62
     7
100
AcDbVertex
100
AcDb2dVertex
 10
46.4212975364
 20
242.0404625958
 30
0.0
  0
SEQEND
  5
E2
330
81
100
AcDbEntity
  8
DEFAULT
  6
CONTINUOUS
 62
     7
 48
25.4
  0
LINE
  5
82
330
7E
100
AcDbEntity
  8
DEFAULT
  6
CONTINUOUS
 62
     7
 48
25.4
100
AcDbLine
 10
84.7920175697
 20
172.0404626219
 30
0.0
 11
45.4212975277
 21
172.0404626219
 31
0.0
  0
LINE
  5
83
330
7E
100
AcDbEntity
  8
DEFAULT
  6
CONTINUOUS
 62
     7
 48
25.4
100
AcDbLine
 10
84.7920175697
 20
245.0404626219
 30
0.0
 11
45.4212975277
 21
245.0404626219
 31
0.0
  0
LINE
  5
84
330
7E
100
AcDbEntity
  8
DEFAULT
  6
CONTINUOUS
 62
     7
 48
25.4
100
AcDbLine
 10
46.9212975408
 20
172.0404626219
 30
0.0
 11
46.9212975408
 21
245.040461549
 31
0.0
  0
TEXT
  5
85
330
7E
100
AcDbEntity
  8
DEFAULT
  6
CONTINUOUS
 62
     7
 48
25.4
100
AcDbText
 10
46.1712975408
 20
206.8018257218
 30
0.0
 40
3.0
  1
73
 50
90.0
  7
SEACAD_SEISO_TTF
 11
43.1712975408
 21
206.8018257218
 31
0.0
100
AcDbText
 73
     3
  0
ENDBLK
  5
87
330
7E
100
AcDbEntity
  8
0
100
AcDbBlockEnd
  0
BLOCK
  5
90
330
88
100
AcDbEntity
  8
0
100
AcDbBlockBegin
  2
SE8
 70
     0
 71
     0
 10
0.0
 20
0.0
 30
0.0
  3
SE8
  1

  0
POLYLINE
  5
8A
330
88
100
AcDbEntity
  8
DEFAULT
  6
CONTINUOUS
 62
     7
 48
25.4
100
AcDb2dPolyline
 66
     1
 10
0.0
 20
0.0
 30
0.0
 70
     1
  0
VERTEX
  5
E8
330
8A
100
AcDbEntity
  8
DEFAULT
  6
CONTINUOUS
 62
     7
100
AcDbVertex
100
AcDb2dVertex
 10
54.0977946382
 20
175.040462648
 30
0.0
  0
VERTEX
  5
E9
330
8A
100
AcDbEntity
  8
DEFAULT
  6
CONTINUOUS
 62
     7
100
AcDbVertex
100
AcDb2dVertex
 10
54.5977946426
 20
172.0404626219
 30
0.0
  0
VERTEX
  5
EA
330
8A
100
AcDbEntity
  8
DEFAULT
  6
CONTINUOUS
 62
     7
100
AcDbVertex
100
AcDb2dVertex
 10
55.0977946469
 20
175.040462648
 30
0.0
  0
VERTEX
  5
EB
330
8A
100
AcDbEntity
  8
DEFAULT
  6
CONTINUOUS
 62
     7
100
AcDbVertex
100
AcDb2dVertex
 10
54.0977946382
 20
175.040462648
 30
0.0
  0
SEQEND
  5
E7
330
8A
100
AcDbEntity
  8
DEFAULT
  6
CONTINUOUS
 62
     7
 48
25.4
  0
POLYLINE
  5
8B
330
88
100
AcDbEntity
  8
DEFAULT
  6
CONTINUOUS
 62
     7
 48
25.4
100
AcDb2dPolyline
 66
     1
 10
0.0
 20
0.0
 30
0.0
 70
     1
  0
VERTEX
  5
ED
330
8B
100
AcDbEntity
  8
DEFAULT
  6
CONTINUOUS
 62
     7
100
AcDbVertex
100
AcDb2dVertex
 10
54.0977946382
 20
229.0404625958
 30
0.0
  0
VERTEX
  5
EE
330
8B
100
AcDbEntity
  8
DEFAULT
  6
CONTINUOUS
 62
     7
100
AcDbVertex
100
AcDb2dVertex
 10
54.5977946426
 20
232.0404626219
 30
0.0
  0
VERTEX
  5
EF
330
8B
100
AcDbEntity
  8
DEFAULT
  6
CONTINUOUS
 62
     7
100
AcDbVertex
100
AcDb2dVertex
 10
55.0977946469
 20
229.0404625958
 30
0.0
  0
VERTEX
  5
F0
330
8B
100
AcDbEntity
  8
DEFAULT
  6
CONTINUOUS
 62
     7
100
AcDbVertex
100
AcDb2dVertex
 10
54.0977946382
 20
229.0404625958
 30
0.0
  0
SEQEND
  5
EC
330
8B
100
AcDbEntity
  8
DEFAULT
  6
CONTINUOUS
 62
     7
 48
25.4
  0
LINE
  5
8C
330
88
100
AcDbEntity
  8
DEFAULT
  6
CONTINUOUS
 62
     7
 48
25.4
100
AcDbLine
 10
84.7920175697
 20
172.0404626219
 30
0.0
 11
53.0977946295
 21
172.0404626219
 31
0.0
  0
LINE
  5
8D
330
88
100
AcDbEntity
  8
DEFAULT
  6
CONTINUOUS
 62
     7
 48
25.4
100
AcDbLine
 10
74.7920175697
 20
232.0404626219
 30
0.0
 11
53.0977946295
 21
232.0404626219
 31
0.0
  0
LINE
  5
8E
330
88
100
AcDbEntity
  8
DEFAULT
  6
CONTINUOUS
 62
     7
 48
25.4
100
AcDbLine
 10
54.5977946426
 20
172.0404626219
 30
0.0
 11
54.5977946426
 21
232.0404612808
 31
0.0
  0
TEXT
  5
8F
330
88
100
AcDbEntity
  8
DEFAULT
  6
CONTINUOUS
 62
     7
 48
25.4
100
AcDbText
 10
53.8477946426
 20
200.2336437695
 30
0.0
 40
3.0
  1
60
 50
90.0
  7
SEACAD_SEISO_TTF
 11
50.8477946426
 21
200.2336437695
 31
0.0
100
AcDbText
 73
     3
  0
ENDBLK
  5
91
330
88
100
AcDbEntity
  8
0
100
AcDbBlockEnd
  0
BLOCK
  5
9A
330
92
100
AcDbEntity
  8
0
100
AcDbBlockBegin
  2
SE9
 70
     0
 71
     0
 10
0.0
 20
0.0
 30
0.0
  3
SE9
  1

  0
POLYLINE
  5
94
330
92
100
AcDbEntity
  8
DEFAULT
  6
CONTINUOUS
 62
     7
 48
25.4
100
AcDb2dPolyline
 66
     1
 10
0.0
 20
0.0
 30
0.0
 70
     1
  0
VERTEX
  5
F2
330
94
100
AcDbEntity
  8
DEFAULT
  6
CONTINUOUS
 62
     7
100
AcDbVertex
100
AcDb2dVertex
 10
54.0977946382
 20
169.0404625958
 30
0.0
  0
VERTEX
  5
F3
330
94
100
AcDbEntity
  8
DEFAULT
  6
CONTINUOUS
 62
     7
100
AcDbVertex
100
AcDb2dVertex
 10
54.5977946426
 20
172.0404626219
 30
0.0
  0
VERTEX
  5
F4
330
94
100
AcDbEntity
  8
DEFAULT
  6
CONTINUOUS
 62
     7
100
AcDbVertex
100
AcDb2dVertex
 10
55.0977946469
 20
169.0404625958
 30
0.0
  0
VERTEX
  5
F5
330
94
100
AcDbEntity
  8
DEFAULT
  6
CONTINUOUS
 62
     7
100
AcDbVertex
100
AcDb2dVertex
 10
54.0977946382
 20
169.0404625958
 30
0.0
  0
SEQEND
  5
F1
330
94
100
AcDbEntity
  8
DEFAULT
  6
CONTINUOUS
 62
     7
 48
25.4
  0
POLYLINE
  5
95
330
92
100
AcDbEntity
  8
DEFAULT
  6
CONTINUOUS
 62
     7
 48
25.4
100
AcDb2dPolyline
 66
     1
 10
0.0
 20
0.0
 30
0.0
 70
     1
  0
VERTEX
  5
F7
330
95
100
AcDbEntity
  8
DEFAULT
  6
CONTINUOUS
 62
     7
100
AcDbVertex
100
AcDb2dVertex
 10
54.0977946382
 20
57.040462648
 30
0.0
  0
VERTEX
  5
F8
330
95
100
AcDbEntity
  8
DEFAULT
  6
CONTINUOUS
 62
     7
100
AcDbVertex
100
AcDb2dVertex
 10
54.5977946426
 20
54.0404626219
 30
0.0
  0
VERTEX
  5
F9
330
95
100
AcDbEntity
  8
DEFAULT
  6
CONTINUOUS
 62
     7
100
AcDbVertex
100
AcDb2dVertex
 10
55.0977946469
 20
57.040462648
 30
0.0
  0
VERTEX
  5
FA
330
95
100
AcDbEntity
  8
DEFAULT
  6
CONTINUOUS
 62
     7
100
AcDbVertex
100
AcDb2dVertex
 10
54.0977946382
 20
57.040462648
 30
0.0
  0
SEQEND
  5
F6
330
95
100
AcDbEntity
  8
DEFAULT
  6
CONTINUOUS
 62
     7
 48
25.4
  0
LINE
  5
96
330
92
100
AcDbEntity
  8
DEFAULT
  6
CONTINUOUS
 62
     7
 48
25.4
100
AcDbLine
 10
84.7920175697
 20
172.0404626219
 30
0.0
 11
53.0977946295
 21
172.0404626219
 31
0.0
  0
LINE
  5
97
330
92
100
AcDbEntity
  8
DEFAULT
  6
CONTINUOUS
 62
     7
 48
25.4
100
AcDbLine
 10
74.7920175697
 20
54.0404626219
 30
0.0
 11
53.0977946295
 21
54.0404626219
 31
0.0
  0
LINE
  5
98
330
92
100
AcDbEntity
  8
DEFAULT
  6
CONTINUOUS
 62
     7
 48
25.4
100
AcDbLine
 10
54.5977946426
 20
172.0404626219
 30
0.0
 11
54.5977946426
 21
54.0404619066
 31
0.0
  0
TEXT
  5
99
330
92
100
AcDbEntity
  8
DEFAULT
  6
CONTINUOUS
 62
     7
 48
25.4
100
AcDbText
 10
53.8477946426
 20
110.8586440825
 30
0.0
 40
3.0
  1
118
 50
90.0
  7
SEACAD_SEISO_TTF
 11
50.8477946426
 21
110.8586440825
 31
0.0
100
AcDbText
 73
     3
  0
ENDBLK
  5
9B
330
92
100
AcDbEntity
  8
0
100
AcDbBlockEnd
  0
BLOCK
  5
A4
330
9C
100
AcDbEntity
  8
0
100
AcDbBlockBegin
  2
SE10
 70
     0
 71
     0
 10
0.0
 20
0.0
 30
0.0
  3
SE10
  1

  0
POLYLINE
  5
9E
330
9C
100
AcDbEntity
  8
DEFAULT
  6
CONTINUOUS
 62
     7
 48
25.4
100
AcDb2dPolyline
 66
     1
 10
0.0
 20
0.0
 30
0.0
 70
     1
  0
VERTEX
  5
FC
330
9E
100
AcDbEntity
  8
DEFAULT
  6
CONTINUOUS
 62
     7
100
AcDbVertex
100
AcDb2dVertex
 10
70.2920175957
 20
266.3644200993
 30
0.0
  0
VERTEX
  5
FD
330
9E
100
AcDbEntity
  8
DEFAULT
  6
CONTINUOUS
 62
     7
100
AcDbVertex
100
AcDb2dVertex
 10
67.2920175697
 20
265.8644200949
 30
0.0
  0
VERTEX
  5
FE
330
9E
100
AcDbEntity
  8
DEFAULT
  6
CONTINUOUS
 62
     7
100
AcDbVertex
100
AcDb2dVertex
 10
70.2920175957
 20
265.3644200906
 30
0.0
  0
VERTEX
  5
FF
330
9E
100
AcDbEntity
  8
DEFAULT
  6
CONTINUOUS
 62
     7
100
AcDbVertex
100
AcDb2dVertex
 10
70.2920175957
 20
266.3644200993
 30
0.0
  0
SEQEND
  5
FB
330
9E
100
AcDbEntity
  8
DEFAULT
  6
CONTINUOUS
 62
     7
 48
25.4
  0
POLYLINE
  5
9F
330
9C
100
AcDbEntity
  8
DEFAULT
  6
CONTINUOUS
 62
     7
 48
25.4
100
AcDb2dPolyline
 66
     1
 10
0.0
 20
0.0
 30
0.0
 70
     1
  0
VERTEX
  5
101
330
9F
100
AcDbEntity
  8
DEFAULT
  6
CONTINUOUS
 62
     7
100
AcDbVertex
100
AcDb2dVertex
 10
99.2920175436
 20
266.3644200993
 30
0.0
  0
VERTEX
  5
102
330
9F
100
AcDbEntity
  8
DEFAULT
  6
CONTINUOUS
 62
     7
100
AcDbVertex
100
AcDb2dVertex
 10
102.2920175697
 20
265.8644200949
 30
0.0
  0
VERTEX
  5
103
330
9F
100
AcDbEntity
  8
DEFAULT
  6
CONTINUOUS
 62
     7
100
AcDbVertex
100
AcDb2dVertex
 10
99.2920175436
 20
265.3644200906
 30
0.0
  0
VERTEX
  5
104
330
9F
100
AcDbEntity
  8
DEFAULT
  6
CONTINUOUS
 62
     7
100
AcDbVertex
100
AcDb2dVertex
 10
99.2920175436
 20
266.3644200993
 30
0.0
  0
SEQEND
  5
100
330
9F
100
AcDbEntity
  8
DEFAULT
  6
CONTINUOUS
 62
     7
 48
25.4
  0
LINE
  5
A0
330
9C
100
AcDbEntity
  8
DEFAULT
  6
CONTINUOUS
 62
     7
 48
25.4
100
AcDbLine
 10
67.2920175697
 20
227.5404626219
 30
0.0
 11
67.2920175697
 21
267.364420108
 31
0.0
  0
LINE
  5
A1
330
9C
100
AcDbEntity
  8
DEFAULT
  6
CONTINUOUS
 62
     7
 48
25.4
100
AcDbLine
 10
102.2920175697
 20
227.5404626219
 30
0.0
 11
102.2920175697
 21
267.364420108
 31
0.0
  0
LINE
  5
A2
330
9C
100
AcDbEntity
  8
DEFAULT
  6
CONTINUOUS
 62
     7
 48
25.4
100
AcDbLine
 10
67.2920175697
 20
265.8644200949
 30
0.0
 11
102.2920177187
 21
265.8644200949
 31
0.0
  0
TEXT
  5
A3
330
9C
100
AcDbEntity
  8
DEFAULT
  6
CONTINUOUS
 62
     7
 48
25.4
100
AcDbText
 10
83.1556540078
 20
266.6144200949
 30
0.0
 40
3.0
  1
35
  7
SEACAD_SEISO_TTF
 11
83.1556540078
 21
269.6144200949
 31
0.0
100
AcDbText
 73
     3
  0
ENDBLK
  5
A5
330
9C
100
AcDbEntity
  8
0
100
AcDbBlockEnd
  0
BLOCK
  5
AE
330
A6
100
AcDbEntity
  8
0
100
AcDbBlockBegin
  2
SE11
 70
     0
 71
     0
 10
0.0
 20
0.0
 30
0.0
  3
SE11
  1

  0
POLYLINE
  5
A8
330
A6
100
AcDbEntity
  8
DEFAULT
  6
CONTINUOUS
 62
     7
 48
25.4
100
AcDb2dPolyline
 66
     1
 10
0.0
 20
0.0
 30
0.0
 70
     1
  0
VERTEX
  5
106
330
A8
100
AcDbEntity
  8
DEFAULT
  6
CONTINUOUS
 62
     7
100
AcDbVertex
100
AcDb2dVertex
 10
77.7920175957
 20
257.1526248884
 30
0.0
  0
VERTEX
  5
107
330
A8
100
AcDbEntity
  8
DEFAULT
  6
CONTINUOUS
 62
     7
100
AcDbVertex
100
AcDb2dVertex
 10
74.7920175697
 20
256.6526248841
 30
0.0
  0
VERTEX
  5
108
330
A8
100
AcDbEntity
  8
DEFAULT
  6
CONTINUOUS
 62
     7
100
AcDbVertex
100
AcDb2dVertex
 10
77.7920175957
 20
256.1526248798
 30
0.0
  0
VERTEX
  5
109
330
A8
100
AcDbEntity
  8
DEFAULT
  6
CONTINUOUS
 62
     7
100
AcDbVertex
100
AcDb2dVertex
 10
77.7920175957
 20
257.1526248884
 30
0.0
  0
SEQEND
  5
105
330
A8
100
AcDbEntity
  8
DEFAULT
  6
CONTINUOUS
 62
     7
 48
25.4
  0
POLYLINE
  5
A9
330
A6
100
AcDbEntity
  8
DEFAULT
  6
CONTINUOUS
 62
     7
 48
25.4
100
AcDb2dPolyline
 66
     1
 10
0.0
 20
0.0
 30
0.0
 70
     1
  0
VERTEX
  5
10B
330
A9
100
AcDbEntity
  8
DEFAULT
  6
CONTINUOUS
 62
     7
100
AcDbVertex
100
AcDb2dVertex
 10
91.7920175436
 20
257.1526248884
 30
0.0
  0
VERTEX
  5
10C
330
A9
100
AcDbEntity
  8
DEFAULT
  6
CONTINUOUS
 62
     7
100
AcDbVertex
100
AcDb2dVertex
 10
94.7920175697
 20
256.6526248841
 30
0.0
  0
VERTEX
  5
10D
330
A9
100
AcDbEntity
  8
DEFAULT
  6
CONTINUOUS
 62
     7
100
AcDbVertex
100
AcDb2dVertex
 10
91.7920175436
 20
256.1526248798
 30
0.0
  0
VERTEX
  5
10E
330
A9
100
AcDbEntity
  8
DEFAULT
  6
CONTINUOUS
 62
     7
100
AcDbVertex
100
AcDb2dVertex
 10
91.7920175436
 20
257.1526248884
 30
0.0
  0
SEQEND
  5
10A
330
A9
100
AcDbEntity
  8
DEFAULT
  6
CONTINUOUS
 62
     7
 48
25.4
  0
LINE
  5
AA
330
A6
100
AcDbEntity
  8
DEFAULT
  6
CONTINUOUS
 62
     7
 48
25.4
100
AcDbLine
 10
74.7920175697
 20
232.0404626219
 30
0.0
 11
74.7920175697
 21
258.1526248971
 31
0.0
  0
LINE
  5
AB
330
A6
100
AcDbEntity
  8
DEFAULT
  6
CONTINUOUS
 62
     7
 48
25.4
100
AcDbLine
 10
94.7920175697
 20
232.0404626219
 30
0.0
 11
94.7920175697
 21
258.1526248971
 31
0.0
  0
LINE
  5
AC
330
A6
100
AcDbEntity
  8
DEFAULT
  6
CONTINUOUS
 62
     7
 48
25.4
100
AcDbLine
 10
74.7920175697
 20
256.6526248841
 30
0.0
 11
94.7920171226
 21
256.6526248841
 31
0.0
  0
TEXT
  5
AD
330
A6
100
AcDbEntity
  8
DEFAULT
  6
CONTINUOUS
 62
     7
 48
25.4
100
AcDbText
 10
82.9851991643
 20
257.4026248841
 30
0.0
 40
3.0
  1
20
  7
SEACAD_SEISO_TTF
 11
82.9851991643
 21
260.4026248841
 31
0.0
100
AcDbText
 73
     3
  0
ENDBLK
  5
AF
330
A6
100
AcDbEntity
  8
0
100
AcDbBlockEnd
  0
BLOCK
  5
B8
330
B0
100
AcDbEntity
  8
0
100
AcDbBlockBegin
  2
SE12
 70
     0
 71
     0
 10
0.0
 20
0.0
 30
0.0
  3
SE12
  1

  0
POLYLINE
  5
B2
330
B0
100
AcDbEntity
  8
DEFAULT
  6
CONTINUOUS
 62
     7
 48
25.4
100
AcDb2dPolyline
 66
     1
 10
0.0
 20
0.0
 30
0.0
 70
     1
  0
VERTEX
  5
110
330
B2
100
AcDbEntity
  8
DEFAULT
  6
CONTINUOUS
 62
     7
100
AcDbVertex
100
AcDb2dVertex
 10
130.7657327773
 20
266.3644176402
 30
0.0
  0
VERTEX
  5
111
330
B2
100
AcDbEntity
  8
DEFAULT
  6
CONTINUOUS
 62
     7
100
AcDbVertex
100
AcDb2dVertex
 10
133.7657328033
 20
265.8644176359
 30
0.0
  0
VERTEX
  5
112
330
B2
100
AcDbEntity
  8
DEFAULT
  6
CONTINUOUS
 62
     7
100
AcDbVertex
100
AcDb2dVertex
 10
130.7657327773
 20
265.3644176315
 30
0.0
  0
VERTEX
  5
113
330
B2
100
AcDbEntity
  8
DEFAULT
  6
CONTINUOUS
 62
     7
100
AcDbVertex
100
AcDb2dVertex
 10
130.7657327773
 20
266.3644176402
 30
0.0
  0
SEQEND
  5
10F
330
B2
100
AcDbEntity
  8
DEFAULT
  6
CONTINUOUS
 62
     7
 48
25.4
  0
POLYLINE
  5
B3
330
B0
100
AcDbEntity
  8
DEFAULT
  6
CONTINUOUS
 62
     7
 48
25.4
100
AcDb2dPolyline
 66
     1
 10
0.0
 20
0.0
 30
0.0
 70
     1
  0
VERTEX
  5
115
330
B3
100
AcDbEntity
  8
DEFAULT
  6
CONTINUOUS
 62
     7
100
AcDbVertex
100
AcDb2dVertex
 10
145.2657328294
 20
266.3644176402
 30
0.0
  0
VERTEX
  5
116
330
B3
100
AcDbEntity
  8
DEFAULT
  6
CONTINUOUS
 62
     7
100
AcDbVertex
100
AcDb2dVertex
 10
142.2657328033
 20
265.8644176359
 30
0.0
  0
VERTEX
  5
117
330
B3
100
AcDbEntity
  8
DEFAULT
  6
CONTINUOUS
 62
     7
100
AcDbVertex
100
AcDb2dVertex
 10
145.2657328294
 20
265.3644176315
 30
0.0
  0
VERTEX
  5
118
330
B3
100
AcDbEntity
  8
DEFAULT
  6
CONTINUOUS
 62
     7
100
AcDbVertex
100
AcDb2dVertex
 10
145.2657328294
 20
266.3644176402
 30
0.0
  0
SEQEND
  5
114
330
B3
100
AcDbEntity
  8
DEFAULT
  6
CONTINUOUS
 62
     7
 48
25.4
  0
LINE
  5
B4
330
B0
100
AcDbEntity
  8
DEFAULT
  6
CONTINUOUS
 62
     7
 48
25.4
100
AcDbLine
 10
133.7657328033
 20
182.5659803385
 30
0.0
 11
133.7657328033
 21
267.3644176489
 31
0.0
  0
LINE
  5
B5
330
B0
100
AcDbEntity
  8
DEFAULT
  6
CONTINUOUS
 62
     7
 48
25.4
100
AcDbLine
 10
142.2657328033
 20
227.5404626219
 30
0.0
 11
142.2657328033
 21
267.3644176489
 31
0.0
  0
LINE
  5
B6
330
B0
100
AcDbEntity
  8
DEFAULT
  6
CONTINUOUS
 62
     7
 48
25.4
100
AcDbLine
 10
127.7657327512
 20
265.8644176359
 30
0.0
 11
148.2657323861
 21
265.8644176359
 31
0.0
  0
TEXT
  5
B7
330
B0
100
AcDbEntity
  8
DEFAULT
  6
CONTINUOUS
 62
     7
 48
25.4
100
AcDbText
 10
135.9361875798
 20
266.6144176359
 30
0.0
 40
3.0
  1
8,5
  7
SEACAD_SEISO_TTF
 11
135.9361875798
 21
269.6144176359
 31
0.0
100
AcDbText
 73
     3
  0
ENDBLK
  5
B9
330
B0
100
AcDbEntity
  8
0
100
AcDbBlockEnd
  0
BLOCK
  5
C2
330
BA
100
AcDbEntity
  8
0
100
AcDbBlockBegin
  2
SE13
 70
     0
 71
     0
 10
0.0
 20
0.0
 30
0.0
  3
SE13
  1

  0
POLYLINE
  5
BC
330
BA
100
AcDbEntity
  8
DEFAULT
  6
CONTINUOUS
 62
     7
 48
25.4
100
AcDb2dPolyline
 66
     1
 10
0.0
 20
0.0
 30
0.0
 70
     1
  0
VERTEX
  5
11A
330
BC
100
AcDbEntity
  8
DEFAULT
  6
CONTINUOUS
 62
     7
100
AcDbVertex
100
AcDb2dVertex
 10
135.0657327773
 20
258.1761575175
 30
0.0
  0
VERTEX
  5
11B
330
BC
100
AcDbEntity
  8
DEFAULT
  6
CONTINUOUS
 62
     7
100
AcDbVertex
100
AcDb2dVertex
 10
138.0657328033
 20
257.6761575131
 30
0.0
  0
VERTEX
  5
11C
330
BC
100
AcDbEntity
  8
DEFAULT
  6
CONTINUOUS
 62
     7
100
AcDbVertex
100
AcDb2dVertex
 10
135.0657327773
 20
257.1761575088
 30
0.0
  0
VERTEX
  5
11D
330
BC
100
AcDbEntity
  8
DEFAULT
  6
CONTINUOUS
 62
     7
100
AcDbVertex
100
AcDb2dVertex
 10
135.0657327773
 20
258.1761575175
 30
0.0
  0
SEQEND
  5
119
330
BC
100
AcDbEntity
  8
DEFAULT
  6
CONTINUOUS
 62
     7
 48
25.4
  0
POLYLINE
  5
BD
330
BA
100
AcDbEntity
  8
DEFAULT
  6
CONTINUOUS
 62
     7
 48
25.4
100
AcDb2dPolyline
 66
     1
 10
0.0
 20
0.0
 30
0.0
 70
     1
  0
VERTEX
  5
11F
330
BD
100
AcDbEntity
  8
DEFAULT
  6
CONTINUOUS
 62
     7
100
AcDbVertex
100
AcDb2dVertex
 10
145.2657328294
 20
258.1761575175
 30
0.0
  0
VERTEX
  5
120
330
BD
100
AcDbEntity
  8
DEFAULT
  6
CONTINUOUS
 62
     7
100
AcDbVertex
100
AcDb2dVertex
 10
142.2657328033
 20
257.6761575131
 30
0.0
  0
VERTEX
  5
121
330
BD
100
AcDbEntity
  8
DEFAULT
  6
CONTINUOUS
 62
     7
100
AcDbVertex
100
AcDb2dVertex
 10
145.2657328294
 20
257.1761575088
 30
0.0
  0
VERTEX
  5
122
330
BD
100
AcDbEntity
  8
DEFAULT
  6
CONTINUOUS
 62
     7
100
AcDbVertex
100
AcDb2dVertex
 10
145.2657328294
 20
258.1761575175
 30
0.0
  0
SEQEND
  5
11E
330
BD
100
AcDbEntity
  8
DEFAULT
  6
CONTINUOUS
 62
     7
 48
25.4
  0
LINE
  5
BE
330
BA
100
AcDbEntity
  8
DEFAULT
  6
CONTINUOUS
 62
     7
 48
25.4
100
AcDbLine
 10
138.0657328033
 20
245.0404626964
 30
0.0
 11
138.0657328033
 21
259.1761575262
 31
0.0
  0
LINE
  5
BF
330
BA
100
AcDbEntity
  8
DEFAULT
  6
CONTINUOUS
 62
     7
 48
25.4
100
AcDbLine
 10
142.2657328033
 20
227.5404626219
 30
0.0
 11
142.2657328033
 21
259.1761575262
 31
0.0
  0
LINE
  5
C0
330
BA
100
AcDbEntity
  8
DEFAULT
  6
CONTINUOUS
 62
     7
 48
25.4
100
AcDbLine
 10
132.0657327512
 20
257.6761575131
 30
0.0
 11
148.2657331714
 21
257.6761575131
 31
0.0
  0
TEXT
  5
C1
330
BA
100
AcDbEntity
  8
DEFAULT
  6
CONTINUOUS
 62
     7
 48
25.4
100
AcDbText
 10
138.0861872739
 20
258.4261575131
 30
0.0
 40
3.0
  1
4,2
  7
SEACAD_SEISO_TTF
 11
138.0861872739
 21
261.4261575131
 31
0.0
100
AcDbText
 73
     3
  0
ENDBLK
  5
C3
330
BA
100
AcDbEntity
  8
0
100
AcDbBlockEnd
  0
BLOCK
  5
CC
330
C4
100
AcDbEntity
  8
0
100
AcDbBlockBegin
  2
SE14
 70
     0
 71
     0
 10
0.0
 20
0.0
 30
0.0
  3
SE14
  1

  0
POLYLINE
  5
C6
330
C4
100
AcDbEntity
  8
DEFAULT
  6
CONTINUOUS
 62
     7
 48
25.4
100
AcDb2dPolyline
 66
     1
 10
0.0
 20
0.0
 30
0.0
 70
     1
  0
VERTEX
  5
124
330
C6
100
AcDbEntity
  8
DEFAULT
  6
CONTINUOUS
 62
     7
100
AcDbVertex
100
AcDb2dVertex
 10
117.533306411
 20
165.9904640791
 30
0.0
  0
VERTEX
  5
125
330
C6
100
AcDbEntity
  8
DEFAULT
  6
CONTINUOUS
 62
     7
100
AcDbVertex
100
AcDb2dVertex
 10
117.0333065378
 20
162.9904640312
 30
0.0
  0
VERTEX
  5
126
330
C6
100
AcDbEntity
  8
DEFAULT
  6
CONTINUOUS
 62
     7
100
AcDbVertex
100
AcDb2dVertex
 10
116.5333064023
 20
165.9904640354
 30
0.0
  0
VERTEX
  5
127
330
C6
100
AcDbEntity
  8
DEFAULT
  6
CONTINUOUS
 62
     7
100
AcDbVertex
100
AcDb2dVertex
 10
117.533306411
 20
165.9904640791
 30
0.0
  0
SEQEND
  5
123
330
C6
100
AcDbEntity
  8
DEFAULT
  6
CONTINUOUS
 62
     7
 48
25.4
  0
POLYLINE
  5
C7
330
C4
100
AcDbEntity
  8
DEFAULT
  6
CONTINUOUS
 62
     7
 48
25.4
100
AcDb2dPolyline
 66
     1
 10
0.0
 20
0.0
 30
0.0
 70
     1
  0
VERTEX
  5
129
330
C7
100
AcDbEntity
  8
DEFAULT
  6
CONTINUOUS
 62
     7
100
AcDbVertex
100
AcDb2dVertex
 10
117.5333058821
 20
178.090464027
 30
0.0
  0
VERTEX
  5
12A
330
C7
100
AcDbEntity
  8
DEFAULT
  6
CONTINUOUS
 62
     7
100
AcDbVertex
100
AcDb2dVertex
 10
117.0333057466
 20
181.0904640312
 30
0.0
  0
VERTEX
  5
12B
330
C7
100
AcDbEntity
  8
DEFAULT
  6
CONTINUOUS
 62
     7
100
AcDbVertex
100
AcDb2dVertex
 10
116.5333058734
 20
178.0904639833
 30
0.0
  0
VERTEX
  5
12C
330
C7
100
AcDbEntity
  8
DEFAULT
  6
CONTINUOUS
 62
     7
100
AcDbVertex
100
AcDb2dVertex
 10
117.5333058821
 20
178.090464027
 30
0.0
  0
SEQEND
  5
128
330
C7
100
AcDbEntity
  8
DEFAULT
  6
CONTINUOUS
 62
     7
 48
25.4
  0
LINE
  5
C8
330
C4
100
AcDbEntity
  8
DEFAULT
  6
CONTINUOUS
 62
     7
 48
25.4
100
AcDbLine
 10
84.7920179652
 20
162.9904626219
 30
0.0
 11
118.5333065508
 21
162.9904640968
 31
0.0
  0
LINE
  5
C9
330
C4
100
AcDbEntity
  8
DEFAULT
  6
CONTINUOUS
 62
     7
 48
25.4
100
AcDbLine
 10
84.7920171741
 20
181.0904626219
 30
0.0
 11
118.5333057597
 21
181.0904640968
 31
0.0
  0
LINE
  5
CA
330
C4
100
AcDbEntity
  8
DEFAULT
  6
CONTINUOUS
 62
     7
 48
25.4
100
AcDbLine
 10
117.0333065378
 20
162.9904640312
 30
0.0
 11
117.0333057466
 21
181.0904649491
 31
0.0
  0
TEXT
  5
CB
330
C4
100
AcDbEntity
  8
DEFAULT
  6
CONTINUOUS
 62
     7
 48
25.4
100
AcDbText
 10
116.2833061422
 20
170.3563735811
 30
0.0
 40
3.0
  1
16
 50
90.0
  7
SEACAD_SEISO_TTF
 11
113.2833061422
 21
170.3563735811
 31
0.0
100
AcDbText
 73
     3
  0
ENDBLK
  5
CD
330
C4
100
AcDbEntity
  8
0
100
AcDbBlockEnd
  0
BLOCK
  5
D6
330
CE
100
AcDbEntity
  8
0
100
AcDbBlockBegin
  2
SE15
 70
     0
 71
     0
 10
0.0
 20
0.0
 30
0.0
  3
SE15
  1

  0
POLYLINE
  5
D0
330
CE
100
AcDbEntity
  8
DEFAULT
  6
CONTINUOUS
 62
     7
 48
25.4
100
AcDb2dPolyline
 66
     1
 10
0.0
 20
0.0
 30
0.0
 70
     1
  0
VERTEX
  5
12E
330
D0
100
AcDbEntity
  8
DEFAULT
  6
CONTINUOUS
 62
     7
100
AcDbVertex
100
AcDb2dVertex
 10
113.4391752868
 20
49.2904634109
 30
0.0
  0
VERTEX
  5
12F
330
D0
100
AcDbEntity
  8
DEFAULT
  6
CONTINUOUS
 62
     7
100
AcDbVertex
100
AcDb2dVertex
 10
112.9391751513
 20
52.2904634151
 30
0.0
  0
VERTEX
  5
130
330
D0
100
AcDbEntity
  8
DEFAULT
  6
CONTINUOUS
 62
     7
100
AcDbVertex
100
AcDb2dVertex
 10
112.4391752781
 20
49.2904633672
 30
0.0
  0
VERTEX
  5
131
330
D0
100
AcDbEntity
  8
DEFAULT
  6
CONTINUOUS
 62
     7
100
AcDbVertex
100
AcDb2dVertex
 10
113.4391752868
 20
49.2904634109
 30
0.0
  0
SEQEND
  5
12D
330
D0
100
AcDbEntity
  8
DEFAULT
  6
CONTINUOUS
 62
     7
 48
25.4
  0
POLYLINE
  5
D1
330
CE
100
AcDbEntity
  8
DEFAULT
  6
CONTINUOUS
 62
     7
 48
25.4
100
AcDb2dPolyline
 66
     1
 10
0.0
 20
0.0
 30
0.0
 70
     1
  0
VERTEX
  5
133
330
D1
100
AcDbEntity
  8
DEFAULT
  6
CONTINUOUS
 62
     7
100
AcDbVertex
100
AcDb2dVertex
 10
113.4391748715
 20
58.7904634631
 30
0.0
  0
VERTEX
  5
134
330
D1
100
AcDbEntity
  8
DEFAULT
  6
CONTINUOUS
 62
     7
100
AcDbVertex
100
AcDb2dVertex
 10
112.9391749983
 20
55.7904634151
 30
0.0
  0
VERTEX
  5
135
330
D1
100
AcDbEntity
  8
DEFAULT
  6
CONTINUOUS
 62
     7
100
AcDbVertex
100
AcDb2dVertex
 10
112.4391748628
 20
58.7904634194
 30
0.0
  0
VERTEX
  5
136
330
D1
100
AcDbEntity
  8
DEFAULT
  6
CONTINUOUS
 62
     7
100
AcDbVertex
100
AcDb2dVertex
 10
113.4391748715
 20
58.7904634631
 30
0.0
  0
SEQEND
  5
132
330
D1
100
AcDbEntity
  8
DEFAULT
  6
CONTINUOUS
 62
     7
 48
25.4
  0
LINE
  5
D2
330
CE
100
AcDbEntity
  8
DEFAULT
  6
CONTINUOUS
 62
     7
 48
25.4
100
AcDbLine
 10
94.7920176462
 20
52.2904626219
 30
0.0
 11
114.4391751643
 21
52.2904634807
 31
0.0
  0
LINE
  5
D3
330
CE
100
AcDbEntity
  8
DEFAULT
  6
CONTINUOUS
 62
     7
 48
25.4
100
AcDbLine
 10
94.7920174932
 20
55.7904626219
 30
0.0
 11
114.4391750114
 21
55.7904634807
 31
0.0
  0
LINE
  5
D4
330
CE
100
AcDbEntity
  8
DEFAULT
  6
CONTINUOUS
 62
     7
 48
25.4
100
AcDbLine
 10
112.9391754136
 20
46.290463363
 30
0.0
 11
112.939174736
 21
61.7904631097
 31
0.0
  0
TEXT
  5
D5
330
CE
100
AcDbEntity
  8
DEFAULT
  6
CONTINUOUS
 62
     7
 48
25.4
100
AcDbText
 10
112.1891750748
 20
52.1313725601
 30
0.0
 40
3.0
  1
3,5
 50
90.0
  7
SEACAD_SEISO_TTF
 11
109.1891750748
 21
52.1313725601
 31
0.0
100
AcDbText
 73
     3
  0
ENDBLK
  5
D7
330
CE
100
AcDbEntity
  8
0
100
AcDbBlockEnd
  0
ENDSEC
  0
SECTION
  2
ENTITIES
  0
INSERT
  5
2F
330
1F
100
AcDbEntity
  8
0
100
AcDbBlockReference
  2
SE
 10
0.0
 20
0.0
 30
0.0
  0
INSERT
  5
37
330
1F
100
AcDbEntity
  8
0
100
AcDbBlockReference
  2
SE1
 10
0.0
 20
0.0
 30
0.0
  0
INSERT
  5
3D
330
1F
100
AcDbEntity
  8
0
100
AcDbBlockReference
  2
SE2
 10
0.0
 20
0.0
 30
0.0
  0
INSERT
  5
43
330
1F
100
AcDbEntity
  8
0
100
AcDbBlockReference
  2
SE3
 10
0.0
 20
0.0
 30
0.0
  0
INSERT
  5
49
330
1F
100
AcDbEntity
  8
0
100
AcDbBlockReference
  2
SE4
 10
0.0
 20
0.0
 30
0.0
  0
INSERT
  5
61
330
1F
100
AcDbEntity
  8
0
100
AcDbBlockReference
  2
SE5
 10
0.0
 20
0.0
 30
0.0
  0
INSERT
  5
75
330
1F
100
AcDbEntity
  8
0
100
AcDbBlockReference
  2
SE6
 10
0.0
 20
0.0
 30
0.0
  0
INSERT
  5
7F
330
1F
100
AcDbEntity
  8
0
100
AcDbBlockReference
  2
SE7
 10
0.0
 20
0.0
 30
0.0
  0
INSERT
  5
89
330
1F
100
AcDbEntity
  8
0
100
AcDbBlockReference
  2
SE8
 10
0.0
 20
0.0
 30
0.0
  0
INSERT
  5
93
330
1F
100
AcDbEntity
  8
0
100
AcDbBlockReference
  2
SE9
 10
0.0
 20
0.0
 30
0.0
  0
INSERT
  5
9D
330
1F
100
AcDbEntity
  8
0
100
AcDbBlockReference
  2
SE10
 10
0.0
 20
0.0
 30
0.0
  0
INSERT
  5
A7
330
1F
100
AcDbEntity
  8
0
100
AcDbBlockReference
  2
SE11
 10
0.0
 20
0.0
 30
0.0
  0
INSERT
  5
B1
330
1F
100
AcDbEntity
  8
0
100
AcDbBlockReference
  2
SE12
 10
0.0
 20
0.0
 30
0.0
  0
INSERT
  5
BB
330
1F
100
AcDbEntity
  8
0
100
AcDbBlockReference
  2
SE13
 10
0.0
 20
0.0
 30
0.0
  0
INSERT
  5
C5
330
1F
100
AcDbEntity
  8
0
100
AcDbBlockReference
  2
SE14
 10
0.0
 20
0.0
 30
0.0
  0
INSERT
  5
CF
330
1F
100
AcDbEntity
  8
0
100
AcDbBlockReference
  2
SE15
 10
0.0
 20
0.0
 30
0.0
  0
ENDSEC
  0
SECTION
  2
OBJECTS
  0
DICTIONARY
  5
C
330
0
100
AcDbDictionary
  3
ACAD_GROUP
350
D
  3
ACAD_LAYOUT
350
1A
  3
ACAD_MLINESTYLE
350
17
  3
ACAD_PLOTSETTINGS
350
19
  3
ACAD_TABLESTYLE
350
2A
  3
ACDBVARIABLEDICTIONARY
350
2C
1001
ACAD
1000
TREAT_AS_HARD
1070
     0
  0
DICTIONARY
  5
137
330
29
100
AcDbDictionary
  3
ACAD_XREC_ROUNDTRIP
360
138
  0
DICTIONARY
  5
D
102
{ACAD_REACTORS
330
C
102
}
330
C
100
AcDbDictionary
1001
ACAD
1000
TREAT_AS_HARD
1070
     0
  0
DICTIONARY
  5
1A
102
{ACAD_REACTORS
330
C
102
}
330
C
100
AcDbDictionary
1001
ACAD
1000
TREAT_AS_HARD
1070
     0
  0
DICTIONARY
  5
17
102
{ACAD_REACTORS
330
C
102
}
330
C
100
AcDbDictionary
  3
STANDARD
350
18
1001
ACAD
1000
TREAT_AS_HARD
1070
     0
  0
DICTIONARY
  5
19
102
{ACAD_REACTORS
330
C
102
}
330
C
100
AcDbDictionary
1001
ACAD
1000
TREAT_AS_HARD
1070
     0
  0
DICTIONARY
  5
2A
102
{ACAD_REACTORS
330
C
102
}
330
C
100
AcDbDictionary
  3
STANDARD
350
2B
1001
ACAD
1000
TREAT_AS_HARD
1070
     0
  0
DICTIONARY
  5
2C
102
{ACAD_REACTORS
330
C
102
}
330
C
100
AcDbDictionary
  3
CTABLESTYLE
350
2D
1001
ACAD
1000
TREAT_AS_HARD
1070
     0
  0
XRECORD
  5
138
102
{ACAD_REACTORS
330
137
102
}
330
137
100
AcDbXrecord
102
UCS
 74
     0
 71
     1
 10
0.0
 20
0.0
 30
0.0
 10
1.0
 20
0.0
 30
0.0
 10
0.0
 20
1.0
 30
0.0
146
0.0
 79
     0
102
VIEW
281
     0
  0
MLINESTYLE
  5
18
102
{ACAD_REACTORS
330
17
102
}
330
17
100
AcDbMlineStyle
  2
Standard
 70
     0
  3

 62
   256
 51
90.0
 52
90.0
 71
     2
 49
0.5
 62
   256
  6
BYLAYER
 49
-0.5
 62
   256
  6
BYLAYER
  0
TABLESTYLE
  5
2B
102
{ACAD_REACTORS
330
2A
102
}
330
2A
100
AcDbTableStyle
  3
Standard
 70
     0
 71
     0
 40
0.06
 41
0.06
280
     0
281
     0
  7
STANDARD
140
0.18
170
     2
 62
     0
 63
     7
283
     0
274
    -2
284
     1
 64
     0
275
    -2
285
     1
 65
     0
276
    -2
286
     1
 66
     0
277
    -2
287
     1
 67
     0
278
    -2
288
     1
 68
     0
279
    -2
289
     1
 69
     0
  7
STANDARD
140
0.25
170
     5
 62
     0
 63
     7
283
     0
274
    -2
284
     1
 64
     0
275
    -2
285
     1
 65
     0
276
    -2
286
     1
 66
     0
277
    -2
287
     1
 67
     0
278
    -2
288
     1
 68
     0
279
    -2
289
     1
 69
     0
  7
STANDARD
140
0.18
170
     5
 62
     0
 63
     7
283
     0
274
    -2
284
     1
 64
     0
275
    -2
285
     1
 65
     0
276
    -2
286
     1
 66
     0
277
    -2
287
     1
 67
     0
278
    -2
288
     1
 68
     0
279
    -2
289
     1
 69
     0
  0
DICTIONARYVAR
  5
2D
102
{ACAD_REACTORS
330
2C
102
}
330
2C
100
DictionaryVariables
280
     0
  1
Standard
  0
ENDSEC
  0
EOF
