  0
SECTION
  2
HEADER
  9
$ACADVER
  1
AC1012
  9
$DWGCODEPAGE
  3
ansi_1252
  9
$INSBASE
 10
0.0
 20
0.0
 30
0.0
  9
$EXTMIN
 10
0.0
 20
0.0
 30
0.0
  9
$EXTMAX
 10
210.0
 20
297.0
 30
0.0
  9
$LIMMIN
 10
0.0
 20
0.0
  9
$LIMMAX
 10
210.0
 20
297.0
  9
$ORTHOMODE
 70
     0
  9
$REGENMODE
 70
     1
  9
$FILLMODE
 70
     1
  9
$QTEXTMODE
 70
     0
  9
$MIRRTEXT
 70
     1
  9
$DRAGMODE
 70
     2
  9
$LTSCALE
 40
1.0
  9
$OSMODE
 70
    37
  9
$ATTMODE
 70
     1
  9
$TEXTSIZE
 40
0.2
  9
$TRACEWID
 40
0.05
  9
$TEXTSTYLE
  7
STANDARD
  9
$CLAYER
  8
0
  9
$CELTYPE
  6
BYLAYER
  9
$CECOLOR
 62
   256
  9
$CELTSCALE
 40
25.4
  9
$DELOBJ
 70
     1
  9
$DISPSILH
 70
     0
  9
$DIMSCALE
 40
1.0
  9
$DIMASZ
 40
0.18
  9
$DIMEXO
 40
0.0625
  9
$DIMDLI
 40
0.38
  9
$DIMRND
 40
0.0
  9
$DIMDLE
 40
0.0
  9
$DIMEXE
 40
0.18
  9
$DIMTP
 40
0.0
  9
$DIMTM
 40
0.0
  9
$DIMTXT
 40
0.18
  9
$DIMCEN
 40
0.09
  9
$DIMTSZ
 40
0.0
  9
$DIMTOL
 70
     0
  9
$DIMLIM
 70
     0
  9
$DIMTIH
 70
     1
  9
$DIMTOH
 70
     1
  9
$DIMSE1
 70
     0
  9
$DIMSE2
 70
     0
  9
$DIMTAD
 70
     0
  9
$DIMZIN
 70
     0
  9
$DIMBLK
  1

  9
$DIMASO
 70
     1
  9
$DIMSHO
 70
     1
  9
$DIMPOST
  1

  9
$DIMAPOST
  1

  9
$DIMALT
 70
     0
  9
$DIMALTD
 70
     2
  9
$DIMALTF
 40
25.4
  9
$DIMLFAC
 40
1.0
  9
$DIMTOFL
 70
     0
  9
$DIMTVP
 40
0.0
  9
$DIMTIX
 70
     0
  9
$DIMSOXD
 70
     0
  9
$DIMSAH
 70
     0
  9
$DIMBLK1
  1

  9
$DIMBLK2
  1

  9
$DIMSTYLE
  2
STANDARD
  9
$DIMCLRD
 70
     0
  9
$DIMCLRE
 70
     0
  9
$DIMCLRT
 70
     0
  9
$DIMTFAC
 40
1.0
  9
$DIMGAP
 40
0.09
  9
$DIMJUST
 70
     0
  9
$DIMSD1
 70
     0
  9
$DIMSD2
 70
     0
  9
$DIMTOLJ
 70
     1
  9
$DIMTZIN
 70
     0
  9
$DIMALTZ
 70
     0
  9
$DIMALTTZ
 70
     0
  9
$DIMFIT
 70
     3
  9
$DIMUPT
 70
     0
  9
$DIMUNIT
 70
     2
  9
$DIMDEC
 70
     4
  9
$DIMTDEC
 70
     4
  9
$DIMALTU
 70
     2
  9
$DIMALTTD
 70
     2
  9
$DIMTXSTY
  7
STANDARD
  9
$DIMAUNIT
 70
     0
  9
$LUNITS
 70
     2
  9
$LUPREC
 70
     4
  9
$SKETCHINC
 40
0.1
  9
$FILLETRAD
 40
0.5
  9
$AUNITS
 70
     0
  9
$AUPREC
 70
     0
  9
$MENU
  1
.
  9
$ELEVATION
 40
0.0
  9
$PELEVATION
 40
0.0
  9
$THICKNESS
 40
0.0
  9
$LIMCHECK
 70
     0
  9
$CHAMFERA
 40
0.5
  9
$CHAMFERB
 40
0.5
  9
$CHAMFERC
 40
1.0
  9
$CHAMFERD
 40
0.0
  9
$SKPOLY
 70
     0
  9
$TDCREATE
 40
2453762.544287396
  9
$TDUPDATE
 40
2453762.544287407
  9
$TDINDWG
 40
0.0000000116
  9
$TDUSRTIMER
 40
0.0000000116
  9
$USRTIMER
 70
     1
  9
$ANGBASE
 50
0.0
  9
$ANGDIR
 70
     0
  9
$PDMODE
 70
     0
  9
$PDSIZE
 40
0.0
  9
$PLINEWID
 40
0.0
  9
$COORDS
 70
     1
  9
$SPLFRAME
 70
     0
  9
$SPLINETYPE
 70
     6
  9
$SPLINESEGS
 70
     8
  9
$ATTDIA
 70
     0
  9
$ATTREQ
 70
     1
  9
$HANDLING
 70
     1
  9
$HANDSEED
  5
132
  9
$SURFTAB1
 70
     6
  9
$SURFTAB2
 70
     6
  9
$SURFTYPE
 70
     6
  9
$SURFU
 70
     6
  9
$SURFV
 70
     6
  9
$UCSNAME
  2

  9
$UCSORG
 10
0.0
 20
0.0
 30
0.0
  9
$UCSXDIR
 10
1.0
 20
0.0
 30
0.0
  9
$UCSYDIR
 10
0.0
 20
1.0
 30
0.0
  9
$PUCSNAME
  2

  9
$PUCSORG
 10
0.0
 20
0.0
 30
0.0
  9
$PUCSXDIR
 10
1.0
 20
0.0
 30
0.0
  9
$PUCSYDIR
 10
0.0
 20
1.0
 30
0.0
  9
$USERI1
 70
     0
  9
$USERI2
 70
     0
  9
$USERI3
 70
     0
  9
$USERI4
 70
     0
  9
$USERI5
 70
     0
  9
$USERR1
 40
0.0
  9
$USERR2
 40
0.0
  9
$USERR3
 40
0.0
  9
$USERR4
 40
0.0
  9
$USERR5
 40
0.0
  9
$WORLDVIEW
 70
     1
  9
$SHADEDGE
 70
     3
  9
$SHADEDIF
 70
    70
  9
$TILEMODE
 70
     1
  9
$MAXACTVP
 70
    64
  9
$PINSBASE
 10
0.0
 20
0.0
 30
0.0
  9
$PLIMCHECK
 70
     0
  9
$PEXTMIN
 10
0.0
 20
0.0
 30
0.0
  9
$PEXTMAX
 10
210.0
 20
297.0
 30
0.0
  9
$PLIMMIN
 10
0.0
 20
0.0
  9
$PLIMMAX
 10
12.0
 20
9.0
  9
$UNITMODE
 70
     0
  9
$VISRETAIN
 70
     1
  9
$PLINEGEN
 70
     0
  9
$PSLTSCALE
 70
     1
  9
$TREEDEPTH
 70
  3020
  9
$PICKSTYLE
 70
     1
  9
$CMLSTYLE
  2
STANDARD
  9
$CMLJUST
 70
     0
  9
$CMLSCALE
 40
1.0
  9
$SAVEIMAGES
 70
     1
  0
ENDSEC
  0
SECTION
  2
CLASSES
  0
CLASS
  1
ACDBDICTIONARYWDFLT
  2
AcDbDictionaryWithDefault
  3
ObjectDBX Classes
 90
        0
280
     0
281
     0
  0
CLASS
  1
TABLESTYLE
  2
AcDbTableStyle
  3
ObjectDBX Classes
 90
     2047
280
     0
281
     0
  0
CLASS
  1
DICTIONARYVAR
  2
AcDbDictionaryVar
  3
ObjectDBX Classes
 90
        0
280
     0
281
     0
  0
CLASS
  1
XRECORD
  2
AcDbXrecord
  3
AutoCAD 2000
 90
    32768
280
     0
281
     0
  0
CLASS
  1
LWPOLYLINE
  2
AcDbPolyline
  3
AutoCAD 2000
 90
    32768
280
     0
281
     1
  0
CLASS
  1
HATCH
  2
AcDbHatch
  3
AutoCAD 2000
 90
    32768
280
     0
281
     1
  0
CLASS
  1
ACDBPLACEHOLDER
  2
AcDbPlaceHolder
  3
ObjectDBX Classes
 90
        0
280
     0
281
     0
  0
CLASS
  1
LAYOUT
  2
AcDbLayout
  3
ObjectDBX Classes
 90
        0
280
     0
281
     0
  0
ENDSEC
  0
SECTION
  2
TABLES
  0
TABLE
  2
VPORT
  5
8
330
0
100
AcDbSymbolTable
 70
     2
  0
VPORT
  5
29
102
{ACAD_XDICTIONARY
360
130
102
}
330
8
100
AcDbSymbolTableRecord
100
AcDbViewportTableRecord
  2
*ACTIVE
 70
     0
 10
0.0
 20
0.0
 11
1.0
 21
1.0
 12
10.4299065421
 22
4.5
 13
0.0
 23
0.0
 14
0.5
 24
0.5
 15
0.5
 25
0.5
 16
0.0
 26
0.0
 36
1.0
 17
0.0
 27
0.0
 37
0.0
 40
9.0
 41
1.9729729729
 42
50.0
 43
0.0
 44
0.0
 50
0.0
 51
0.0
 71
     0
 72
   100
 73
     1
 74
     3
 75
     0
 76
     0
 77
     0
 78
     0
  0
ENDTAB
  0
TABLE
  2
LTYPE
  5
5
330
0
100
AcDbSymbolTable
 70
     2
  0
LTYPE
  5
14
330
5
100
AcDbSymbolTableRecord
100
AcDbLinetypeTableRecord
  2
BYBLOCK
 70
     0
  3

 72
    65
 73
     0
 40
0.0
  0
LTYPE
  5
15
330
5
100
AcDbSymbolTableRecord
100
AcDbLinetypeTableRecord
  2
BYLAYER
 70
     0
  3

 72
    65
 73
     0
 40
0.0
  0
LTYPE
  5
16
330
5
100
AcDbSymbolTableRecord
100
AcDbLinetypeTableRecord
  2
CONTINUOUS
 70
     0
  3
Solid line
 72
    65
 73
     0
 40
0.0
  0
LTYPE
  5
31
330
5
100
AcDbSymbolTableRecord
100
AcDbLinetypeTableRecord
  2
CENTER2
 70
     0
  3
___ _ ___ _ ___ _ ___ _ ___ _ ___ _ ___ _ ___ _
 72
    65
 73
     4
 40
1.125
 49
0.75
 74
     4
 75
     0
340
0
 46
0.0
 50
0.0
 44
0.0
 45
0.0
 49
-0.125
 74
     4
 75
     0
340
0
 46
0.0
 50
0.0
 44
0.0
 45
0.0
 49
0.125
 74
     4
 75
     0
340
0
 46
0.0
 50
0.0
 44
0.0
 45
0.0
 49
-0.125
 74
     4
 75
     0
340
0
 46
0.0
 50
0.0
 44
0.0
 45
0.0
  0
ENDTAB
  0
TABLE
  2
LAYER
  5
2
330
0
100
AcDbSymbolTable
 70
     6
  0
LAYER
  5
10
330
2
100
AcDbSymbolTableRecord
100
AcDbLayerTableRecord
  2
0
 70
     0
 62
     7
  6
CONTINUOUS
  0
LAYER
  5
30
330
2
100
AcDbSymbolTableRecord
100
AcDbLayerTableRecord
  2
DEFAULT
 70
     0
 62
     7
  6
CONTINUOUS
  0
LAYER
  5
41
330
2
100
AcDbSymbolTableRecord
100
AcDbLayerTableRecord
  2
MEGA_001049
 70
     0
 62
     7
  6
CONTINUOUS
  0
LAYER
  5
58
330
2
100
AcDbSymbolTableRecord
100
AcDbLayerTableRecord
  2
MEGA_001616
 70
     0
 62
     7
  6
CONTINUOUS
  0
LAYER
  5
5B
330
2
100
AcDbSymbolTableRecord
100
AcDbLayerTableRecord
  2
MEGA_001979
 70
     0
 62
     7
  6
CONTINUOUS
  0
LAYER
  5
6E
330
2
100
AcDbSymbolTableRecord
100
AcDbLayerTableRecord
  2
STANDARD
 70
     0
 62
     7
  6
CONTINUOUS
  0
ENDTAB
  0
TABLE
  2
STYLE
  5
3
330
0
100
AcDbSymbolTable
 70
     3
  0
STYLE
  5
11
330
3
100
AcDbSymbolTableRecord
100
AcDbTextStyleTableRecord
  2
STANDARD
 70
     0
 40
0.0
 41
1.0
 50
0.0
 71
     0
 42
0.2
  3
txt
  4

  0
STYLE
  5
86
330
3
100
AcDbSymbolTableRecord
100
AcDbTextStyleTableRecord
  2
SEACAD_SEISO_TTF
 70
     0
 40
0.2
 41
1.0
 50
0.0
 71
     0
 42
0.2
  3
seiso.ttf
  4

  0
STYLE
  5
B8
330
3
100
AcDbSymbolTableRecord
100
AcDbTextStyleTableRecord
  2
SEACAD_SEMECI1_TTF
 70
     0
 40
0.2
 41
1.0
 50
0.0
 71
     0
 42
0.2
  3
semeci1.ttf
  4

  0
ENDTAB
  0
TABLE
  2
VIEW
  5
6
330
0
100
AcDbSymbolTable
 70
     0
  0
ENDTAB
  0
TABLE
  2
UCS
  5
7
330
0
100
AcDbSymbolTable
 70
     0
  0
ENDTAB
  0
TABLE
  2
APPID
  5
9
330
0
100
AcDbSymbolTable
 70
     1
  0
APPID
  5
12
330
9
100
AcDbSymbolTableRecord
100
AcDbRegAppTableRecord
  2
ACAD
 70
     0
  0
ENDTAB
  0
TABLE
  2
DIMSTYLE
  5
A
330
0
100
AcDbSymbolTable
 70
     1
  0
DIMSTYLE
105
27
330
A
100
AcDbSymbolTableRecord
100
AcDbDimStyleTableRecord
  2
STANDARD
 70
     0
  3

  4

  5

  6

  7

 40
1.0
 41
0.18
 42
0.0625
 43
0.38
 44
0.18
 45
0.0
 46
0.0
 47
0.0
 48
0.0
140
0.18
141
0.09
142
0.0
143
25.4
144
1.0
145
0.0
146
1.0
147
0.09
 71
     0
 72
     0
 73
     1
 74
     1
 75
     0
 76
     0
 77
     0
 78
     0
170
     0
171
     2
172
     0
173
     0
174
     0
175
     0
176
     0
177
     0
178
     0
270
     2
271
     4
272
     4
273
     2
274
     2
340
11
275
     0
280
     0
281
     0
282
     0
283
     1
284
     0
285
     0
286
     0
287
     3
288
     0
  0
ENDTAB
  0
TABLE
  2
BLOCK_RECORD
  5
1
330
0
100
AcDbSymbolTable
 70
    14
  0
BLOCK_RECORD
  5
1F
330
1
100
AcDbSymbolTableRecord
100
AcDbBlockTableRecord
  2
*MODEL_SPACE
  0
BLOCK_RECORD
  5
1B
330
1
100
AcDbSymbolTableRecord
100
AcDbBlockTableRecord
  2
*PAPER_SPACE
  0
BLOCK_RECORD
  5
2E
330
1
100
AcDbSymbolTableRecord
100
AcDbBlockTableRecord
  2
SE
  0
BLOCK_RECORD
  5
3A
330
1
100
AcDbSymbolTableRecord
100
AcDbBlockTableRecord
  2
SE1
  0
BLOCK_RECORD
  5
3F
330
1
100
AcDbSymbolTableRecord
100
AcDbBlockTableRecord
  2
SE2
  0
BLOCK_RECORD
  5
72
330
1
100
AcDbSymbolTableRecord
100
AcDbBlockTableRecord
  2
SE3
  0
BLOCK_RECORD
  5
80
330
1
100
AcDbSymbolTableRecord
100
AcDbBlockTableRecord
  2
SE4
  0
BLOCK_RECORD
  5
8A
330
1
100
AcDbSymbolTableRecord
100
AcDbBlockTableRecord
  2
SE5
  0
BLOCK_RECORD
  5
94
330
1
100
AcDbSymbolTableRecord
100
AcDbBlockTableRecord
  2
SE6
  0
BLOCK_RECORD
  5
9E
330
1
100
AcDbSymbolTableRecord
100
AcDbBlockTableRecord
  2
SE7
  0
BLOCK_RECORD
  5
A8
330
1
100
AcDbSymbolTableRecord
100
AcDbBlockTableRecord
  2
SE8
  0
BLOCK_RECORD
  5
B2
330
1
100
AcDbSymbolTableRecord
100
AcDbBlockTableRecord
  2
SE9
  0
BLOCK_RECORD
  5
BC
330
1
100
AcDbSymbolTableRecord
100
AcDbBlockTableRecord
  2
SE10
  0
BLOCK_RECORD
  5
C6
330
1
100
AcDbSymbolTableRecord
100
AcDbBlockTableRecord
  2
SE11
  0
BLOCK_RECORD
  5
CF
330
1
100
AcDbSymbolTableRecord
100
AcDbBlockTableRecord
  2
SE12
  0
ENDTAB
  0
ENDSEC
  0
SECTION
  2
BLOCKS
  0
BLOCK
  5
20
330
1F
100
AcDbEntity
  8
0
100
AcDbBlockBegin
  2
*MODEL_SPACE
 70
     0
 71
     0
 10
0.0
 20
0.0
 30
0.0
  3
*MODEL_SPACE
  1

  0
ENDBLK
  5
21
330
1F
100
AcDbEntity
  8
0
100
AcDbBlockEnd
  0
BLOCK
  5
1C
330
1B
100
AcDbEntity
 67
     1
  8
0
100
AcDbBlockBegin
  2
*PAPER_SPACE
 70
     0
 71
     0
 10
0.0
 20
0.0
 30
0.0
  3
*PAPER_SPACE
  1

  0
ENDBLK
  5
1D
330
1B
100
AcDbEntity
 67
     1
  8
0
100
AcDbBlockEnd
  0
BLOCK
  5
38
330
2E
100
AcDbEntity
  8
0
100
AcDbBlockBegin
  2
SE
 70
     0
 71
     0
 10
0.0
 20
0.0
 30
0.0
  3
SE
  1

  0
LINE
  5
32
330
2E
100
AcDbEntity
  8
DEFAULT
  6
CENTER2
 62
     7
 48
25.4
100
AcDbLine
 10
168.6213956942
 20
174.5788593619
 30
0.0
 11
156.6213955899
 21
174.5788593619
 31
0.0
  0
LINE
  5
33
330
2E
100
AcDbEntity
  8
DEFAULT
  6
CENTER2
 62
     7
 48
25.4
100
AcDbLine
 10
162.621395642
 20
180.5788594141
 30
0.0
 11
162.621395642
 21
168.5788593098
 31
0.0
  0
LINE
  5
34
330
2E
100
AcDbEntity
  8
DEFAULT
  6
CENTER2
 62
     7
 48
25.4
100
AcDbLine
 10
170.121395642
 20
174.5788593619
 30
0.0
 11
174.871395642
 21
174.5788593619
 31
0.0
  0
LINE
  5
35
330
2E
100
AcDbEntity
  8
DEFAULT
  6
CENTER2
 62
     7
 48
25.4
100
AcDbLine
 10
162.621395642
 20
182.0788593619
 30
0.0
 11
162.621395642
 21
186.8288593619
 31
0.0
  0
LINE
  5
36
330
2E
100
AcDbEntity
  8
DEFAULT
  6
CENTER2
 62
     7
 48
25.4
100
AcDbLine
 10
155.121395642
 20
174.5788593619
 30
0.0
 11
150.371395642
 21
174.5788593619
 31
0.0
  0
LINE
  5
37
330
2E
100
AcDbEntity
  8
DEFAULT
  6
CENTER2
 62
     7
 48
25.4
100
AcDbLine
 10
162.621395642
 20
167.0788593619
 30
0.0
 11
162.621395642
 21
162.3288593619
 31
0.0
  0
ENDBLK
  5
39
330
2E
100
AcDbEntity
  8
0
100
AcDbBlockEnd
  0
BLOCK
  5
3D
330
3A
100
AcDbEntity
  8
0
100
AcDbBlockBegin
  2
SE1
 70
     0
 71
     0
 10
0.0
 20
0.0
 30
0.0
  3
SE1
  1

  0
LINE
  5
3C
330
3A
100
AcDbEntity
  8
DEFAULT
  6
CENTER2
 62
     7
 48
25.4
100
AcDbLine
 10
56.5523013083
 20
174.5788593619
 30
0.0
 11
138.9215271749
 21
174.5788593619
 31
0.0
  0
ENDBLK
  5
3E
330
3A
100
AcDbEntity
  8
0
100
AcDbBlockEnd
  0
BLOCK
  5
70
330
3F
100
AcDbEntity
  8
0
100
AcDbBlockBegin
  2
SE2
 70
     0
 71
     0
 10
0.0
 20
0.0
 30
0.0
  3
SE2
  1

  0
LINE
  5
42
330
3F
100
AcDbEntity
  8
MEGA_001049
  6
CONTINUOUS
 62
     7
 48
25.4
100
AcDbLine
 10
88.5932241774
 20
164.0788593619
 30
0.0
 11
88.5932241774
 21
185.0788593619
 31
0.0
  0
LINE
  5
43
330
3F
100
AcDbEntity
  8
MEGA_001049
  6
CONTINUOUS
 62
     7
 48
25.4
100
AcDbLine
 10
98.5932241774
 20
167.0788593619
 30
0.0
 11
98.5932241774
 21
182.0788593619
 31
0.0
  0
ARC
  5
44
330
3F
100
AcDbEntity
  8
MEGA_001049
  6
CONTINUOUS
 62
     7
 48
25.4
100
AcDbCircle
 10
81.5932241774
 20
162.0788593619
 30
0.0
 40
2.0
100
AcDbArc
 50
90.0
 51
180.0
  0
LINE
  5
45
330
3F
100
AcDbEntity
  8
MEGA_001049
  6
CONTINUOUS
 62
     7
 48
25.4
100
AcDbLine
 10
98.0932241774
 20
182.5788593619
 30
0.0
 11
88.5932241774
 21
182.5788593619
 31
0.0
  0
ARC
  5
46
330
3F
100
AcDbEntity
  8
MEGA_001049
  6
CONTINUOUS
 62
     7
 48
25.4
100
AcDbCircle
 10
81.5932241774
 20
187.0788593619
 30
0.0
 40
2.0
100
AcDbArc
 50
180.0
 51
270.0
  0
LINE
  5
47
330
3F
100
AcDbEntity
  8
MEGA_001049
  6
CONTINUOUS
 62
     7
 48
25.4
100
AcDbLine
 10
88.5932241774
 20
185.0788593619
 30
0.0
 11
81.5932241774
 21
185.0788593619
 31
0.0
  0
LINE
  5
48
330
3F
100
AcDbEntity
  8
MEGA_001049
  6
CONTINUOUS
 62
     7
 48
25.4
100
AcDbLine
 10
88.5932241774
 20
166.5788593619
 30
0.0
 11
98.0932241774
 21
166.5788593619
 31
0.0
  0
SPLINE
  5
49
330
3F
100
AcDbEntity
  8
MEGA_001049
  6
CONTINUOUS
 62
     7
 48
25.4
100
AcDbSpline
210
0.0
220
0.0
230
1.0
 70
     8
 71
     3
 72
    23
 73
    19
 74
     0
 42
0.0000000001
 43
0.0000000001
 40
0.0
 40
0.0
 40
0.0
 40
0.0
 40
0.03125
 40
0.03125
 40
0.03125
 40
0.0625
 40
0.0625
 40
0.0625
 40
0.1250000000000001
 40
0.1250000000000001
 40
0.1250000000000001
 40
0.2500000000000003
 40
0.2500000000000003
 40
0.2500000000000003
 40
0.5000000000000004
 40
0.5000000000000004
 40
0.5000000000000004
 40
1.0
 40
1.0
 40
1.0
 40
1.0
 10
81.59322417735262
 20
169.183198481231
 30
0.0
 10
81.53612451368872
 20
169.2260629933684
 30
0.0
 10
81.46655818703114
 20
169.2603017513538
 30
0.0
 10
81.39150142117217
 20
169.2563696446732
 30
0.0
 10
81.31644465531321
 20
169.2524375379925
 30
0.0
 10
81.2476311593593
 20
169.2096556015336
 30
0.0
 10
81.19354299101269
 20
169.1598280189782
 30
0.0
 10
81.0853666543195
 20
169.0601728538674
 30
0.0
 10
81.01387808882467
 20
168.9360755192837
 30
0.0
 10
80.94708008059796
 20
168.8125831454986
 30
0.0
 10
80.8134840641445
 20
168.5655983979285
 30
0.0
 10
80.71256133401508
 20
168.3122139121741
 30
0.0
 10
80.6165230254185
 20
168.0597949968186
 30
0.0
 10
80.42444640822528
 20
167.5549571661074
 30
0.0
 10
80.2622880734729
 20
167.050012919709
 30
0.0
 10
80.11739421710651
 20
166.5514339678467
 30
0.0
 10
79.82760650437376
 20
165.5542760641222
 30
0.0
 10
79.59322417735258
 20
164.5779196720683
 30
0.0
 10
79.59322417735262
 20
163.5566807936273
 30
0.0
  0
LINE
  5
4A
330
3F
100
AcDbEntity
  8
MEGA_001049
  6
CONTINUOUS
 62
     7
 48
25.4
100
AcDbLine
 10
81.5932241774
 20
164.0788593619
 30
0.0
 11
88.5932241774
 21
164.0788593619
 31
0.0
  0
SPLINE
  5
4B
330
3F
100
AcDbEntity
  8
MEGA_001049
  6
CONTINUOUS
 62
     7
 48
25.4
100
AcDbSpline
210
0.0
220
0.0
230
1.0
 70
     8
 71
     3
 72
    23
 73
    19
 74
     0
 42
0.0000000001
 43
0.0000000001
 40
0.0
 40
0.0
 40
0.0
 40
0.0
 40
0.4999999999999992
 40
0.4999999999999992
 40
0.4999999999999992
 40
0.7499999999999989
 40
0.7499999999999989
 40
0.7499999999999989
 40
0.8749999999999982
 40
0.8749999999999982
 40
0.8749999999999982
 40
0.9374999999999983
 40
0.9374999999999983
 40
0.9374999999999983
 40
0.9687499999999991
 40
0.9687499999999991
 40
0.9687499999999991
 40
1.0
 40
1.0
 40
1.0
 40
1.0
 10
79.59322417735262
 20
185.60103793024
 30
0.0
 10
79.59322417735262
 20
184.580877768798
 30
0.0
 10
79.82760470248223
 20
183.6028916111868
 30
0.0
 10
80.1183037921242
 20
182.6031557869518
 30
0.0
 10
80.26365333694518
 20
182.1032878748343
 30
0.0
 10
80.42579753132021
 20
181.5985223887966
 30
0.0
 10
80.61857376418669
 20
181.0925374169948
 30
0.0
 10
80.71496188061995
 20
180.8395449310939
 30
0.0
 10
80.81685307484931
 20
180.5845697871589
 30
0.0
 10
80.95026595243012
 20
180.3392616807222
 30
0.0
 10
81.01697239122052
 20
180.2166076275039
 30
0.0
 10
81.08907149185481
 20
180.0925364139159
 30
0.0
 10
81.19705190856281
 20
179.9946845461946
 30
0.0
 10
81.25104211691682
 20
179.9457586123339
 30
0.0
 10
81.31922197485065
 20
179.9045126562061
 30
0.0
 10
81.39346575172529
 20
179.9012545249414
 30
0.0
 10
81.46770952859994
 20
179.8979963936767
 30
0.0
 10
81.53670292926634
 20
179.9320899449927
 30
0.0
 10
81.59322417735262
 20
179.9745202426363
 30
0.0
  0
ARC
  5
4C
330
3F
100
AcDbEntity
  8
MEGA_001049
  6
CONTINUOUS
 62
     7
 48
25.4
100
AcDbCircle
 10
80.5932241774
 20
174.5788593619
 30
0.0
 40
22.0
100
AcDbArc
 50
110.6673164935
 51
249.3326835065
  0
ARC
  5
4D
330
3F
100
AcDbEntity
  8
MEGA_001049
  6
CONTINUOUS
 62
     7
 48
25.4
100
AcDbCircle
 10
74.5932241774
 20
158.6728856413
 30
0.0
 40
5.0
100
AcDbArc
 50
249.3326835065
 51
360.0
  0
ARC
  5
4E
330
3F
100
AcDbEntity
  8
MEGA_001049
  6
CONTINUOUS
 62
     7
 48
25.4
100
AcDbCircle
 10
74.5932241774
 20
190.4848330825
 30
0.0
 40
5.0
100
AcDbArc
 50
0.0
 51
110.6673164935
  0
LINE
  5
4F
330
3F
100
AcDbEntity
  8
MEGA_001049
  6
CONTINUOUS
 62
     7
 48
25.4
100
AcDbLine
 10
79.5932241774
 20
190.4848330825
 30
0.0
 11
79.5932241774
 21
185.6010379302
 31
0.0
  0
LINE
  5
50
330
3F
100
AcDbEntity
  8
MEGA_001049
  6
CONTINUOUS
 62
     7
 48
25.4
100
AcDbLine
 10
98.5932241774
 20
182.0788593619
 30
0.0
 11
98.0932241774
 21
182.5788593619
 31
0.0
  0
LINE
  5
51
330
3F
100
AcDbEntity
  8
MEGA_001049
  6
CONTINUOUS
 62
     7
 48
25.4
100
AcDbLine
 10
79.5932241774
 20
163.5566807936
 30
0.0
 11
79.5932241774
 21
158.6728856413
 31
0.0
  0
LINE
  5
52
330
3F
100
AcDbEntity
  8
MEGA_001049
  6
CONTINUOUS
 62
     7
 48
25.4
100
AcDbLine
 10
98.0932241774
 20
166.5788593619
 30
0.0
 11
98.5932241774
 21
167.0788593619
 31
0.0
  0
ARC
  5
53
330
3F
100
AcDbEntity
  8
MEGA_001049
  6
CONTINUOUS
 62
     7
 48
25.4
100
AcDbCircle
 10
-1763.940297689
 20
154.0331209359
 30
0.0
 40
1841.9978792632
100
AcDbArc
 50
0.1309772785
 51
0.2829531297
  0
SPLINE
  5
54
330
3F
100
AcDbEntity
  8
MEGA_001049
  6
CONTINUOUS
 62
     7
 48
25.4
100
AcDbSpline
210
0.0
220
0.0
230
1.0
 70
     8
 71
     3
 72
    17
 73
    13
 74
     0
 42
0.0000000001
 43
0.0000000001
 40
0.0
 40
0.0
 40
0.0
 40
0.0
 40
0.5000000000000003
 40
0.5000000000000003
 40
0.5000000000000003
 40
0.7500000000000004
 40
0.7500000000000004
 40
0.7500000000000004
 40
0.8750000000000002
 40
0.8750000000000002
 40
0.8750000000000002
 40
1.0
 40
1.0
 40
1.0
 40
1.0
 10
78.03511990712556
 20
163.1297236989446
 30
0.0
 10
78.02872938321714
 20
164.3653050080849
 30
0.0
 10
78.37719700983628
 20
165.561331299256
 30
0.0
 10
78.88980095191231
 20
166.6683669107638
 30
0.0
 10
79.14610292295032
 20
167.2218847165177
 30
0.0
 10
79.44290693202585
 20
167.7551463930143
 30
0.0
 10
79.79351138240418
 20
168.2638379727441
 30
0.0
 10
79.96881360759333
 20
168.518183762609
 30
0.0
 10
80.15882005171171
 20
168.76894154691
 30
0.0
 10
80.37639872596627
 20
168.9999278143194
 30
0.0
 10
80.59397740022084
 20
169.2309140817287
 30
0.0
 10
80.83803607143442
 20
169.4527953296239
 30
0.0
 10
81.14790330265491
 20
169.5575193260503
 30
0.0
  0
SPLINE
  5
55
330
3F
100
AcDbEntity
  8
MEGA_001049
  6
CONTINUOUS
 62
     7
 48
25.4
100
AcDbSpline
210
0.0
220
0.0
230
1.0
 70
     8
 71
     3
 72
    17
 73
    13
 74
     0
 42
0.0000000001
 43
0.0000000001
 40
0.0
 40
0.0
 40
0.0
 40
0.0
 40
0.1249999999999999
 40
0.1249999999999999
 40
0.1249999999999999
 40
0.2499999999999999
 40
0.2499999999999999
 40
0.2499999999999999
 40
0.4999999999999998
 40
0.4999999999999998
 40
0.4999999999999998
 40
1.0
 40
1.0
 40
1.0
 40
1.0
 10
81.14790330267618
 20
179.6001993978244
 30
0.0
 10
80.8375588353716
 20
179.7050846828854
 30
0.0
 10
80.59522253361118
 20
179.9260556314374
 30
0.0
 10
80.37988796657132
 20
180.1540912579721
 30
0.0
 10
80.16455339953146
 20
180.3821268845069
 30
0.0
 10
79.97601214579643
 20
180.6297136019462
 30
0.0
 10
79.79908523657709
 20
180.8858033137846
 30
0.0
 10
79.44523141813838
 20
181.3979827374616
 30
0.0
 10
79.14600565199322
 20
181.9359335488077
 30
0.0
 10
78.88944200604183
 20
182.4901270812701
 30
0.0
 10
78.37631471413913
 20
183.5985141461947
 30
0.0
 10
78.02874209358674
 20
184.7948712130612
 30
0.0
 10
78.03511990712556
 20
186.0279950249228
 30
0.0
  0
LINE
  5
56
330
3F
100
AcDbEntity
  8
MEGA_001049
  6
CONTINUOUS
 62
     7
 48
25.4
100
AcDbLine
 10
98.0932241774
 20
166.5788593619
 30
0.0
 11
98.0932241774
 21
182.5788593619
 31
0.0
  0
ARC
  5
57
330
3F
100
AcDbEntity
  8
MEGA_001049
  6
CONTINUOUS
 62
     7
 48
25.4
100
AcDbCircle
 10
-1882.7374598557
 20
195.5537216442
 30
0.0
 40
1960.795718329
100
AcDbArc
 50
359.7216507187
 51
359.8644188731
  0
LINE
  5
59
330
3F
100
AcDbEntity
  8
MEGA_001616
  6
CONTINUOUS
 62
     7
 48
25.4
100
AcDbLine
 10
123.5932241774
 20
178.0788593619
 30
0.0
 11
117.1932241774
 21
178.0788593619
 31
0.0
  0
LINE
  5
5A
330
3F
100
AcDbEntity
  8
MEGA_001616
  6
CONTINUOUS
 62
     7
 48
25.4
100
AcDbLine
 10
123.5932241774
 20
171.0788593619
 30
0.0
 11
98.5932241774
 21
171.0788593619
 31
0.0
  0
ARC
  5
5C
330
3F
100
AcDbEntity
  8
MEGA_001979
  6
CONTINUOUS
 62
     7
 48
25.4
100
AcDbCircle
 10
86.4832745672
 20
174.5788593619
 30
0.0
 40
50.0063180269
100
AcDbArc
 50
350.2446901934
 51
9.7553098066
  0
LINE
  5
5D
330
3F
100
AcDbEntity
  8
MEGA_001979
  6
CONTINUOUS
 62
     7
 48
25.4
100
AcDbLine
 10
133.5932241774
 20
164.0788593619
 30
0.0
 11
133.5932241774
 21
185.0788593619
 31
0.0
  0
LINE
  5
5E
330
3F
100
AcDbEntity
  8
MEGA_001979
  6
CONTINUOUS
 62
     7
 48
25.4
100
AcDbLine
 10
123.5932241774
 20
167.0788593619
 30
0.0
 11
123.5932241774
 21
182.0788593619
 31
0.0
  0
LINE
  5
5F
330
3F
100
AcDbEntity
  8
MEGA_001979
  6
CONTINUOUS
 62
     7
 48
25.4
100
AcDbLine
 10
135.7762197459
 20
166.0788195629
 30
0.0
 11
135.7665192675
 21
166.1057469223
 31
0.0
  0
LINE
  5
60
330
3F
100
AcDbEntity
  8
MEGA_001979
  6
CONTINUOUS
 62
     7
 48
25.4
100
AcDbLine
 10
135.7762197459
 20
183.078899161
 30
0.0
 11
135.7665192675
 21
183.0519718016
 31
0.0
  0
ARC
  5
61
330
3F
100
AcDbEntity
  8
MEGA_001979
  6
CONTINUOUS
 62
     7
 48
25.4
100
AcDbCircle
 10
86.5040196615
 20
174.5788593619
 30
0.0
 40
50.0
100
AcDbArc
 50
9.7877664724
 51
10.9527841989
  0
LINE
  5
62
330
3F
100
AcDbEntity
  8
MEGA_001979
  6
CONTINUOUS
 62
     7
 48
25.4
100
AcDbLine
 10
135.5932241774
 20
165.0788593619
 30
0.0
 11
135.5932241774
 21
184.0788593619
 31
0.0
  0
LINE
  5
63
330
3F
100
AcDbEntity
  8
MEGA_001979
  6
CONTINUOUS
 62
     7
 48
25.4
100
AcDbLine
 10
134.5932241774
 20
164.0788593619
 30
0.0
 11
134.5932241774
 21
185.0788593619
 31
0.0
  0
LINE
  5
64
330
3F
100
AcDbEntity
  8
MEGA_001979
  6
CONTINUOUS
 62
     7
 48
25.4
100
AcDbLine
 10
124.0932241774
 20
166.5788593619
 30
0.0
 11
124.0932241774
 21
182.5788593619
 31
0.0
  0
ARC
  5
65
330
3F
100
AcDbEntity
  8
MEGA_001979
  6
CONTINUOUS
 62
     7
 48
25.4
100
AcDbCircle
 10
86.5040196615
 20
174.5788593619
 30
0.0
 40
50.0
100
AcDbArc
 50
349.0472158011
 51
350.2122631776
  0
LINE
  5
66
330
3F
100
AcDbEntity
  8
MEGA_001979
  6
CONTINUOUS
 62
     7
 48
25.4
100
AcDbLine
 10
134.5932241774
 20
164.0788593619
 30
0.0
 11
135.5932241774
 21
165.0788593619
 31
0.0
  0
LINE
  5
67
330
3F
100
AcDbEntity
  8
MEGA_001979
  6
CONTINUOUS
 62
     7
 48
25.4
100
AcDbLine
 10
124.0932241774
 20
182.5788593619
 30
0.0
 11
123.5932241774
 21
182.0788593619
 31
0.0
  0
LINE
  5
68
330
3F
100
AcDbEntity
  8
MEGA_001979
  6
CONTINUOUS
 62
     7
 48
25.4
100
AcDbLine
 10
135.5932241774
 20
184.0788593619
 30
0.0
 11
134.5932241774
 21
185.0788593619
 31
0.0
  0
LINE
  5
69
330
3F
100
AcDbEntity
  8
MEGA_001979
  6
CONTINUOUS
 62
     7
 48
25.4
100
AcDbLine
 10
123.5932241774
 20
167.0788593619
 30
0.0
 11
124.0932241774
 21
166.5788593619
 31
0.0
  0
LINE
  5
6A
330
3F
100
AcDbEntity
  8
MEGA_001979
  6
CONTINUOUS
 62
     7
 48
25.4
100
AcDbLine
 10
133.5932241774
 20
182.5788593619
 30
0.0
 11
124.0932241774
 21
182.5788593619
 31
0.0
  0
LINE
  5
6B
330
3F
100
AcDbEntity
  8
MEGA_001979
  6
CONTINUOUS
 62
     7
 48
25.4
100
AcDbLine
 10
134.5932241774
 20
185.0788593619
 30
0.0
 11
133.5932241774
 21
185.0788593619
 31
0.0
  0
LINE
  5
6C
330
3F
100
AcDbEntity
  8
MEGA_001979
  6
CONTINUOUS
 62
     7
 48
25.4
100
AcDbLine
 10
124.0932241774
 20
166.5788593619
 30
0.0
 11
133.5932241774
 21
166.5788593619
 31
0.0
  0
LINE
  5
6D
330
3F
100
AcDbEntity
  8
MEGA_001979
  6
CONTINUOUS
 62
     7
 48
25.4
100
AcDbLine
 10
133.5932241774
 20
164.0788593619
 30
0.0
 11
134.5932241774
 21
164.0788593619
 31
0.0
  0
LINE
  5
6F
330
3F
100
AcDbEntity
  8
STANDARD
  6
CONTINUOUS
 62
     7
 48
25.4
100
AcDbLine
 10
117.2258178555
 20
178.0788593619
 30
0.0
 11
98.5932241774
 21
178.0788593619
 31
0.0
  0
ENDBLK
  5
71
330
3F
100
AcDbEntity
  8
0
100
AcDbBlockEnd
  0
BLOCK
  5
7E
330
72
100
AcDbEntity
  8
0
100
AcDbBlockBegin
  2
SE3
 70
     0
 71
     0
 10
0.0
 20
0.0
 30
0.0
  3
SE3
  1

  0
CIRCLE
  5
74
330
72
100
AcDbEntity
  8
MEGA_001979
  6
CONTINUOUS
 62
     7
 48
25.4
100
AcDbCircle
 10
162.621395642
 20
174.5788593619
 30
0.0
 40
10.5
  0
SPLINE
  5
75
330
72
100
AcDbEntity
  8
MEGA_001979
  6
CONTINUOUS
 62
     7
 48
25.4
100
AcDbSpline
210
0.0
220
0.0
230
1.0
 70
     8
 71
     3
 72
    14
 73
    10
 74
     0
 42
0.0000000001
 43
0.0000000001
 40
0.0
 40
0.0
 40
0.0
 40
0.0
 40
0.2500000000000056
 40
0.2500000000000056
 40
0.2500000000000056
 40
0.5000000000000111
 40
0.5000000000000111
 40
0.5000000000000111
 40
1.0
 40
1.0
 40
1.0
 40
1.0
 10
161.4329099863359
 20
183.0519718015998
 30
0.0
 10
161.4748279747419
 20
183.0538718558475
 30
0.0
 10
161.5124071569931
 20
183.0293124414746
 30
0.0
 10
161.5389871211199
 20
182.9991899434363
 30
0.0
 10
161.5655670852468
 20
182.9690674453979
 30
0.0
 10
161.5836986179425
 20
182.9336946287276
 30
0.0
 10
161.5976282308819
 20
182.8970986770599
 30
0.0
 10
161.6254874567608
 20
182.8239067737246
 30
0.0
 10
161.6361399006869
 20
182.7463998146585
 30
0.0
 10
161.6366061326794
 20
182.6682934904256
 30
0.0
  0
ARC
  5
76
330
72
100
AcDbEntity
  8
MEGA_001979
  6
CONTINUOUS
 62
     7
 48
25.4
100
AcDbCircle
 10
162.621395642
 20
192.3210625382
 30
0.0
 40
26.24224211070001
100
AcDbArc
 50
267.4042419237
 51
272.5957580763
  0
SPLINE
  5
77
330
72
100
AcDbEntity
  8
MEGA_001979
  6
CONTINUOUS
 62
     7
 48
25.4
100
AcDbSpline
210
0.0
220
0.0
230
1.0
 70
     8
 71
     3
 72
    14
 73
    10
 74
     0
 42
0.0000000001
 43
0.0000000001
 40
0.0
 40
0.0
 40
0.0
 40
0.0
 40
0.5000000000000047
 40
0.5000000000000047
 40
0.5000000000000047
 40
0.7500000000000023
 40
0.7500000000000023
 40
0.7500000000000023
 40
1.0
 40
1.0
 40
1.0
 40
1.0
 10
161.6366061326794
 20
166.4894252334418
 30
0.0
 10
161.6361394614341
 20
166.4112453226295
 30
0.0
 10
161.6257294548026
 20
166.3348294614529
 30
0.0
 10
161.5979148067489
 20
166.2613748936093
 30
0.0
 10
161.584007482722
 20
166.2246476096875
 30
0.0
 10
161.5654764813996
 20
166.1886003471161
 30
0.0
 10
161.5391150961224
 20
166.1586739370032
 30
0.0
 10
161.5127537108451
 20
166.1287475268903
 30
0.0
 10
161.4749115281752
 20
166.1038430807185
 30
0.0
 10
161.4329099863359
 20
166.1057469222675
 30
0.0
  0
ARC
  5
78
330
72
100
AcDbEntity
  8
MEGA_001979
  6
CONTINUOUS
 62
     7
 48
25.4
100
AcDbCircle
 10
162.621395642
 20
156.8366561856
 30
0.0
 40
26.24224211070001
100
AcDbArc
 50
87.4042419237
 51
92.5957580763
  0
SPLINE
  5
79
330
72
100
AcDbEntity
  8
MEGA_001979
  6
CONTINUOUS
 62
     7
 48
25.4
100
AcDbSpline
210
0.0
220
0.0
230
1.0
 70
     8
 71
     3
 72
    14
 73
    10
 74
     0
 42
0.0000000001
 43
0.0000000001
 40
0.0
 40
0.0
 40
0.0
 40
0.0
 40
0.5000000000000047
 40
0.5000000000000047
 40
0.5000000000000047
 40
0.7500000000000023
 40
0.7500000000000023
 40
0.7500000000000023
 40
1.0
 40
1.0
 40
1.0
 40
1.0
 10
163.6061851513532
 20
182.6682934904256
 30
0.0
 10
163.6066518225984
 20
182.7464734012378
 30
0.0
 10
163.61706182923
 20
182.8228892624144
 30
0.0
 10
163.6448764772837
 20
182.8963438302581
 30
0.0
 10
163.6587838013105
 20
182.9330711141798
 30
0.0
 10
163.677314802633
 20
182.9691183767512
 30
0.0
 10
163.7036761879102
 20
182.9990447868641
 30
0.0
 10
163.7300375731875
 20
183.028971196977
 30
0.0
 10
163.7678797558574
 20
183.0538756431488
 30
0.0
 10
163.8098812976967
 20
183.0519718015999
 30
0.0
  0
ELLIPSE
  5
7A
330
72
100
AcDbEntity
  8
MEGA_001979
  6
CONTINUOUS
 62
     7
 48
25.4
100
AcDbEllipse
 10
162.748617519
 20
174.5788593619
 30
0.0
 11
2.150000000000000E-14
 21
-49.79892481932558
 31
0.0
210
0.0
220
0.0
230
1.0
 40
0.0174524064
 41
1.407631361612293
 42
1.733961291977515
  0
SPLINE
  5
7B
330
72
100
AcDbEntity
  8
MEGA_001979
  6
CONTINUOUS
 62
     7
 48
25.4
100
AcDbSpline
210
0.0
220
0.0
230
1.0
 70
     8
 71
     3
 72
    14
 73
    10
 74
     0
 42
0.0000000001
 43
0.0000000001
 40
0.0
 40
0.0
 40
0.0
 40
0.0
 40
0.2500000000000057
 40
0.2500000000000057
 40
0.2500000000000057
 40
0.5000000000000113
 40
0.5000000000000113
 40
0.5000000000000113
 40
1.0
 40
1.0
 40
1.0
 40
1.0
 10
163.8098812976967
 20
166.1057469222675
 30
0.0
 10
163.7679633092907
 20
166.1038468680198
 30
0.0
 10
163.7303841270395
 20
166.1284062823927
 30
0.0
 10
163.7038041629126
 20
166.1585287804311
 30
0.0
 10
163.6772241987858
 20
166.1886512784694
 30
0.0
 10
163.6590926660901
 20
166.2240240951397
 30
0.0
 10
163.6451630531506
 20
166.2606200468074
 30
0.0
 10
163.6173038272718
 20
166.3338119501427
 30
0.0
 10
163.6066513833457
 20
166.4113189092088
 30
0.0
 10
163.6061851513532
 20
166.4894252334418
 30
0.0
  0
ELLIPSE
  5
7C
330
72
100
AcDbEntity
  8
MEGA_001979
  6
CONTINUOUS
 62
     7
 48
25.4
100
AcDbEllipse
 10
161.2237058227
 20
174.5788593619
 30
0.0
 11
8.500000000000002E-15
 21
-25.0000000000001
 31
0.0
210
0.0
220
0.0
230
0.9999999999999999
 40
0.0174550649
 41
1.241288507751064
 42
1.900304145838722
  0
CIRCLE
  5
7D
330
72
100
AcDbEntity
  8
MEGA_001979
  6
CONTINUOUS
 62
     7
 48
25.4
100
AcDbCircle
 10
162.621395642
 20
174.5788593619
 30
0.0
 40
9.5
  0
ENDBLK
  5
7F
330
72
100
AcDbEntity
  8
0
100
AcDbBlockEnd
  0
BLOCK
  5
88
330
80
100
AcDbEntity
  8
0
100
AcDbBlockBegin
  2
SE4
 70
     0
 71
     0
 10
0.0
 20
0.0
 30
0.0
  3
SE4
  1

  0
POLYLINE
  5
82
330
80
100
AcDbEntity
  8
DEFAULT
  6
CONTINUOUS
 62
     7
 48
25.4
100
AcDb2dPolyline
 66
     1
 10
0.0
 20
0.0
 30
0.0
 70
     1
  0
VERTEX
  5
DC
330
82
100
AcDbEntity
  8
DEFAULT
  6
CONTINUOUS
 62
     7
100
AcDbVertex
100
AcDb2dVertex
 10
155.1213920115
 20
216.4054932965
 30
0.0
  0
VERTEX
  5
DD
330
82
100
AcDbEntity
  8
DEFAULT
  6
CONTINUOUS
 62
     7
100
AcDbVertex
100
AcDb2dVertex
 10
152.1213920291
 20
215.9054930299
 30
0.0
  0
VERTEX
  5
DE
330
82
100
AcDbEntity
  8
DEFAULT
  6
CONTINUOUS
 62
     7
100
AcDbVertex
100
AcDb2dVertex
 10
155.1213920989
 20
215.4054932878
 30
0.0
  0
VERTEX
  5
DF
330
82
100
AcDbEntity
  8
DEFAULT
  6
CONTINUOUS
 62
     7
100
AcDbVertex
100
AcDb2dVertex
 10
155.1213920115
 20
216.4054932965
 30
0.0
  0
SEQEND
  5
DB
330
82
100
AcDbEntity
  8
DEFAULT
  6
CONTINUOUS
 62
     7
 48
25.4
  0
LINE
  5
83
330
80
100
AcDbEntity
  8
DEFAULT
  6
CONTINUOUS
 62
     7
 48
25.4
100
AcDbLine
 10
173.121395642
 20
174.5788602799
 30
0.0
 11
173.121391898
 21
217.4054948788
 31
0.0
  0
LINE
  5
84
330
80
100
AcDbEntity
  8
DEFAULT
  6
CONTINUOUS
 62
     7
 48
25.4
100
AcDbLine
 10
152.121395642
 20
174.578858444
 30
0.0
 11
152.121391898
 21
217.4054930429
 31
0.0
  0
LINE
  5
85
330
80
100
AcDbEntity
  8
DEFAULT
  6
CONTINUOUS
 62
     7
 48
25.4
100
AcDbLine
 10
173.1213920291
 20
215.9054948657
 30
0.0
 11
152.1213923122
 21
215.9054930299
 31
0.0
  0
TEXT
  5
87
330
80
100
AcDbEntity
  8
DEFAULT
  6
CONTINUOUS
 62
     7
 48
25.4
100
AcDbText
 10
161.0873011961
 20
216.6554938137
 30
0.0
 40
3.0
  1
21
 50
0.000005009
  7
SEACAD_SEISO_TTF
 11
161.0873009338
 21
219.6554938137
 31
0.0
100
AcDbText
 73
     3
  0
ENDBLK
  5
89
330
80
100
AcDbEntity
  8
0
100
AcDbBlockEnd
  0
BLOCK
  5
92
330
8A
100
AcDbEntity
  8
0
100
AcDbBlockBegin
  2
SE5
 70
     0
 71
     0
 10
0.0
 20
0.0
 30
0.0
  3
SE5
  1

  0
POLYLINE
  5
8C
330
8A
100
AcDbEntity
  8
DEFAULT
  6
CONTINUOUS
 62
     7
 48
25.4
100
AcDb2dPolyline
 66
     1
 10
0.0
 20
0.0
 30
0.0
 70
     1
  0
VERTEX
  5
E1
330
8C
100
AcDbEntity
  8
DEFAULT
  6
CONTINUOUS
 62
     7
100
AcDbVertex
100
AcDb2dVertex
 10
101.5932242034
 20
217.1978740765
 30
0.0
  0
VERTEX
  5
E2
330
8C
100
AcDbEntity
  8
DEFAULT
  6
CONTINUOUS
 62
     7
100
AcDbVertex
100
AcDb2dVertex
 10
98.5932241774
 20
216.6978740721
 30
0.0
  0
VERTEX
  5
E3
330
8C
100
AcDbEntity
  8
DEFAULT
  6
CONTINUOUS
 62
     7
100
AcDbVertex
100
AcDb2dVertex
 10
101.5932242034
 20
216.1978740678
 30
0.0
  0
VERTEX
  5
E4
330
8C
100
AcDbEntity
  8
DEFAULT
  6
CONTINUOUS
 62
     7
100
AcDbVertex
100
AcDb2dVertex
 10
101.5932242034
 20
217.1978740765
 30
0.0
  0
SEQEND
  5
E0
330
8C
100
AcDbEntity
  8
DEFAULT
  6
CONTINUOUS
 62
     7
 48
25.4
  0
POLYLINE
  5
8D
330
8A
100
AcDbEntity
  8
DEFAULT
  6
CONTINUOUS
 62
     7
 48
25.4
100
AcDb2dPolyline
 66
     1
 10
0.0
 20
0.0
 30
0.0
 70
     1
  0
VERTEX
  5
E6
330
8D
100
AcDbEntity
  8
DEFAULT
  6
CONTINUOUS
 62
     7
100
AcDbVertex
100
AcDb2dVertex
 10
85.5932241513
 20
217.1978740765
 30
0.0
  0
VERTEX
  5
E7
330
8D
100
AcDbEntity
  8
DEFAULT
  6
CONTINUOUS
 62
     7
100
AcDbVertex
100
AcDb2dVertex
 10
88.5932241774
 20
216.6978740721
 30
0.0
  0
VERTEX
  5
E8
330
8D
100
AcDbEntity
  8
DEFAULT
  6
CONTINUOUS
 62
     7
100
AcDbVertex
100
AcDb2dVertex
 10
85.5932241513
 20
216.1978740678
 30
0.0
  0
VERTEX
  5
E9
330
8D
100
AcDbEntity
  8
DEFAULT
  6
CONTINUOUS
 62
     7
100
AcDbVertex
100
AcDb2dVertex
 10
85.5932241513
 20
217.1978740765
 30
0.0
  0
SEQEND
  5
E5
330
8D
100
AcDbEntity
  8
DEFAULT
  6
CONTINUOUS
 62
     7
 48
25.4
  0
LINE
  5
8E
330
8A
100
AcDbEntity
  8
DEFAULT
  6
CONTINUOUS
 62
     7
 48
25.4
100
AcDbLine
 10
98.5932241774
 20
182.0788593619
 30
0.0
 11
98.5932241774
 21
218.1978740852
 31
0.0
  0
LINE
  5
8F
330
8A
100
AcDbEntity
  8
DEFAULT
  6
CONTINUOUS
 62
     7
 48
25.4
100
AcDbLine
 10
88.5932241774
 20
185.0788593619
 30
0.0
 11
88.5932241774
 21
218.1978740852
 31
0.0
  0
LINE
  5
90
330
8A
100
AcDbEntity
  8
DEFAULT
  6
CONTINUOUS
 62
     7
 48
25.4
100
AcDbLine
 10
104.5932242295
 20
216.6978740721
 30
0.0
 11
82.5932234174
 21
216.6978740721
 31
0.0
  0
TEXT
  5
91
330
8A
100
AcDbEntity
  8
DEFAULT
  6
CONTINUOUS
 62
     7
 48
25.4
100
AcDbText
 10
92.0932242891
 20
217.4478740721
 30
0.0
 40
3.0
  1
10
  7
SEACAD_SEISO_TTF
 11
92.0932242891
 21
220.4478740721
 31
0.0
100
AcDbText
 73
     3
  0
ENDBLK
  5
93
330
8A
100
AcDbEntity
  8
0
100
AcDbBlockEnd
  0
BLOCK
  5
9C
330
94
100
AcDbEntity
  8
0
100
AcDbBlockBegin
  2
SE6
 70
     0
 71
     0
 10
0.0
 20
0.0
 30
0.0
  3
SE6
  1

  0
POLYLINE
  5
96
330
94
100
AcDbEntity
  8
DEFAULT
  6
CONTINUOUS
 62
     7
 48
25.4
100
AcDb2dPolyline
 66
     1
 10
0.0
 20
0.0
 30
0.0
 70
     1
  0
VERTEX
  5
EB
330
96
100
AcDbEntity
  8
DEFAULT
  6
CONTINUOUS
 62
     7
100
AcDbVertex
100
AcDb2dVertex
 10
126.5932242034
 20
216.4054899288
 30
0.0
  0
VERTEX
  5
EC
330
96
100
AcDbEntity
  8
DEFAULT
  6
CONTINUOUS
 62
     7
100
AcDbVertex
100
AcDb2dVertex
 10
123.5932241774
 20
215.9054899245
 30
0.0
  0
VERTEX
  5
ED
330
96
100
AcDbEntity
  8
DEFAULT
  6
CONTINUOUS
 62
     7
100
AcDbVertex
100
AcDb2dVertex
 10
126.5932242034
 20
215.4054899201
 30
0.0
  0
VERTEX
  5
EE
330
96
100
AcDbEntity
  8
DEFAULT
  6
CONTINUOUS
 62
     7
100
AcDbVertex
100
AcDb2dVertex
 10
126.5932242034
 20
216.4054899288
 30
0.0
  0
SEQEND
  5
EA
330
96
100
AcDbEntity
  8
DEFAULT
  6
CONTINUOUS
 62
     7
 48
25.4
  0
POLYLINE
  5
97
330
94
100
AcDbEntity
  8
DEFAULT
  6
CONTINUOUS
 62
     7
 48
25.4
100
AcDb2dPolyline
 66
     1
 10
0.0
 20
0.0
 30
0.0
 70
     1
  0
VERTEX
  5
F0
330
97
100
AcDbEntity
  8
DEFAULT
  6
CONTINUOUS
 62
     7
100
AcDbVertex
100
AcDb2dVertex
 10
130.5932241513
 20
216.4054899288
 30
0.0
  0
VERTEX
  5
F1
330
97
100
AcDbEntity
  8
DEFAULT
  6
CONTINUOUS
 62
     7
100
AcDbVertex
100
AcDb2dVertex
 10
133.5932241774
 20
215.9054899245
 30
0.0
  0
VERTEX
  5
F2
330
97
100
AcDbEntity
  8
DEFAULT
  6
CONTINUOUS
 62
     7
100
AcDbVertex
100
AcDb2dVertex
 10
130.5932241513
 20
215.4054899201
 30
0.0
  0
VERTEX
  5
F3
330
97
100
AcDbEntity
  8
DEFAULT
  6
CONTINUOUS
 62
     7
100
AcDbVertex
100
AcDb2dVertex
 10
130.5932241513
 20
216.4054899288
 30
0.0
  0
SEQEND
  5
EF
330
97
100
AcDbEntity
  8
DEFAULT
  6
CONTINUOUS
 62
     7
 48
25.4
  0
LINE
  5
98
330
94
100
AcDbEntity
  8
DEFAULT
  6
CONTINUOUS
 62
     7
 48
25.4
100
AcDbLine
 10
123.5932241774
 20
182.0788593619
 30
0.0
 11
123.5932241774
 21
217.4054899375
 31
0.0
  0
LINE
  5
99
330
94
100
AcDbEntity
  8
DEFAULT
  6
CONTINUOUS
 62
     7
 48
25.4
100
AcDbLine
 10
133.5932241774
 20
185.0788593619
 30
0.0
 11
133.5932241774
 21
217.4054899375
 31
0.0
  0
LINE
  5
9A
330
94
100
AcDbEntity
  8
DEFAULT
  6
CONTINUOUS
 62
     7
 48
25.4
100
AcDbLine
 10
123.5932241774
 20
215.9054899245
 30
0.0
 11
133.5932239538
 21
215.9054899245
 31
0.0
  0
TEXT
  5
9B
330
94
100
AcDbEntity
  8
DEFAULT
  6
CONTINUOUS
 62
     7
 48
25.4
100
AcDbText
 10
127.0932240656
 20
216.6554899245
 30
0.0
 40
3.0
  1
10
  7
SEACAD_SEISO_TTF
 11
127.0932240656
 21
219.6554899245
 31
0.0
100
AcDbText
 73
     3
  0
ENDBLK
  5
9D
330
94
100
AcDbEntity
  8
0
100
AcDbBlockEnd
  0
BLOCK
  5
A6
330
9E
100
AcDbEntity
  8
0
100
AcDbBlockBegin
  2
SE7
 70
     0
 71
     0
 10
0.0
 20
0.0
 30
0.0
  3
SE7
  1

  0
POLYLINE
  5
A0
330
9E
100
AcDbEntity
  8
DEFAULT
  6
CONTINUOUS
 62
     7
 48
25.4
100
AcDb2dPolyline
 66
     1
 10
0.0
 20
0.0
 30
0.0
 70
     1
  0
VERTEX
  5
F5
330
A0
100
AcDbEntity
  8
DEFAULT
  6
CONTINUOUS
 62
     7
100
AcDbVertex
100
AcDb2dVertex
 10
130.5932241513
 20
216.4054912997
 30
0.0
  0
VERTEX
  5
F6
330
A0
100
AcDbEntity
  8
DEFAULT
  6
CONTINUOUS
 62
     7
100
AcDbVertex
100
AcDb2dVertex
 10
133.5932241774
 20
215.9054912954
 30
0.0
  0
VERTEX
  5
F7
330
A0
100
AcDbEntity
  8
DEFAULT
  6
CONTINUOUS
 62
     7
100
AcDbVertex
100
AcDb2dVertex
 10
130.5932241513
 20
215.405491291
 30
0.0
  0
VERTEX
  5
F8
330
A0
100
AcDbEntity
  8
DEFAULT
  6
CONTINUOUS
 62
     7
100
AcDbVertex
100
AcDb2dVertex
 10
130.5932241513
 20
216.4054912997
 30
0.0
  0
SEQEND
  5
F4
330
A0
100
AcDbEntity
  8
DEFAULT
  6
CONTINUOUS
 62
     7
 48
25.4
  0
POLYLINE
  5
A1
330
9E
100
AcDbEntity
  8
DEFAULT
  6
CONTINUOUS
 62
     7
 48
25.4
100
AcDb2dPolyline
 66
     1
 10
0.0
 20
0.0
 30
0.0
 70
     1
  0
VERTEX
  5
FA
330
A1
100
AcDbEntity
  8
DEFAULT
  6
CONTINUOUS
 62
     7
100
AcDbVertex
100
AcDb2dVertex
 10
139.4895926201
 20
216.4054912997
 30
0.0
  0
VERTEX
  5
FB
330
A1
100
AcDbEntity
  8
DEFAULT
  6
CONTINUOUS
 62
     7
100
AcDbVertex
100
AcDb2dVertex
 10
136.4895925941
 20
215.9054912954
 30
0.0
  0
VERTEX
  5
FC
330
A1
100
AcDbEntity
  8
DEFAULT
  6
CONTINUOUS
 62
     7
100
AcDbVertex
100
AcDb2dVertex
 10
139.4895926201
 20
215.405491291
 30
0.0
  0
VERTEX
  5
FD
330
A1
100
AcDbEntity
  8
DEFAULT
  6
CONTINUOUS
 62
     7
100
AcDbVertex
100
AcDb2dVertex
 10
139.4895926201
 20
216.4054912997
 30
0.0
  0
SEQEND
  5
F9
330
A1
100
AcDbEntity
  8
DEFAULT
  6
CONTINUOUS
 62
     7
 48
25.4
  0
LINE
  5
A2
330
9E
100
AcDbEntity
  8
DEFAULT
  6
CONTINUOUS
 62
     7
 48
25.4
100
AcDbLine
 10
133.5932241774
 20
185.0788593619
 30
0.0
 11
133.5932241774
 21
217.4054913084
 31
0.0
  0
LINE
  5
A3
330
9E
100
AcDbEntity
  8
DEFAULT
  6
CONTINUOUS
 62
     7
 48
25.4
100
AcDbLine
 10
136.4895925941
 20
174.5788593619
 30
0.0
 11
136.4895925941
 21
217.4054913084
 31
0.0
  0
LINE
  5
A4
330
9E
100
AcDbEntity
  8
DEFAULT
  6
CONTINUOUS
 62
     7
 48
25.4
100
AcDbLine
 10
127.5932241252
 20
215.9054912954
 30
0.0
 11
142.4895927331
 21
215.9054912954
 31
0.0
  0
TEXT
  5
A5
330
9E
100
AcDbEntity
  8
DEFAULT
  6
CONTINUOUS
 62
     7
 48
25.4
100
AcDbText
 10
134.25731752
 20
216.6554912954
 30
0.0
 40
3.0
  1
3
  7
SEACAD_SEISO_TTF
 11
134.25731752
 21
219.6554912954
 31
0.0
100
AcDbText
 73
     3
  0
ENDBLK
  5
A7
330
9E
100
AcDbEntity
  8
0
100
AcDbBlockEnd
  0
BLOCK
  5
B0
330
A8
100
AcDbEntity
  8
0
100
AcDbBlockBegin
  2
SE8
 70
     0
 71
     0
 10
0.0
 20
0.0
 30
0.0
  3
SE8
  1

  0
POLYLINE
  5
AA
330
A8
100
AcDbEntity
  8
DEFAULT
  6
CONTINUOUS
 62
     7
 48
25.4
100
AcDb2dPolyline
 66
     1
 10
0.0
 20
0.0
 30
0.0
 70
     1
  0
VERTEX
  5
FF
330
AA
100
AcDbEntity
  8
DEFAULT
  6
CONTINUOUS
 62
     7
100
AcDbVertex
100
AcDb2dVertex
 10
61.5932242034
 20
217.1462791039
 30
0.0
  0
VERTEX
  5
100
330
AA
100
AcDbEntity
  8
DEFAULT
  6
CONTINUOUS
 62
     7
100
AcDbVertex
100
AcDb2dVertex
 10
58.5932241774
 20
216.6462790995
 30
0.0
  0
VERTEX
  5
101
330
AA
100
AcDbEntity
  8
DEFAULT
  6
CONTINUOUS
 62
     7
100
AcDbVertex
100
AcDb2dVertex
 10
61.5932242034
 20
216.1462790952
 30
0.0
  0
VERTEX
  5
102
330
AA
100
AcDbEntity
  8
DEFAULT
  6
CONTINUOUS
 62
     7
100
AcDbVertex
100
AcDb2dVertex
 10
61.5932242034
 20
217.1462791039
 30
0.0
  0
SEQEND
  5
FE
330
AA
100
AcDbEntity
  8
DEFAULT
  6
CONTINUOUS
 62
     7
 48
25.4
  0
POLYLINE
  5
AB
330
A8
100
AcDbEntity
  8
DEFAULT
  6
CONTINUOUS
 62
     7
 48
25.4
100
AcDb2dPolyline
 66
     1
 10
0.0
 20
0.0
 30
0.0
 70
     1
  0
VERTEX
  5
104
330
AB
100
AcDbEntity
  8
DEFAULT
  6
CONTINUOUS
 62
     7
100
AcDbVertex
100
AcDb2dVertex
 10
85.5932241513
 20
217.1462791039
 30
0.0
  0
VERTEX
  5
105
330
AB
100
AcDbEntity
  8
DEFAULT
  6
CONTINUOUS
 62
     7
100
AcDbVertex
100
AcDb2dVertex
 10
88.5932241774
 20
216.6462790995
 30
0.0
  0
VERTEX
  5
106
330
AB
100
AcDbEntity
  8
DEFAULT
  6
CONTINUOUS
 62
     7
100
AcDbVertex
100
AcDb2dVertex
 10
85.5932241513
 20
216.1462790952
 30
0.0
  0
VERTEX
  5
107
330
AB
100
AcDbEntity
  8
DEFAULT
  6
CONTINUOUS
 62
     7
100
AcDbVertex
100
AcDb2dVertex
 10
85.5932241513
 20
217.1462791039
 30
0.0
  0
SEQEND
  5
103
330
AB
100
AcDbEntity
  8
DEFAULT
  6
CONTINUOUS
 62
     7
 48
25.4
  0
LINE
  5
AC
330
A8
100
AcDbEntity
  8
DEFAULT
  6
CONTINUOUS
 62
     7
 48
25.4
100
AcDbLine
 10
58.5932241774
 20
174.5788593619
 30
0.0
 11
58.5932241774
 21
218.1462791125
 31
0.0
  0
LINE
  5
AD
330
A8
100
AcDbEntity
  8
DEFAULT
  6
CONTINUOUS
 62
     7
 48
25.4
100
AcDbLine
 10
88.5932241774
 20
185.0788593619
 30
0.0
 11
88.5932241774
 21
218.1462791125
 31
0.0
  0
LINE
  5
AE
330
A8
100
AcDbEntity
  8
DEFAULT
  6
CONTINUOUS
 62
     7
 48
25.4
100
AcDbLine
 10
58.5932241774
 20
216.6462790995
 30
0.0
 11
88.5932235068
 21
216.6462790995
 31
0.0
  0
TEXT
  5
AF
330
A8
100
AcDbEntity
  8
DEFAULT
  6
CONTINUOUS
 62
     7
 48
25.4
100
AcDbText
 10
71.9227692966
 20
217.3962790995
 30
0.0
 40
3.0
  1
30
  7
SEACAD_SEISO_TTF
 11
71.9227692966
 21
220.3962790995
 31
0.0
100
AcDbText
 73
     3
  0
ENDBLK
  5
B1
330
A8
100
AcDbEntity
  8
0
100
AcDbBlockEnd
  0
BLOCK
  5
BA
330
B2
100
AcDbEntity
  8
0
100
AcDbBlockBegin
  2
SE9
 70
     0
 71
     0
 10
0.0
 20
0.0
 30
0.0
  3
SE9
  1

  0
POLYLINE
  5
B4
330
B2
100
AcDbEntity
  8
DEFAULT
  6
CONTINUOUS
 62
     7
 48
25.4
100
AcDb2dPolyline
 66
     1
 10
0.0
 20
0.0
 30
0.0
 70
     1
  0
VERTEX
  5
109
330
B4
100
AcDbEntity
  8
DEFAULT
  6
CONTINUOUS
 62
     7
100
AcDbVertex
100
AcDb2dVertex
 10
129.8133351755
 20
179.5788593359
 30
0.0
  0
VERTEX
  5
10A
330
B4
100
AcDbEntity
  8
DEFAULT
  6
CONTINUOUS
 62
     7
100
AcDbVertex
100
AcDb2dVertex
 10
129.3133351712
 20
182.5788593619
 30
0.0
  0
VERTEX
  5
10B
330
B4
100
AcDbEntity
  8
DEFAULT
  6
CONTINUOUS
 62
     7
100
AcDbVertex
100
AcDb2dVertex
 10
128.8133351668
 20
179.5788593359
 30
0.0
  0
VERTEX
  5
10C
330
B4
100
AcDbEntity
  8
DEFAULT
  6
CONTINUOUS
 62
     7
100
AcDbVertex
100
AcDb2dVertex
 10
129.8133351755
 20
179.5788593359
 30
0.0
  0
SEQEND
  5
108
330
B4
100
AcDbEntity
  8
DEFAULT
  6
CONTINUOUS
 62
     7
 48
25.4
  0
POLYLINE
  5
B5
330
B2
100
AcDbEntity
  8
DEFAULT
  6
CONTINUOUS
 62
     7
 48
25.4
100
AcDb2dPolyline
 66
     1
 10
0.0
 20
0.0
 30
0.0
 70
     1
  0
VERTEX
  5
10E
330
B5
100
AcDbEntity
  8
DEFAULT
  6
CONTINUOUS
 62
     7
100
AcDbVertex
100
AcDb2dVertex
 10
129.8133351755
 20
169.578859388
 30
0.0
  0
VERTEX
  5
10F
330
B5
100
AcDbEntity
  8
DEFAULT
  6
CONTINUOUS
 62
     7
100
AcDbVertex
100
AcDb2dVertex
 10
129.3133351712
 20
166.5788593619
 30
0.0
  0
VERTEX
  5
110
330
B5
100
AcDbEntity
  8
DEFAULT
  6
CONTINUOUS
 62
     7
100
AcDbVertex
100
AcDb2dVertex
 10
128.8133351668
 20
169.578859388
 30
0.0
  0
VERTEX
  5
111
330
B5
100
AcDbEntity
  8
DEFAULT
  6
CONTINUOUS
 62
     7
100
AcDbVertex
100
AcDb2dVertex
 10
129.8133351755
 20
169.578859388
 30
0.0
  0
SEQEND
  5
10D
330
B5
100
AcDbEntity
  8
DEFAULT
  6
CONTINUOUS
 62
     7
 48
25.4
  0
LINE
  5
B6
330
B2
100
AcDbEntity
  8
DEFAULT
  6
CONTINUOUS
 62
     7
 48
25.4
100
AcDbLine
 10
129.3133351712
 20
182.5788593619
 30
0.0
 11
129.3133351712
 21
153.1007322251
 31
0.0
  0
TEXT
  5
B7
330
B2
100
AcDbEntity
  8
DEFAULT
  6
CONTINUOUS
 62
     7
 48
25.4
100
AcDbText
 10
128.5633351712
 20
157.791343907
 30
0.0
 40
3.0
  1
16
 50
90.0
  7
SEACAD_SEISO_TTF
 11
125.5633351712
 21
157.791343907
 31
0.0
100
AcDbText
 73
     3
  0
TEXT
  5
B9
330
B2
100
AcDbEntity
  8
DEFAULT
  6
CONTINUOUS
 62
     7
 48
25.4
100
AcDbText
 10
128.5633351712
 20
154.1507325533
 30
0.0
 40
3.0
  1
O
 50
90.0
  7
SEACAD_SEMECI1_TTF
 11
125.5633351712
 21
154.1507325533
 31
0.0
100
AcDbText
 73
     3
  0
ENDBLK
  5
BB
330
B2
100
AcDbEntity
  8
0
100
AcDbBlockEnd
  0
BLOCK
  5
C4
330
BC
100
AcDbEntity
  8
0
100
AcDbBlockBegin
  2
SE10
 70
     0
 71
     0
 10
0.0
 20
0.0
 30
0.0
  3
SE10
  1

  0
POLYLINE
  5
BE
330
BC
100
AcDbEntity
  8
DEFAULT
  6
CONTINUOUS
 62
     7
 48
25.4
100
AcDb2dPolyline
 66
     1
 10
0.0
 20
0.0
 30
0.0
 70
     1
  0
VERTEX
  5
113
330
BE
100
AcDbEntity
  8
DEFAULT
  6
CONTINUOUS
 62
     7
100
AcDbVertex
100
AcDb2dVertex
 10
43.2258375637
 20
192.4848330564
 30
0.0
  0
VERTEX
  5
114
330
BE
100
AcDbEntity
  8
DEFAULT
  6
CONTINUOUS
 62
     7
100
AcDbVertex
100
AcDb2dVertex
 10
43.725837568
 20
195.4848330825
 30
0.0
  0
VERTEX
  5
115
330
BE
100
AcDbEntity
  8
DEFAULT
  6
CONTINUOUS
 62
     7
100
AcDbVertex
100
AcDb2dVertex
 10
44.2258375724
 20
192.4848330564
 30
0.0
  0
VERTEX
  5
116
330
BE
100
AcDbEntity
  8
DEFAULT
  6
CONTINUOUS
 62
     7
100
AcDbVertex
100
AcDb2dVertex
 10
43.2258375637
 20
192.4848330564
 30
0.0
  0
SEQEND
  5
112
330
BE
100
AcDbEntity
  8
DEFAULT
  6
CONTINUOUS
 62
     7
 48
25.4
  0
POLYLINE
  5
BF
330
BC
100
AcDbEntity
  8
DEFAULT
  6
CONTINUOUS
 62
     7
 48
25.4
100
AcDb2dPolyline
 66
     1
 10
0.0
 20
0.0
 30
0.0
 70
     1
  0
VERTEX
  5
118
330
BF
100
AcDbEntity
  8
DEFAULT
  6
CONTINUOUS
 62
     7
100
AcDbVertex
100
AcDb2dVertex
 10
43.2258375637
 20
156.6728856674
 30
0.0
  0
VERTEX
  5
119
330
BF
100
AcDbEntity
  8
DEFAULT
  6
CONTINUOUS
 62
     7
100
AcDbVertex
100
AcDb2dVertex
 10
43.725837568
 20
153.6728856413
 30
0.0
  0
VERTEX
  5
11A
330
BF
100
AcDbEntity
  8
DEFAULT
  6
CONTINUOUS
 62
     7
100
AcDbVertex
100
AcDb2dVertex
 10
44.2258375724
 20
156.6728856674
 30
0.0
  0
VERTEX
  5
11B
330
BF
100
AcDbEntity
  8
DEFAULT
  6
CONTINUOUS
 62
     7
100
AcDbVertex
100
AcDb2dVertex
 10
43.2258375637
 20
156.6728856674
 30
0.0
  0
SEQEND
  5
117
330
BF
100
AcDbEntity
  8
DEFAULT
  6
CONTINUOUS
 62
     7
 48
25.4
  0
LINE
  5
C0
330
BC
100
AcDbEntity
  8
DEFAULT
  6
CONTINUOUS
 62
     7
 48
25.4
100
AcDbLine
 10
74.5932241774
 20
195.4848330825
 30
0.0
 11
42.225837555
 21
195.4848330825
 31
0.0
  0
LINE
  5
C1
330
BC
100
AcDbEntity
  8
DEFAULT
  6
CONTINUOUS
 62
     7
 48
25.4
100
AcDbLine
 10
74.5932241774
 20
153.6728856413
 30
0.0
 11
42.225837555
 21
153.6728856413
 31
0.0
  0
LINE
  5
C2
330
BC
100
AcDbEntity
  8
DEFAULT
  6
CONTINUOUS
 62
     7
 48
25.4
100
AcDbLine
 10
43.725837568
 20
195.4848330825
 30
0.0
 11
43.725837568
 21
153.672886303
 31
0.0
  0
TEXT
  5
C3
330
BC
100
AcDbEntity
  8
DEFAULT
  6
CONTINUOUS
 62
     7
 48
25.4
100
AcDbText
 10
42.975837568
 20
171.8515869655
 30
0.0
 40
3.0
  1
41,8
 50
90.0
  7
SEACAD_SEISO_TTF
 11
39.975837568
 21
171.8515869655
 31
0.0
100
AcDbText
 73
     3
  0
ENDBLK
  5
C5
330
BC
100
AcDbEntity
  8
0
100
AcDbBlockEnd
  0
BLOCK
  5
CD
330
C6
100
AcDbEntity
  8
0
100
AcDbBlockBegin
  2
SE11
 70
     0
 71
     0
 10
0.0
 20
0.0
 30
0.0
  3
SE11
  1

  0
POLYLINE
  5
C8
330
C6
100
AcDbEntity
  8
DEFAULT
  6
CONTINUOUS
 62
     7
 48
25.4
100
AcDb2dPolyline
 66
     1
 10
0.0
 20
0.0
 30
0.0
 70
     1
  0
VERTEX
  5
11D
330
C8
100
AcDbEntity
  8
DEFAULT
  6
CONTINUOUS
 62
     7
100
AcDbVertex
100
AcDb2dVertex
 10
93.6660268706
 20
179.5788593359
 30
0.0
  0
VERTEX
  5
11E
330
C8
100
AcDbEntity
  8
DEFAULT
  6
CONTINUOUS
 62
     7
100
AcDbVertex
100
AcDb2dVertex
 10
93.1660268663
 20
182.5788593619
 30
0.0
  0
VERTEX
  5
11F
330
C8
100
AcDbEntity
  8
DEFAULT
  6
CONTINUOUS
 62
     7
100
AcDbVertex
100
AcDb2dVertex
 10
92.6660268619
 20
179.5788593359
 30
0.0
  0
VERTEX
  5
120
330
C8
100
AcDbEntity
  8
DEFAULT
  6
CONTINUOUS
 62
     7
100
AcDbVertex
100
AcDb2dVertex
 10
93.6660268706
 20
179.5788593359
 30
0.0
  0
SEQEND
  5
11C
330
C8
100
AcDbEntity
  8
DEFAULT
  6
CONTINUOUS
 62
     7
 48
25.4
  0
POLYLINE
  5
C9
330
C6
100
AcDbEntity
  8
DEFAULT
  6
CONTINUOUS
 62
     7
 48
25.4
100
AcDb2dPolyline
 66
     1
 10
0.0
 20
0.0
 30
0.0
 70
     1
  0
VERTEX
  5
122
330
C9
100
AcDbEntity
  8
DEFAULT
  6
CONTINUOUS
 62
     7
100
AcDbVertex
100
AcDb2dVertex
 10
93.6660268706
 20
169.578859388
 30
0.0
  0
VERTEX
  5
123
330
C9
100
AcDbEntity
  8
DEFAULT
  6
CONTINUOUS
 62
     7
100
AcDbVertex
100
AcDb2dVertex
 10
93.1660268663
 20
166.5788593619
 30
0.0
  0
VERTEX
  5
124
330
C9
100
AcDbEntity
  8
DEFAULT
  6
CONTINUOUS
 62
     7
100
AcDbVertex
100
AcDb2dVertex
 10
92.6660268619
 20
169.578859388
 30
0.0
  0
VERTEX
  5
125
330
C9
100
AcDbEntity
  8
DEFAULT
  6
CONTINUOUS
 62
     7
100
AcDbVertex
100
AcDb2dVertex
 10
93.6660268706
 20
169.578859388
 30
0.0
  0
SEQEND
  5
121
330
C9
100
AcDbEntity
  8
DEFAULT
  6
CONTINUOUS
 62
     7
 48
25.4
  0
LINE
  5
CA
330
C6
100
AcDbEntity
  8
DEFAULT
  6
CONTINUOUS
 62
     7
 48
25.4
100
AcDbLine
 10
93.1660268663
 20
182.5788593619
 30
0.0
 11
93.1660268663
 21
152.8675253271
 31
0.0
  0
TEXT
  5
CB
330
C6
100
AcDbEntity
  8
DEFAULT
  6
CONTINUOUS
 62
     7
 48
25.4
100
AcDbText
 10
92.4160268663
 20
157.5581351464
 30
0.0
 40
3.0
  1
16
 50
90.0
  7
SEACAD_SEISO_TTF
 11
89.4160268663
 21
157.5581351464
 31
0.0
100
AcDbText
 73
     3
  0
TEXT
  5
CC
330
C6
100
AcDbEntity
  8
DEFAULT
  6
CONTINUOUS
 62
     7
 48
25.4
100
AcDbText
 10
92.4160268663
 20
153.9175237927
 30
0.0
 40
3.0
  1
O
 50
90.0
  7
SEACAD_SEMECI1_TTF
 11
89.4160268663
 21
153.9175237927
 31
0.0
100
AcDbText
 73
     3
  0
ENDBLK
  5
CE
330
C6
100
AcDbEntity
  8
0
100
AcDbBlockEnd
  0
BLOCK
  5
D9
330
CF
100
AcDbEntity
  8
0
100
AcDbBlockBegin
  2
SE12
 70
     0
 71
     0
 10
0.0
 20
0.0
 30
0.0
  3
SE12
  1

  0
POLYLINE
  5
D1
330
CF
100
AcDbEntity
  8
DEFAULT
  6
CONTINUOUS
 62
     7
 48
25.4
100
AcDb2dPolyline
 66
     1
 10
0.0
 20
0.0
 30
0.0
 70
     1
  0
VERTEX
  5
127
330
D1
100
AcDbEntity
  8
DEFAULT
  6
CONTINUOUS
 62
     7
100
AcDbVertex
100
AcDb2dVertex
 10
111.0894936764
 20
181.078859388
 30
0.0
  0
VERTEX
  5
128
330
D1
100
AcDbEntity
  8
DEFAULT
  6
CONTINUOUS
 62
     7
100
AcDbVertex
100
AcDb2dVertex
 10
111.5894936808
 20
178.0788593619
 30
0.0
  0
VERTEX
  5
129
330
D1
100
AcDbEntity
  8
DEFAULT
  6
CONTINUOUS
 62
     7
100
AcDbVertex
100
AcDb2dVertex
 10
112.0894936851
 20
181.078859388
 30
0.0
  0
VERTEX
  5
12A
330
D1
100
AcDbEntity
  8
DEFAULT
  6
CONTINUOUS
 62
     7
100
AcDbVertex
100
AcDb2dVertex
 10
111.0894936764
 20
181.078859388
 30
0.0
  0
SEQEND
  5
126
330
D1
100
AcDbEntity
  8
DEFAULT
  6
CONTINUOUS
 62
     7
 48
25.4
  0
POLYLINE
  5
D2
330
CF
100
AcDbEntity
  8
DEFAULT
  6
CONTINUOUS
 62
     7
 48
25.4
100
AcDb2dPolyline
 66
     1
 10
0.0
 20
0.0
 30
0.0
 70
     1
  0
VERTEX
  5
12C
330
D2
100
AcDbEntity
  8
DEFAULT
  6
CONTINUOUS
 62
     7
100
AcDbVertex
100
AcDb2dVertex
 10
111.0894936764
 20
168.0788593359
 30
0.0
  0
VERTEX
  5
12D
330
D2
100
AcDbEntity
  8
DEFAULT
  6
CONTINUOUS
 62
     7
100
AcDbVertex
100
AcDb2dVertex
 10
111.5894936808
 20
171.0788593619
 30
0.0
  0
VERTEX
  5
12E
330
D2
100
AcDbEntity
  8
DEFAULT
  6
CONTINUOUS
 62
     7
100
AcDbVertex
100
AcDb2dVertex
 10
112.0894936851
 20
168.0788593359
 30
0.0
  0
VERTEX
  5
12F
330
D2
100
AcDbEntity
  8
DEFAULT
  6
CONTINUOUS
 62
     7
100
AcDbVertex
100
AcDb2dVertex
 10
111.0894936764
 20
168.0788593359
 30
0.0
  0
SEQEND
  5
12B
330
D2
100
AcDbEntity
  8
DEFAULT
  6
CONTINUOUS
 62
     7
 48
25.4
  0
LINE
  5
D3
330
CF
100
AcDbEntity
  8
DEFAULT
  6
CONTINUOUS
 62
     7
 48
25.4
100
AcDbLine
 10
111.5894936808
 20
184.0788594141
 30
0.0
 11
111.5894936808
 21
144.8004536956
 31
0.0
  0
TEXT
  5
D4
330
CF
100
AcDbEntity
  8
DEFAULT
  6
CONTINUOUS
 62
     7
 48
25.4
100
AcDbText
 10
110.8394936808
 20
149.5565687327
 30
0.0
 40
3.0
  1
7
 50
90.0
  7
SEACAD_SEISO_TTF
 11
107.8394936808
 21
149.5565687327
 31
0.0
100
AcDbText
 73
     3
  0
TEXT
  5
D5
330
CF
100
AcDbEntity
  8
DEFAULT
  6
CONTINUOUS
 62
     7
 48
25.4
100
AcDbText
 10
110.8394936808
 20
145.8504551956
 30
0.0
 40
3.0
  1
q
 50
90.0
  7
SEACAD_SEMECI1_TTF
 11
107.8394936808
 21
145.8504551956
 31
0.0
100
AcDbText
 73
     3
  0
TEXT
  5
D6
330
CF
100
AcDbEntity
  8
DEFAULT
  6
CONTINUOUS
 62
     7
 48
25.4
100
AcDbText
 10
110.8394936808
 20
151.7656596418
 30
0.0
 40
3.0
  1
 / 
 50
90.0
  7
SEACAD_SEISO_TTF
 11
107.8394936808
 21
151.7656596418
 31
0.0
100
AcDbText
 73
     3
  0
TEXT
  5
D7
330
CF
100
AcDbEntity
  8
DEFAULT
  6
CONTINUOUS
 62
     7
 48
25.4
100
AcDbText
 10
110.8394936808
 20
155.3111141873
 30
0.0
 40
3.0
  1
q
 50
90.0
  7
SEACAD_SEMECI1_TTF
 11
107.8394936808
 21
155.3111141873
 31
0.0
100
AcDbText
 73
     3
  0
TEXT
  5
D8
330
CF
100
AcDbEntity
  8
DEFAULT
  6
CONTINUOUS
 62
     7
 48
25.4
100
AcDbText
 10
110.8394936808
 20
158.7172277244
 30
0.0
 40
3.0
  1
8
 50
90.0
  7
SEACAD_SEISO_TTF
 11
107.8394936808
 21
158.7172277244
 31
0.0
100
AcDbText
 73
     3
  0
ENDBLK
  5
DA
330
CF
100
AcDbEntity
  8
0
100
AcDbBlockEnd
  0
ENDSEC
  0
SECTION
  2
ENTITIES
  0
INSERT
  5
2F
330
1F
100
AcDbEntity
  8
0
100
AcDbBlockReference
  2
SE
 10
0.0
 20
0.0
 30
0.0
  0
INSERT
  5
3B
330
1F
100
AcDbEntity
  8
0
100
AcDbBlockReference
  2
SE1
 10
0.0
 20
0.0
 30
0.0
  0
INSERT
  5
40
330
1F
100
AcDbEntity
  8
0
100
AcDbBlockReference
  2
SE2
 10
0.0
 20
0.0
 30
0.0
  0
INSERT
  5
73
330
1F
100
AcDbEntity
  8
0
100
AcDbBlockReference
  2
SE3
 10
0.0
 20
0.0
 30
0.0
  0
INSERT
  5
81
330
1F
100
AcDbEntity
  8
0
100
AcDbBlockReference
  2
SE4
 10
0.0
 20
0.0
 30
0.0
  0
INSERT
  5
8B
330
1F
100
AcDbEntity
  8
0
100
AcDbBlockReference
  2
SE5
 10
0.0
 20
0.0
 30
0.0
  0
INSERT
  5
95
330
1F
100
AcDbEntity
  8
0
100
AcDbBlockReference
  2
SE6
 10
0.0
 20
0.0
 30
0.0
  0
INSERT
  5
9F
330
1F
100
AcDbEntity
  8
0
100
AcDbBlockReference
  2
SE7
 10
0.0
 20
0.0
 30
0.0
  0
INSERT
  5
A9
330
1F
100
AcDbEntity
  8
0
100
AcDbBlockReference
  2
SE8
 10
0.0
 20
0.0
 30
0.0
  0
INSERT
  5
B3
330
1F
100
AcDbEntity
  8
0
100
AcDbBlockReference
  2
SE9
 10
0.0
 20
0.0
 30
0.0
  0
INSERT
  5
BD
330
1F
100
AcDbEntity
  8
0
100
AcDbBlockReference
  2
SE10
 10
0.0
 20
0.0
 30
0.0
  0
INSERT
  5
C7
330
1F
100
AcDbEntity
  8
0
100
AcDbBlockReference
  2
SE11
 10
0.0
 20
0.0
 30
0.0
  0
INSERT
  5
D0
330
1F
100
AcDbEntity
  8
0
100
AcDbBlockReference
  2
SE12
 10
0.0
 20
0.0
 30
0.0
  0
ENDSEC
  0
SECTION
  2
OBJECTS
  0
DICTIONARY
  5
C
330
0
100
AcDbDictionary
  3
ACAD_GROUP
350
D
  3
ACAD_LAYOUT
350
1A
  3
ACAD_MLINESTYLE
350
17
  3
ACAD_PLOTSETTINGS
350
19
  3
ACAD_TABLESTYLE
350
2A
  3
ACDBVARIABLEDICTIONARY
350
2C
1001
ACAD
1000
TREAT_AS_HARD
1070
     0
  0
DICTIONARY
  5
130
330
29
100
AcDbDictionary
  3
ACAD_XREC_ROUNDTRIP
360
131
  0
DICTIONARY
  5
D
102
{ACAD_REACTORS
330
C
102
}
330
C
100
AcDbDictionary
1001
ACAD
1000
TREAT_AS_HARD
1070
     0
  0
DICTIONARY
  5
1A
102
{ACAD_REACTORS
330
C
102
}
330
C
100
AcDbDictionary
1001
ACAD
1000
TREAT_AS_HARD
1070
     0
  0
DICTIONARY
  5
17
102
{ACAD_REACTORS
330
C
102
}
330
C
100
AcDbDictionary
  3
STANDARD
350
18
1001
ACAD
1000
TREAT_AS_HARD
1070
     0
  0
DICTIONARY
  5
19
102
{ACAD_REACTORS
330
C
102
}
330
C
100
AcDbDictionary
1001
ACAD
1000
TREAT_AS_HARD
1070
     0
  0
DICTIONARY
  5
2A
102
{ACAD_REACTORS
330
C
102
}
330
C
100
AcDbDictionary
  3
STANDARD
350
2B
1001
ACAD
1000
TREAT_AS_HARD
1070
     0
  0
DICTIONARY
  5
2C
102
{ACAD_REACTORS
330
C
102
}
330
C
100
AcDbDictionary
  3
CTABLESTYLE
350
2D
1001
ACAD
1000
TREAT_AS_HARD
1070
     0
  0
XRECORD
  5
131
102
{ACAD_REACTORS
330
130
102
}
330
130
100
AcDbXrecord
102
UCS
 74
     0
 71
     1
 10
0.0
 20
0.0
 30
0.0
 10
1.0
 20
0.0
 30
0.0
 10
0.0
 20
1.0
 30
0.0
146
0.0
 79
     0
102
VIEW
281
     0
  0
MLINESTYLE
  5
18
102
{ACAD_REACTORS
330
17
102
}
330
17
100
AcDbMlineStyle
  2
Standard
 70
     0
  3

 62
   256
 51
90.0
 52
90.0
 71
     2
 49
0.5
 62
   256
  6
BYLAYER
 49
-0.5
 62
   256
  6
BYLAYER
  0
TABLESTYLE
  5
2B
102
{ACAD_REACTORS
330
2A
102
}
330
2A
100
AcDbTableStyle
  3
Standard
 70
     0
 71
     0
 40
0.06
 41
0.06
280
     0
281
     0
  7
STANDARD
140
0.18
170
     2
 62
     0
 63
     7
283
     0
274
    -2
284
     1
 64
     0
275
    -2
285
     1
 65
     0
276
    -2
286
     1
 66
     0
277
    -2
287
     1
 67
     0
278
    -2
288
     1
 68
     0
279
    -2
289
     1
 69
     0
  7
STANDARD
140
0.25
170
     5
 62
     0
 63
     7
283
     0
274
    -2
284
     1
 64
     0
275
    -2
285
     1
 65
     0
276
    -2
286
     1
 66
     0
277
    -2
287
     1
 67
     0
278
    -2
288
     1
 68
     0
279
    -2
289
     1
 69
     0
  7
STANDARD
140
0.18
170
     5
 62
     0
 63
     7
283
     0
274
    -2
284
     1
 64
     0
275
    -2
285
     1
 65
     0
276
    -2
286
     1
 66
     0
277
    -2
287
     1
 67
     0
278
    -2
288
     1
 68
     0
279
    -2
289
     1
 69
     0
  0
DICTIONARYVAR
  5
2D
102
{ACAD_REACTORS
330
2C
102
}
330
2C
100
DictionaryVariables
280
     0
  1
Standard
  0
ENDSEC
  0
EOF
