  0
SECTION
  2
HEADER
  9
$ACADVER
  1
AC1012
  9
$DWGCODEPAGE
  3
ansi_1252
  9
$INSBASE
 10
0.0
 20
0.0
 30
0.0
  9
$EXTMIN
 10
0.0
 20
0.0
 30
0.0
  9
$EXTMAX
 10
210.0
 20
297.0
 30
0.0
  9
$LIMMIN
 10
0.0
 20
0.0
  9
$LIMMAX
 10
210.0
 20
297.0
  9
$ORTHOMODE
 70
     0
  9
$REGENMODE
 70
     1
  9
$FILLMODE
 70
     1
  9
$QTEXTMODE
 70
     0
  9
$MIRRTEXT
 70
     1
  9
$DRAGMODE
 70
     2
  9
$LTSCALE
 40
1.0
  9
$OSMODE
 70
    37
  9
$ATTMODE
 70
     1
  9
$TEXTSIZE
 40
0.2
  9
$TRACEWID
 40
0.05
  9
$TEXTSTYLE
  7
STANDARD
  9
$CLAYER
  8
0
  9
$CELTYPE
  6
BYLAYER
  9
$CECOLOR
 62
   256
  9
$CELTSCALE
 40
25.4
  9
$DELOBJ
 70
     1
  9
$DISPSILH
 70
     0
  9
$DIMSCALE
 40
1.0
  9
$DIMASZ
 40
0.18
  9
$DIMEXO
 40
0.0625
  9
$DIMDLI
 40
0.38
  9
$DIMRND
 40
0.0
  9
$DIMDLE
 40
0.0
  9
$DIMEXE
 40
0.18
  9
$DIMTP
 40
0.0
  9
$DIMTM
 40
0.0
  9
$DIMTXT
 40
0.18
  9
$DIMCEN
 40
0.09
  9
$DIMTSZ
 40
0.0
  9
$DIMTOL
 70
     0
  9
$DIMLIM
 70
     0
  9
$DIMTIH
 70
     1
  9
$DIMTOH
 70
     1
  9
$DIMSE1
 70
     0
  9
$DIMSE2
 70
     0
  9
$DIMTAD
 70
     0
  9
$DIMZIN
 70
     0
  9
$DIMBLK
  1

  9
$DIMASO
 70
     1
  9
$DIMSHO
 70
     1
  9
$DIMPOST
  1

  9
$DIMAPOST
  1

  9
$DIMALT
 70
     0
  9
$DIMALTD
 70
     2
  9
$DIMALTF
 40
25.4
  9
$DIMLFAC
 40
1.0
  9
$DIMTOFL
 70
     0
  9
$DIMTVP
 40
0.0
  9
$DIMTIX
 70
     0
  9
$DIMSOXD
 70
     0
  9
$DIMSAH
 70
     0
  9
$DIMBLK1
  1

  9
$DIMBLK2
  1

  9
$DIMSTYLE
  2
STANDARD
  9
$DIMCLRD
 70
     0
  9
$DIMCLRE
 70
     0
  9
$DIMCLRT
 70
     0
  9
$DIMTFAC
 40
1.0
  9
$DIMGAP
 40
0.09
  9
$DIMJUST
 70
     0
  9
$DIMSD1
 70
     0
  9
$DIMSD2
 70
     0
  9
$DIMTOLJ
 70
     1
  9
$DIMTZIN
 70
     0
  9
$DIMALTZ
 70
     0
  9
$DIMALTTZ
 70
     0
  9
$DIMFIT
 70
     3
  9
$DIMUPT
 70
     0
  9
$DIMUNIT
 70
     2
  9
$DIMDEC
 70
     4
  9
$DIMTDEC
 70
     4
  9
$DIMALTU
 70
     2
  9
$DIMALTTD
 70
     2
  9
$DIMTXSTY
  7
STANDARD
  9
$DIMAUNIT
 70
     0
  9
$LUNITS
 70
     2
  9
$LUPREC
 70
     4
  9
$SKETCHINC
 40
0.1
  9
$FILLETRAD
 40
0.5
  9
$AUNITS
 70
     0
  9
$AUPREC
 70
     0
  9
$MENU
  1
.
  9
$ELEVATION
 40
0.0
  9
$PELEVATION
 40
0.0
  9
$THICKNESS
 40
0.0
  9
$LIMCHECK
 70
     0
  9
$CHAMFERA
 40
0.5
  9
$CHAMFERB
 40
0.5
  9
$CHAMFERC
 40
1.0
  9
$CHAMFERD
 40
0.0
  9
$SKPOLY
 70
     0
  9
$TDCREATE
 40
2453762.543708148
  9
$TDUPDATE
 40
2453762.54370816
  9
$TDINDWG
 40
0.0000000116
  9
$TDUSRTIMER
 40
0.0000000116
  9
$USRTIMER
 70
     1
  9
$ANGBASE
 50
0.0
  9
$ANGDIR
 70
     0
  9
$PDMODE
 70
     0
  9
$PDSIZE
 40
0.0
  9
$PLINEWID
 40
0.0
  9
$COORDS
 70
     1
  9
$SPLFRAME
 70
     0
  9
$SPLINETYPE
 70
     6
  9
$SPLINESEGS
 70
     8
  9
$ATTDIA
 70
     0
  9
$ATTREQ
 70
     1
  9
$HANDLING
 70
     1
  9
$HANDSEED
  5
13E
  9
$SURFTAB1
 70
     6
  9
$SURFTAB2
 70
     6
  9
$SURFTYPE
 70
     6
  9
$SURFU
 70
     6
  9
$SURFV
 70
     6
  9
$UCSNAME
  2

  9
$UCSORG
 10
0.0
 20
0.0
 30
0.0
  9
$UCSXDIR
 10
1.0
 20
0.0
 30
0.0
  9
$UCSYDIR
 10
0.0
 20
1.0
 30
0.0
  9
$PUCSNAME
  2

  9
$PUCSORG
 10
0.0
 20
0.0
 30
0.0
  9
$PUCSXDIR
 10
1.0
 20
0.0
 30
0.0
  9
$PUCSYDIR
 10
0.0
 20
1.0
 30
0.0
  9
$USERI1
 70
     0
  9
$USERI2
 70
     0
  9
$USERI3
 70
     0
  9
$USERI4
 70
     0
  9
$USERI5
 70
     0
  9
$USERR1
 40
0.0
  9
$USERR2
 40
0.0
  9
$USERR3
 40
0.0
  9
$USERR4
 40
0.0
  9
$USERR5
 40
0.0
  9
$WORLDVIEW
 70
     1
  9
$SHADEDGE
 70
     3
  9
$SHADEDIF
 70
    70
  9
$TILEMODE
 70
     1
  9
$MAXACTVP
 70
    64
  9
$PINSBASE
 10
0.0
 20
0.0
 30
0.0
  9
$PLIMCHECK
 70
     0
  9
$PEXTMIN
 10
0.0
 20
0.0
 30
0.0
  9
$PEXTMAX
 10
210.0
 20
297.0
 30
0.0
  9
$PLIMMIN
 10
0.0
 20
0.0
  9
$PLIMMAX
 10
12.0
 20
9.0
  9
$UNITMODE
 70
     0
  9
$VISRETAIN
 70
     1
  9
$PLINEGEN
 70
     0
  9
$PSLTSCALE
 70
     1
  9
$TREEDEPTH
 70
  3020
  9
$PICKSTYLE
 70
     1
  9
$CMLSTYLE
  2
STANDARD
  9
$CMLJUST
 70
     0
  9
$CMLSCALE
 40
1.0
  9
$SAVEIMAGES
 70
     1
  0
ENDSEC
  0
SECTION
  2
CLASSES
  0
CLASS
  1
ACDBDICTIONARYWDFLT
  2
AcDbDictionaryWithDefault
  3
ObjectDBX Classes
 90
        0
280
     0
281
     0
  0
CLASS
  1
TABLESTYLE
  2
AcDbTableStyle
  3
ObjectDBX Classes
 90
     2047
280
     0
281
     0
  0
CLASS
  1
DICTIONARYVAR
  2
AcDbDictionaryVar
  3
ObjectDBX Classes
 90
        0
280
     0
281
     0
  0
CLASS
  1
XRECORD
  2
AcDbXrecord
  3
AutoCAD 2000
 90
    32768
280
     0
281
     0
  0
CLASS
  1
LWPOLYLINE
  2
AcDbPolyline
  3
AutoCAD 2000
 90
    32768
280
     0
281
     1
  0
CLASS
  1
HATCH
  2
AcDbHatch
  3
AutoCAD 2000
 90
    32768
280
     0
281
     1
  0
CLASS
  1
ACDBPLACEHOLDER
  2
AcDbPlaceHolder
  3
ObjectDBX Classes
 90
        0
280
     0
281
     0
  0
CLASS
  1
LAYOUT
  2
AcDbLayout
  3
ObjectDBX Classes
 90
        0
280
     0
281
     0
  0
ENDSEC
  0
SECTION
  2
TABLES
  0
TABLE
  2
VPORT
  5
8
330
0
100
AcDbSymbolTable
 70
     2
  0
VPORT
  5
29
102
{ACAD_XDICTIONARY
360
13C
102
}
330
8
100
AcDbSymbolTableRecord
100
AcDbViewportTableRecord
  2
*ACTIVE
 70
     0
 10
0.0
 20
0.0
 11
1.0
 21
1.0
 12
10.4299065421
 22
4.5
 13
0.0
 23
0.0
 14
0.5
 24
0.5
 15
0.5
 25
0.5
 16
0.0
 26
0.0
 36
1.0
 17
0.0
 27
0.0
 37
0.0
 40
9.0
 41
1.9729729729
 42
50.0
 43
0.0
 44
0.0
 50
0.0
 51
0.0
 71
     0
 72
   100
 73
     1
 74
     3
 75
     0
 76
     0
 77
     0
 78
     0
  0
ENDTAB
  0
TABLE
  2
LTYPE
  5
5
330
0
100
AcDbSymbolTable
 70
     2
  0
LTYPE
  5
14
330
5
100
AcDbSymbolTableRecord
100
AcDbLinetypeTableRecord
  2
BYBLOCK
 70
     0
  3

 72
    65
 73
     0
 40
0.0
  0
LTYPE
  5
15
330
5
100
AcDbSymbolTableRecord
100
AcDbLinetypeTableRecord
  2
BYLAYER
 70
     0
  3

 72
    65
 73
     0
 40
0.0
  0
LTYPE
  5
16
330
5
100
AcDbSymbolTableRecord
100
AcDbLinetypeTableRecord
  2
CONTINUOUS
 70
     0
  3
Solid line
 72
    65
 73
     0
 40
0.0
  0
LTYPE
  5
31
330
5
100
AcDbSymbolTableRecord
100
AcDbLinetypeTableRecord
  2
CENTER2
 70
     0
  3
___ _ ___ _ ___ _ ___ _ ___ _ ___ _ ___ _ ___ _
 72
    65
 73
     4
 40
1.125
 49
0.75
 74
     4
 75
     0
340
0
 46
0.0
 50
0.0
 44
0.0
 45
0.0
 49
-0.125
 74
     4
 75
     0
340
0
 46
0.0
 50
0.0
 44
0.0
 45
0.0
 49
0.125
 74
     4
 75
     0
340
0
 46
0.0
 50
0.0
 44
0.0
 45
0.0
 49
-0.125
 74
     4
 75
     0
340
0
 46
0.0
 50
0.0
 44
0.0
 45
0.0
  0
ENDTAB
  0
TABLE
  2
LAYER
  5
2
330
0
100
AcDbSymbolTable
 70
     4
  0
LAYER
  5
10
330
2
100
AcDbSymbolTableRecord
100
AcDbLayerTableRecord
  2
0
 70
     0
 62
     7
  6
CONTINUOUS
  0
LAYER
  5
30
330
2
100
AcDbSymbolTableRecord
100
AcDbLayerTableRecord
  2
DEFAULT
 70
     0
 62
     7
  6
CONTINUOUS
  0
LAYER
  5
50
330
2
100
AcDbSymbolTableRecord
100
AcDbLayerTableRecord
  2
MEGA_001852
 70
     0
 62
     7
  6
CONTINUOUS
  0
LAYER
  5
5F
330
2
100
AcDbSymbolTableRecord
100
AcDbLayerTableRecord
  2
STANDARD
 70
     0
 62
     7
  6
CONTINUOUS
  0
ENDTAB
  0
TABLE
  2
STYLE
  5
3
330
0
100
AcDbSymbolTable
 70
     2
  0
STYLE
  5
11
330
3
100
AcDbSymbolTableRecord
100
AcDbTextStyleTableRecord
  2
STANDARD
 70
     0
 40
0.0
 41
1.0
 50
0.0
 71
     0
 42
0.2
  3
txt
  4

  0
STYLE
  5
7F
330
3
100
AcDbSymbolTableRecord
100
AcDbTextStyleTableRecord
  2
SEACAD_SEISO_TTF
 70
     0
 40
0.2
 41
1.0
 50
0.0
 71
     0
 42
0.2
  3
seiso.ttf
  4

  0
ENDTAB
  0
TABLE
  2
VIEW
  5
6
330
0
100
AcDbSymbolTable
 70
     0
  0
ENDTAB
  0
TABLE
  2
UCS
  5
7
330
0
100
AcDbSymbolTable
 70
     0
  0
ENDTAB
  0
TABLE
  2
APPID
  5
9
330
0
100
AcDbSymbolTable
 70
     1
  0
APPID
  5
12
330
9
100
AcDbSymbolTableRecord
100
AcDbRegAppTableRecord
  2
ACAD
 70
     0
  0
ENDTAB
  0
TABLE
  2
DIMSTYLE
  5
A
330
0
100
AcDbSymbolTable
 70
     1
  0
DIMSTYLE
105
27
330
A
100
AcDbSymbolTableRecord
100
AcDbDimStyleTableRecord
  2
STANDARD
 70
     0
  3

  4

  5

  6

  7

 40
1.0
 41
0.18
 42
0.0625
 43
0.38
 44
0.18
 45
0.0
 46
0.0
 47
0.0
 48
0.0
140
0.18
141
0.09
142
0.0
143
25.4
144
1.0
145
0.0
146
1.0
147
0.09
 71
     0
 72
     0
 73
     1
 74
     1
 75
     0
 76
     0
 77
     0
 78
     0
170
     0
171
     2
172
     0
173
     0
174
     0
175
     0
176
     0
177
     0
178
     0
270
     2
271
     4
272
     4
273
     2
274
     2
340
11
275
     0
280
     0
281
     0
282
     0
283
     1
284
     0
285
     0
286
     0
287
     3
288
     0
  0
ENDTAB
  0
TABLE
  2
BLOCK_RECORD
  5
1
330
0
100
AcDbSymbolTable
 70
    18
  0
BLOCK_RECORD
  5
1F
330
1
100
AcDbSymbolTableRecord
100
AcDbBlockTableRecord
  2
*MODEL_SPACE
  0
BLOCK_RECORD
  5
1B
330
1
100
AcDbSymbolTableRecord
100
AcDbBlockTableRecord
  2
*PAPER_SPACE
  0
BLOCK_RECORD
  5
2E
330
1
100
AcDbSymbolTableRecord
100
AcDbBlockTableRecord
  2
SE
  0
BLOCK_RECORD
  5
36
330
1
100
AcDbSymbolTableRecord
100
AcDbBlockTableRecord
  2
SE1
  0
BLOCK_RECORD
  5
3C
330
1
100
AcDbSymbolTableRecord
100
AcDbBlockTableRecord
  2
SE2
  0
BLOCK_RECORD
  5
42
330
1
100
AcDbSymbolTableRecord
100
AcDbBlockTableRecord
  2
SE3
  0
BLOCK_RECORD
  5
48
330
1
100
AcDbSymbolTableRecord
100
AcDbBlockTableRecord
  2
SE4
  0
BLOCK_RECORD
  5
4E
330
1
100
AcDbSymbolTableRecord
100
AcDbBlockTableRecord
  2
SE5
  0
BLOCK_RECORD
  5
65
330
1
100
AcDbSymbolTableRecord
100
AcDbBlockTableRecord
  2
SE6
  0
BLOCK_RECORD
  5
79
330
1
100
AcDbSymbolTableRecord
100
AcDbBlockTableRecord
  2
SE7
  0
BLOCK_RECORD
  5
83
330
1
100
AcDbSymbolTableRecord
100
AcDbBlockTableRecord
  2
SE8
  0
BLOCK_RECORD
  5
8D
330
1
100
AcDbSymbolTableRecord
100
AcDbBlockTableRecord
  2
SE9
  0
BLOCK_RECORD
  5
97
330
1
100
AcDbSymbolTableRecord
100
AcDbBlockTableRecord
  2
SE10
  0
BLOCK_RECORD
  5
A1
330
1
100
AcDbSymbolTableRecord
100
AcDbBlockTableRecord
  2
SE11
  0
BLOCK_RECORD
  5
AB
330
1
100
AcDbSymbolTableRecord
100
AcDbBlockTableRecord
  2
SE12
  0
BLOCK_RECORD
  5
B5
330
1
100
AcDbSymbolTableRecord
100
AcDbBlockTableRecord
  2
SE13
  0
BLOCK_RECORD
  5
BF
330
1
100
AcDbSymbolTableRecord
100
AcDbBlockTableRecord
  2
SE14
  0
BLOCK_RECORD
  5
C9
330
1
100
AcDbSymbolTableRecord
100
AcDbBlockTableRecord
  2
SE15
  0
BLOCK_RECORD
  5
D3
330
1
100
AcDbSymbolTableRecord
100
AcDbBlockTableRecord
  2
SE16
  0
ENDTAB
  0
ENDSEC
  0
SECTION
  2
BLOCKS
  0
BLOCK
  5
20
330
1F
100
AcDbEntity
  8
0
100
AcDbBlockBegin
  2
*MODEL_SPACE
 70
     0
 71
     0
 10
0.0
 20
0.0
 30
0.0
  3
*MODEL_SPACE
  1

  0
ENDBLK
  5
21
330
1F
100
AcDbEntity
  8
0
100
AcDbBlockEnd
  0
BLOCK
  5
1C
330
1B
100
AcDbEntity
 67
     1
  8
0
100
AcDbBlockBegin
  2
*PAPER_SPACE
 70
     0
 71
     0
 10
0.0
 20
0.0
 30
0.0
  3
*PAPER_SPACE
  1

  0
ENDBLK
  5
1D
330
1B
100
AcDbEntity
 67
     1
  8
0
100
AcDbBlockEnd
  0
BLOCK
  5
34
330
2E
100
AcDbEntity
  8
0
100
AcDbBlockBegin
  2
SE
 70
     0
 71
     0
 10
0.0
 20
0.0
 30
0.0
  3
SE
  1

  0
LINE
  5
32
330
2E
100
AcDbEntity
  8
DEFAULT
  6
CENTER2
 62
     7
 48
25.4
100
AcDbLine
 10
78.2290969148
 20
243.6521224159
 30
0.0
 11
66.2290968105
 21
243.6521224159
 31
0.0
  0
LINE
  5
33
330
2E
100
AcDbEntity
  8
DEFAULT
  6
CENTER2
 62
     7
 48
25.4
100
AcDbLine
 10
72.2290968627
 20
249.6521224681
 30
0.0
 11
72.2290968627
 21
237.6521223638
 31
0.0
  0
ENDBLK
  5
35
330
2E
100
AcDbEntity
  8
0
100
AcDbBlockEnd
  0
BLOCK
  5
3A
330
36
100
AcDbEntity
  8
0
100
AcDbBlockBegin
  2
SE1
 70
     0
 71
     0
 10
0.0
 20
0.0
 30
0.0
  3
SE1
  1

  0
LINE
  5
38
330
36
100
AcDbEntity
  8
DEFAULT
  6
CENTER2
 62
     7
 48
25.4
100
AcDbLine
 10
106.2290969148
 20
243.6521224159
 30
0.0
 11
94.2290968105
 21
243.6521224159
 31
0.0
  0
LINE
  5
39
330
36
100
AcDbEntity
  8
DEFAULT
  6
CENTER2
 62
     7
 48
25.4
100
AcDbLine
 10
100.2290968627
 20
249.6521224681
 30
0.0
 11
100.2290968627
 21
237.6521223638
 31
0.0
  0
ENDBLK
  5
3B
330
36
100
AcDbEntity
  8
0
100
AcDbBlockEnd
  0
BLOCK
  5
40
330
3C
100
AcDbEntity
  8
0
100
AcDbBlockBegin
  2
SE2
 70
     0
 71
     0
 10
0.0
 20
0.0
 30
0.0
  3
SE2
  1

  0
LINE
  5
3E
330
3C
100
AcDbEntity
  8
DEFAULT
  6
CENTER2
 62
     7
 48
25.4
100
AcDbLine
 10
106.2290969148
 20
25.6521224159
 30
0.0
 11
94.2290968105
 21
25.6521224159
 31
0.0
  0
LINE
  5
3F
330
3C
100
AcDbEntity
  8
DEFAULT
  6
CENTER2
 62
     7
 48
25.4
100
AcDbLine
 10
100.2290968627
 20
31.6521224681
 30
0.0
 11
100.2290968627
 21
19.6521223638
 31
0.0
  0
ENDBLK
  5
41
330
3C
100
AcDbEntity
  8
0
100
AcDbBlockEnd
  0
BLOCK
  5
46
330
42
100
AcDbEntity
  8
0
100
AcDbBlockBegin
  2
SE3
 70
     0
 71
     0
 10
0.0
 20
0.0
 30
0.0
  3
SE3
  1

  0
LINE
  5
44
330
42
100
AcDbEntity
  8
DEFAULT
  6
CENTER2
 62
     7
 48
25.4
100
AcDbLine
 10
78.2290969148
 20
25.6521224159
 30
0.0
 11
66.2290968105
 21
25.6521224159
 31
0.0
  0
LINE
  5
45
330
42
100
AcDbEntity
  8
DEFAULT
  6
CENTER2
 62
     7
 48
25.4
100
AcDbLine
 10
72.2290968627
 20
31.6521224681
 30
0.0
 11
72.2290968627
 21
19.6521223638
 31
0.0
  0
ENDBLK
  5
47
330
42
100
AcDbEntity
  8
0
100
AcDbBlockEnd
  0
BLOCK
  5
4C
330
48
100
AcDbEntity
  8
0
100
AcDbBlockBegin
  2
SE4
 70
     0
 71
     0
 10
0.0
 20
0.0
 30
0.0
  3
SE4
  1

  0
LINE
  5
4A
330
48
100
AcDbEntity
  8
DEFAULT
  6
CENTER2
 62
     7
 48
25.4
100
AcDbLine
 10
92.2290969148
 20
169.6521224159
 30
0.0
 11
80.2290968105
 21
169.6521224159
 31
0.0
  0
LINE
  5
4B
330
48
100
AcDbEntity
  8
DEFAULT
  6
CENTER2
 62
     7
 48
25.4
100
AcDbLine
 10
86.2290968627
 20
175.6521224681
 30
0.0
 11
86.2290968627
 21
163.6521223638
 31
0.0
  0
ENDBLK
  5
4D
330
48
100
AcDbEntity
  8
0
100
AcDbBlockEnd
  0
BLOCK
  5
63
330
4E
100
AcDbEntity
  8
0
100
AcDbBlockBegin
  2
SE5
 70
     0
 71
     0
 10
0.0
 20
0.0
 30
0.0
  3
SE5
  1

  0
LINE
  5
51
330
4E
100
AcDbEntity
  8
MEGA_001852
  6
CONTINUOUS
 62
     7
 48
25.4
100
AcDbLine
 10
61.2290968627
 20
32.6521224159
 30
0.0
 11
61.2290968627
 21
236.6521224159
 31
0.0
  0
ARC
  5
52
330
4E
100
AcDbEntity
  8
MEGA_001852
  6
CONTINUOUS
 62
     7
 48
25.4
100
AcDbCircle
 10
86.2290968627
 20
236.6521224159
 30
0.0
 40
25.0
100
AcDbArc
 50
0.0
 51
180.0
  0
LINE
  5
53
330
4E
100
AcDbEntity
  8
MEGA_001852
  6
CONTINUOUS
 62
     7
 48
25.4
100
AcDbLine
 10
111.2290968627
 20
236.6521224159
 30
0.0
 11
111.2290968627
 21
32.6521224159
 31
0.0
  0
ARC
  5
54
330
4E
100
AcDbEntity
  8
MEGA_001852
  6
CONTINUOUS
 62
     7
 48
25.4
100
AcDbCircle
 10
86.2290968627
 20
32.6521224159
 30
0.0
 40
25.0
100
AcDbArc
 50
180.0
 51
360.0
  0
CIRCLE
  5
55
330
4E
100
AcDbEntity
  8
MEGA_001852
  6
CONTINUOUS
 62
     7
 48
25.4
100
AcDbCircle
 10
72.2290968627
 20
25.6521224159
 30
0.0
 40
2.0
  0
CIRCLE
  5
56
330
4E
100
AcDbEntity
  8
MEGA_001852
  6
CONTINUOUS
 62
     7
 48
25.4
100
AcDbCircle
 10
100.2290968627
 20
25.6521224159
 30
0.0
 40
2.0
  0
CIRCLE
  5
57
330
4E
100
AcDbEntity
  8
MEGA_001852
  6
CONTINUOUS
 62
     7
 48
25.4
100
AcDbCircle
 10
72.2290968627
 20
25.6521224159
 30
0.0
 40
3.599999999999981
  0
CIRCLE
  5
58
330
4E
100
AcDbEntity
  8
MEGA_001852
  6
CONTINUOUS
 62
     7
 48
25.4
100
AcDbCircle
 10
100.2290968627
 20
243.6521224159
 30
0.0
 40
3.599999999999994
  0
CIRCLE
  5
59
330
4E
100
AcDbEntity
  8
MEGA_001852
  6
CONTINUOUS
 62
     7
 48
25.4
100
AcDbCircle
 10
72.2290968627
 20
243.6521224159
 30
0.0
 40
2.0
  0
CIRCLE
  5
5A
330
4E
100
AcDbEntity
  8
MEGA_001852
  6
CONTINUOUS
 62
     7
 48
25.4
100
AcDbCircle
 10
72.2290968627
 20
243.6521224159
 30
0.0
 40
3.599999999999994
  0
CIRCLE
  5
5B
330
4E
100
AcDbEntity
  8
MEGA_001852
  6
CONTINUOUS
 62
     7
 48
25.4
100
AcDbCircle
 10
100.2290968627
 20
25.6521224159
 30
0.0
 40
3.599999999999981
  0
CIRCLE
  5
5C
330
4E
100
AcDbEntity
  8
MEGA_001852
  6
CONTINUOUS
 62
     7
 48
25.4
100
AcDbCircle
 10
100.2290968627
 20
243.6521224159
 30
0.0
 40
2.0
  0
CIRCLE
  5
5D
330
4E
100
AcDbEntity
  8
MEGA_001852
  6
CONTINUOUS
 62
     7
 48
25.4
100
AcDbCircle
 10
86.2290968627
 20
169.6521224159
 30
0.0
 40
9.049999999999997
  0
CIRCLE
  5
5E
330
4E
100
AcDbEntity
  8
MEGA_001852
  6
CONTINUOUS
 62
     7
 48
25.4
100
AcDbCircle
 10
86.2290968627
 20
169.6521224159
 30
0.0
 40
9.549999999999985
  0
LINE
  5
60
330
4E
100
AcDbEntity
  8
STANDARD
  6
CENTER2
 62
     7
 48
25.4
100
AcDbLine
 10
86.2290968627
 20
261.6521224159
 30
0.0
 11
86.2290968627
 21
7.6521224159
 31
0.0
  0
LINE
  5
61
330
4E
100
AcDbEntity
  8
STANDARD
  6
CENTER2
 62
     7
 48
25.4
100
AcDbLine
 10
86.2290968627
 20
261.6521224159
 30
0.0
 11
86.2290968627
 21
266.1415147262
 31
0.0
  0
LINE
  5
62
330
4E
100
AcDbEntity
  8
STANDARD
  6
CENTER2
 62
     7
 48
25.4
100
AcDbLine
 10
86.2290968627
 20
7.6521224159
 30
0.0
 11
86.2290968627
 21
3.2911006765
 31
0.0
  0
ENDBLK
  5
64
330
4E
100
AcDbEntity
  8
0
100
AcDbBlockEnd
  0
BLOCK
  5
77
330
65
100
AcDbEntity
  8
0
100
AcDbBlockBegin
  2
SE6
 70
     0
 71
     0
 10
0.0
 20
0.0
 30
0.0
  3
SE6
  1

  0
ARC
  5
67
330
65
100
AcDbEntity
  8
MEGA_001852
  6
CONTINUOUS
 62
     7
 48
25.4
100
AcDbCircle
 10
157.4185704024
 20
159.1102880029
 30
0.0
 40
0.5
100
AcDbArc
 50
180.0
 51
265.0
  0
LINE
  5
68
330
65
100
AcDbEntity
  8
MEGA_001852
  6
CONTINUOUS
 62
     7
 48
25.4
100
AcDbLine
 10
161.2185704024
 20
181.0283236691
 30
0.0
 11
157.374992531
 21
180.692054178
 31
0.0
  0
LINE
  5
69
330
65
100
AcDbEntity
  8
MEGA_001852
  6
CONTINUOUS
 62
     7
 48
25.4
100
AcDbLine
 10
161.2185704024
 20
7.6521224159
 30
0.0
 11
165.4920942088
 21
8.7972096687
 31
0.0
  0
LINE
  5
6A
330
65
100
AcDbEntity
  8
MEGA_001852
  6
CONTINUOUS
 62
     7
 48
25.4
100
AcDbLine
 10
161.2185704024
 20
7.6521224159
 30
0.0
 11
161.2185704024
 21
32.6521224159
 31
0.0
  0
LINE
  5
6B
330
65
100
AcDbEntity
  8
MEGA_001852
  6
CONTINUOUS
 62
     7
 48
25.4
100
AcDbLine
 10
161.2185704024
 20
32.6521224159
 30
0.0
 11
161.2185704024
 21
236.6521224159
 31
0.0
  0
LINE
  5
6C
330
65
100
AcDbEntity
  8
MEGA_001852
  6
CONTINUOUS
 62
     7
 48
25.4
100
AcDbLine
 10
161.2185704024
 20
261.6521224159
 30
0.0
 11
161.2185704024
 21
236.6521224159
 31
0.0
  0
LINE
  5
6D
330
65
100
AcDbEntity
  8
MEGA_001852
  6
CONTINUOUS
 62
     7
 48
25.4
100
AcDbLine
 10
156.9185704024
 20
180.1939568289
 30
0.0
 11
156.9185704024
 21
159.1102880029
 31
0.0
  0
LINE
  5
6E
330
65
100
AcDbEntity
  8
MEGA_001852
  6
CONTINUOUS
 62
     7
 48
25.4
100
AcDbLine
 10
166.4185704024
 20
10.0046169516
 30
0.0
 11
166.4185704024
 21
32.6521224159
 31
0.0
  0
LINE
  5
6F
330
65
100
AcDbEntity
  8
MEGA_001852
  6
CONTINUOUS
 62
     7
 48
25.4
100
AcDbLine
 10
166.4185704024
 20
236.6521224159
 30
0.0
 11
166.4185704024
 21
32.6521224159
 31
0.0
  0
LINE
  5
70
330
65
100
AcDbEntity
  8
MEGA_001852
  6
CONTINUOUS
 62
     7
 48
25.4
100
AcDbLine
 10
166.4185704024
 20
259.2996278803
 30
0.0
 11
166.4185704024
 21
236.6521224159
 31
0.0
  0
ARC
  5
71
330
65
100
AcDbEntity
  8
MEGA_001852
  6
CONTINUOUS
 62
     7
 48
25.4
100
AcDbCircle
 10
165.1685704024
 20
10.0046169516
 30
0.0
 40
1.25
100
AcDbArc
 50
285.0
 51
360.0
  0
ARC
  5
72
330
65
100
AcDbEntity
  8
MEGA_001852
  6
CONTINUOUS
 62
     7
 48
25.4
100
AcDbCircle
 10
165.1685704024
 20
259.2996278803
 30
0.0
 40
1.25
100
AcDbArc
 50
0.0
 51
75.0
  0
LINE
  5
73
330
65
100
AcDbEntity
  8
MEGA_001852
  6
CONTINUOUS
 62
     7
 48
25.4
100
AcDbLine
 10
165.4920942088
 20
260.5070351632
 30
0.0
 11
161.2185704024
 21
261.6521224159
 31
0.0
  0
ARC
  5
74
330
65
100
AcDbEntity
  8
MEGA_001852
  6
CONTINUOUS
 62
     7
 48
25.4
100
AcDbCircle
 10
157.4185704024
 20
180.1939568289
 30
0.0
 40
0.5
100
AcDbArc
 50
95.0
 51
180.0
  0
LINE
  5
75
330
65
100
AcDbEntity
  8
MEGA_001852
  6
CONTINUOUS
 62
     7
 48
25.4
100
AcDbLine
 10
157.374992531
 20
158.6121906539
 30
0.0
 11
161.2185704024
 21
158.2759211628
 31
0.0
  0
LINE
  5
76
330
65
100
AcDbEntity
  8
STANDARD
  6
CENTER2
 62
     7
 48
25.4
100
AcDbLine
 10
156.9185704024
 20
169.6521224159
 30
0.0
 11
166.4185704024
 21
169.6521224159
 31
0.0
  0
ENDBLK
  5
78
330
65
100
AcDbEntity
  8
0
100
AcDbBlockEnd
  0
BLOCK
  5
81
330
79
100
AcDbEntity
  8
0
100
AcDbBlockBegin
  2
SE7
 70
     0
 71
     0
 10
0.0
 20
0.0
 30
0.0
  3
SE7
  1

  0
POLYLINE
  5
7B
330
79
100
AcDbEntity
  8
DEFAULT
  6
CONTINUOUS
 62
     7
 48
25.4
100
AcDb2dPolyline
 66
     1
 10
0.0
 20
0.0
 30
0.0
 70
     1
  0
VERTEX
  5
DE
330
7B
100
AcDbEntity
  8
DEFAULT
  6
CONTINUOUS
 62
     7
100
AcDbVertex
100
AcDb2dVertex
 10
27.3877166496
 20
10.652122442
 30
0.0
  0
VERTEX
  5
DF
330
7B
100
AcDbEntity
  8
DEFAULT
  6
CONTINUOUS
 62
     7
100
AcDbVertex
100
AcDb2dVertex
 10
27.8877166539
 20
7.6521224159
 30
0.0
  0
VERTEX
  5
E0
330
7B
100
AcDbEntity
  8
DEFAULT
  6
CONTINUOUS
 62
     7
100
AcDbVertex
100
AcDb2dVertex
 10
28.3877166583
 20
10.652122442
 30
0.0
  0
VERTEX
  5
E1
330
7B
100
AcDbEntity
  8
DEFAULT
  6
CONTINUOUS
 62
     7
100
AcDbVertex
100
AcDb2dVertex
 10
27.3877166496
 20
10.652122442
 30
0.0
  0
SEQEND
  5
DD
330
7B
100
AcDbEntity
  8
DEFAULT
  6
CONTINUOUS
 62
     7
 48
25.4
  0
LINE
  5
7C
330
79
100
AcDbEntity
  8
DEFAULT
  6
CONTINUOUS
 62
     7
 48
25.4
100
AcDbLine
 10
86.2290968627
 20
261.6521224159
 30
0.0
 11
26.3877166409
 21
261.6521224159
 31
0.0
  0
LINE
  5
7D
330
79
100
AcDbEntity
  8
DEFAULT
  6
CONTINUOUS
 62
     7
 48
25.4
100
AcDbLine
 10
86.2290968627
 20
7.6521224159
 30
0.0
 11
26.3877166409
 21
7.6521224159
 31
0.0
  0
LINE
  5
7E
330
79
100
AcDbEntity
  8
DEFAULT
  6
CONTINUOUS
 62
     7
 48
25.4
100
AcDbLine
 10
27.8877166539
 20
261.6521224159
 30
0.0
 11
27.8877166539
 21
7.6521143097
 31
0.0
  0
TEXT
  5
80
330
79
100
AcDbEntity
  8
DEFAULT
  6
CONTINUOUS
 62
     7
 48
25.4
100
AcDbText
 10
27.1377166539
 20
131.9930274537
 30
0.0
 40
3.0
  1
254
 50
90.0
  7
SEACAD_SEISO_TTF
 11
24.1377166539
 21
131.9930274537
 31
0.0
100
AcDbText
 73
     3
  0
ENDBLK
  5
82
330
79
100
AcDbEntity
  8
0
100
AcDbBlockEnd
  0
BLOCK
  5
8B
330
83
100
AcDbEntity
  8
0
100
AcDbBlockBegin
  2
SE8
 70
     0
 71
     0
 10
0.0
 20
0.0
 30
0.0
  3
SE8
  1

  0
POLYLINE
  5
85
330
83
100
AcDbEntity
  8
DEFAULT
  6
CONTINUOUS
 62
     7
 48
25.4
100
AcDb2dPolyline
 66
     1
 10
0.0
 20
0.0
 30
0.0
 70
     1
  0
VERTEX
  5
E3
330
85
100
AcDbEntity
  8
DEFAULT
  6
CONTINUOUS
 62
     7
100
AcDbVertex
100
AcDb2dVertex
 10
128.1821829712
 20
163.6021242758
 30
0.0
  0
VERTEX
  5
E4
330
85
100
AcDbEntity
  8
DEFAULT
  6
CONTINUOUS
 62
     7
100
AcDbVertex
100
AcDb2dVertex
 10
127.682183098
 20
160.6021242279
 30
0.0
  0
VERTEX
  5
E5
330
85
100
AcDbEntity
  8
DEFAULT
  6
CONTINUOUS
 62
     7
100
AcDbVertex
100
AcDb2dVertex
 10
127.1821829625
 20
163.6021242321
 30
0.0
  0
VERTEX
  5
E6
330
85
100
AcDbEntity
  8
DEFAULT
  6
CONTINUOUS
 62
     7
100
AcDbVertex
100
AcDb2dVertex
 10
128.1821829712
 20
163.6021242758
 30
0.0
  0
SEQEND
  5
E2
330
85
100
AcDbEntity
  8
DEFAULT
  6
CONTINUOUS
 62
     7
 48
25.4
  0
POLYLINE
  5
86
330
83
100
AcDbEntity
  8
DEFAULT
  6
CONTINUOUS
 62
     7
 48
25.4
100
AcDb2dPolyline
 66
     1
 10
0.0
 20
0.0
 30
0.0
 70
     1
  0
VERTEX
  5
E8
330
86
100
AcDbEntity
  8
DEFAULT
  6
CONTINUOUS
 62
     7
100
AcDbVertex
100
AcDb2dVertex
 10
128.1821824423
 20
175.7021242237
 30
0.0
  0
VERTEX
  5
E9
330
86
100
AcDbEntity
  8
DEFAULT
  6
CONTINUOUS
 62
     7
100
AcDbVertex
100
AcDb2dVertex
 10
127.6821823068
 20
178.7021242279
 30
0.0
  0
VERTEX
  5
EA
330
86
100
AcDbEntity
  8
DEFAULT
  6
CONTINUOUS
 62
     7
100
AcDbVertex
100
AcDb2dVertex
 10
127.1821824336
 20
175.70212418
 30
0.0
  0
VERTEX
  5
EB
330
86
100
AcDbEntity
  8
DEFAULT
  6
CONTINUOUS
 62
     7
100
AcDbVertex
100
AcDb2dVertex
 10
128.1821824423
 20
175.7021242237
 30
0.0
  0
SEQEND
  5
E7
330
86
100
AcDbEntity
  8
DEFAULT
  6
CONTINUOUS
 62
     7
 48
25.4
  0
LINE
  5
87
330
83
100
AcDbEntity
  8
DEFAULT
  6
CONTINUOUS
 62
     7
 48
25.4
100
AcDbLine
 10
86.2290972583
 20
160.6021224159
 30
0.0
 11
129.182183111
 21
160.6021242935
 31
0.0
  0
LINE
  5
88
330
83
100
AcDbEntity
  8
DEFAULT
  6
CONTINUOUS
 62
     7
 48
25.4
100
AcDbLine
 10
86.2290964671
 20
178.7021224159
 30
0.0
 11
129.1821823199
 21
178.7021242935
 31
0.0
  0
LINE
  5
89
330
83
100
AcDbEntity
  8
DEFAULT
  6
CONTINUOUS
 62
     7
 48
25.4
100
AcDbLine
 10
127.682183098
 20
160.6021242279
 30
0.0
 11
127.6821823068
 21
178.7021251458
 31
0.0
  0
TEXT
  5
8A
330
83
100
AcDbEntity
  8
DEFAULT
  6
CONTINUOUS
 62
     7
 48
25.4
100
AcDbText
 10
126.9321827024
 20
165.8543974141
 30
0.0
 40
3.0
  1
16/18
 50
90.0
  7
SEACAD_SEISO_TTF
 11
123.9321827024
 21
165.8543974141
 31
0.0
100
AcDbText
 73
     3
  0
ENDBLK
  5
8C
330
83
100
AcDbEntity
  8
0
100
AcDbBlockEnd
  0
BLOCK
  5
95
330
8D
100
AcDbEntity
  8
0
100
AcDbBlockBegin
  2
SE9
 70
     0
 71
     0
 10
0.0
 20
0.0
 30
0.0
  3
SE9
  1

  0
POLYLINE
  5
8F
330
8D
100
AcDbEntity
  8
DEFAULT
  6
CONTINUOUS
 62
     7
 48
25.4
100
AcDb2dPolyline
 66
     1
 10
0.0
 20
0.0
 30
0.0
 70
     1
  0
VERTEX
  5
ED
330
8F
100
AcDbEntity
  8
DEFAULT
  6
CONTINUOUS
 62
     7
100
AcDbVertex
100
AcDb2dVertex
 10
127.6704170131
 20
20.6521235894
 30
0.0
  0
VERTEX
  5
EE
330
8F
100
AcDbEntity
  8
DEFAULT
  6
CONTINUOUS
 62
     7
100
AcDbVertex
100
AcDb2dVertex
 10
127.1704168777
 20
23.6521235936
 30
0.0
  0
VERTEX
  5
EF
330
8F
100
AcDbEntity
  8
DEFAULT
  6
CONTINUOUS
 62
     7
100
AcDbVertex
100
AcDb2dVertex
 10
126.6704170044
 20
20.6521235457
 30
0.0
  0
VERTEX
  5
F0
330
8F
100
AcDbEntity
  8
DEFAULT
  6
CONTINUOUS
 62
     7
100
AcDbVertex
100
AcDb2dVertex
 10
127.6704170131
 20
20.6521235894
 30
0.0
  0
SEQEND
  5
EC
330
8F
100
AcDbEntity
  8
DEFAULT
  6
CONTINUOUS
 62
     7
 48
25.4
  0
POLYLINE
  5
90
330
8D
100
AcDbEntity
  8
DEFAULT
  6
CONTINUOUS
 62
     7
 48
25.4
100
AcDb2dPolyline
 66
     1
 10
0.0
 20
0.0
 30
0.0
 70
     1
  0
VERTEX
  5
F2
330
90
100
AcDbEntity
  8
DEFAULT
  6
CONTINUOUS
 62
     7
100
AcDbVertex
100
AcDb2dVertex
 10
127.670416576
 20
30.6521236415
 30
0.0
  0
VERTEX
  5
F3
330
90
100
AcDbEntity
  8
DEFAULT
  6
CONTINUOUS
 62
     7
100
AcDbVertex
100
AcDb2dVertex
 10
127.1704167028
 20
27.6521235936
 30
0.0
  0
VERTEX
  5
F4
330
90
100
AcDbEntity
  8
DEFAULT
  6
CONTINUOUS
 62
     7
100
AcDbVertex
100
AcDb2dVertex
 10
126.6704165673
 20
30.6521235978
 30
0.0
  0
VERTEX
  5
F5
330
90
100
AcDbEntity
  8
DEFAULT
  6
CONTINUOUS
 62
     7
100
AcDbVertex
100
AcDb2dVertex
 10
127.670416576
 20
30.6521236415
 30
0.0
  0
SEQEND
  5
F1
330
90
100
AcDbEntity
  8
DEFAULT
  6
CONTINUOUS
 62
     7
 48
25.4
  0
LINE
  5
91
330
8D
100
AcDbEntity
  8
DEFAULT
  6
CONTINUOUS
 62
     7
 48
25.4
100
AcDbLine
 10
100.2290969501
 20
23.6521224159
 30
0.0
 11
128.6704168907
 21
23.6521236592
 31
0.0
  0
LINE
  5
92
330
8D
100
AcDbEntity
  8
DEFAULT
  6
CONTINUOUS
 62
     7
 48
25.4
100
AcDbLine
 10
100.2290967752
 20
27.6521224159
 30
0.0
 11
128.6704167159
 21
27.6521236592
 31
0.0
  0
LINE
  5
93
330
8D
100
AcDbEntity
  8
DEFAULT
  6
CONTINUOUS
 62
     7
 48
25.4
100
AcDbLine
 10
127.1704171399
 20
17.6521235414
 30
0.0
 11
127.1704164405
 21
33.6521233701
 31
0.0
  0
TEXT
  5
94
330
8D
100
AcDbEntity
  8
DEFAULT
  6
CONTINUOUS
 62
     7
 48
25.4
100
AcDbText
 10
126.4204167902
 20
24.7657600522
 30
0.0
 40
3.0
  1
4
 50
90.0
  7
SEACAD_SEISO_TTF
 11
123.4204167902
 21
24.7657600522
 31
0.0
100
AcDbText
 73
     3
  0
ENDBLK
  5
96
330
8D
100
AcDbEntity
  8
0
100
AcDbBlockEnd
  0
BLOCK
  5
9F
330
97
100
AcDbEntity
  8
0
100
AcDbBlockBegin
  2
SE10
 70
     0
 71
     0
 10
0.0
 20
0.0
 30
0.0
  3
SE10
  1

  0
POLYLINE
  5
99
330
97
100
AcDbEntity
  8
DEFAULT
  6
CONTINUOUS
 62
     7
 48
25.4
100
AcDb2dPolyline
 66
     1
 10
0.0
 20
0.0
 30
0.0
 70
     1
  0
VERTEX
  5
F7
330
99
100
AcDbEntity
  8
DEFAULT
  6
CONTINUOUS
 62
     7
100
AcDbVertex
100
AcDb2dVertex
 10
38.6465795622
 20
172.652122442
 30
0.0
  0
VERTEX
  5
F8
330
99
100
AcDbEntity
  8
DEFAULT
  6
CONTINUOUS
 62
     7
100
AcDbVertex
100
AcDb2dVertex
 10
39.1465795666
 20
169.6521224159
 30
0.0
  0
VERTEX
  5
F9
330
99
100
AcDbEntity
  8
DEFAULT
  6
CONTINUOUS
 62
     7
100
AcDbVertex
100
AcDb2dVertex
 10
39.6465795709
 20
172.652122442
 30
0.0
  0
VERTEX
  5
FA
330
99
100
AcDbEntity
  8
DEFAULT
  6
CONTINUOUS
 62
     7
100
AcDbVertex
100
AcDb2dVertex
 10
38.6465795622
 20
172.652122442
 30
0.0
  0
SEQEND
  5
F6
330
99
100
AcDbEntity
  8
DEFAULT
  6
CONTINUOUS
 62
     7
 48
25.4
  0
POLYLINE
  5
9A
330
97
100
AcDbEntity
  8
DEFAULT
  6
CONTINUOUS
 62
     7
 48
25.4
100
AcDb2dPolyline
 66
     1
 10
0.0
 20
0.0
 30
0.0
 70
     1
  0
VERTEX
  5
FC
330
9A
100
AcDbEntity
  8
DEFAULT
  6
CONTINUOUS
 62
     7
100
AcDbVertex
100
AcDb2dVertex
 10
38.6465795622
 20
258.6521223899
 30
0.0
  0
VERTEX
  5
FD
330
9A
100
AcDbEntity
  8
DEFAULT
  6
CONTINUOUS
 62
     7
100
AcDbVertex
100
AcDb2dVertex
 10
39.1465795666
 20
261.6521224159
 30
0.0
  0
VERTEX
  5
FE
330
9A
100
AcDbEntity
  8
DEFAULT
  6
CONTINUOUS
 62
     7
100
AcDbVertex
100
AcDb2dVertex
 10
39.6465795709
 20
258.6521223899
 30
0.0
  0
VERTEX
  5
FF
330
9A
100
AcDbEntity
  8
DEFAULT
  6
CONTINUOUS
 62
     7
100
AcDbVertex
100
AcDb2dVertex
 10
38.6465795622
 20
258.6521223899
 30
0.0
  0
SEQEND
  5
FB
330
9A
100
AcDbEntity
  8
DEFAULT
  6
CONTINUOUS
 62
     7
 48
25.4
  0
LINE
  5
9B
330
97
100
AcDbEntity
  8
DEFAULT
  6
CONTINUOUS
 62
     7
 48
25.4
100
AcDbLine
 10
86.2290968627
 20
169.6521224159
 30
0.0
 11
37.6465795535
 21
169.6521224159
 31
0.0
  0
LINE
  5
9C
330
97
100
AcDbEntity
  8
DEFAULT
  6
CONTINUOUS
 62
     7
 48
25.4
100
AcDbLine
 10
86.2290968627
 20
261.6521224159
 30
0.0
 11
37.6465795535
 21
261.6521224159
 31
0.0
  0
LINE
  5
9D
330
97
100
AcDbEntity
  8
DEFAULT
  6
CONTINUOUS
 62
     7
 48
25.4
100
AcDbLine
 10
39.1465795666
 20
169.6521224159
 30
0.0
 11
39.1465795666
 21
261.6521225948
 31
0.0
  0
TEXT
  5
9E
330
97
100
AcDbEntity
  8
DEFAULT
  6
CONTINUOUS
 62
     7
 48
25.4
100
AcDbText
 10
38.3965795666
 20
213.8112134144
 30
0.0
 40
3.0
  1
92
 50
90.0
  7
SEACAD_SEISO_TTF
 11
35.3965795666
 21
213.8112134144
 31
0.0
100
AcDbText
 73
     3
  0
ENDBLK
  5
A0
330
97
100
AcDbEntity
  8
0
100
AcDbBlockEnd
  0
BLOCK
  5
A9
330
A1
100
AcDbEntity
  8
0
100
AcDbBlockBegin
  2
SE11
 70
     0
 71
     0
 10
0.0
 20
0.0
 30
0.0
  3
SE11
  1

  0
POLYLINE
  5
A3
330
A1
100
AcDbEntity
  8
DEFAULT
  6
CONTINUOUS
 62
     7
 48
25.4
100
AcDb2dPolyline
 66
     1
 10
0.0
 20
0.0
 30
0.0
 70
     1
  0
VERTEX
  5
101
330
A3
100
AcDbEntity
  8
DEFAULT
  6
CONTINUOUS
 62
     7
100
AcDbVertex
100
AcDb2dVertex
 10
48.8819077895
 20
172.652122442
 30
0.0
  0
VERTEX
  5
102
330
A3
100
AcDbEntity
  8
DEFAULT
  6
CONTINUOUS
 62
     7
100
AcDbVertex
100
AcDb2dVertex
 10
49.3819077939
 20
169.6521224159
 30
0.0
  0
VERTEX
  5
103
330
A3
100
AcDbEntity
  8
DEFAULT
  6
CONTINUOUS
 62
     7
100
AcDbVertex
100
AcDb2dVertex
 10
49.8819077982
 20
172.652122442
 30
0.0
  0
VERTEX
  5
104
330
A3
100
AcDbEntity
  8
DEFAULT
  6
CONTINUOUS
 62
     7
100
AcDbVertex
100
AcDb2dVertex
 10
48.8819077895
 20
172.652122442
 30
0.0
  0
SEQEND
  5
100
330
A3
100
AcDbEntity
  8
DEFAULT
  6
CONTINUOUS
 62
     7
 48
25.4
  0
POLYLINE
  5
A4
330
A1
100
AcDbEntity
  8
DEFAULT
  6
CONTINUOUS
 62
     7
 48
25.4
100
AcDb2dPolyline
 66
     1
 10
0.0
 20
0.0
 30
0.0
 70
     1
  0
VERTEX
  5
106
330
A4
100
AcDbEntity
  8
DEFAULT
  6
CONTINUOUS
 62
     7
100
AcDbVertex
100
AcDb2dVertex
 10
48.8819077895
 20
240.6521223899
 30
0.0
  0
VERTEX
  5
107
330
A4
100
AcDbEntity
  8
DEFAULT
  6
CONTINUOUS
 62
     7
100
AcDbVertex
100
AcDb2dVertex
 10
49.3819077939
 20
243.6521224159
 30
0.0
  0
VERTEX
  5
108
330
A4
100
AcDbEntity
  8
DEFAULT
  6
CONTINUOUS
 62
     7
100
AcDbVertex
100
AcDb2dVertex
 10
49.8819077982
 20
240.6521223899
 30
0.0
  0
VERTEX
  5
109
330
A4
100
AcDbEntity
  8
DEFAULT
  6
CONTINUOUS
 62
     7
100
AcDbVertex
100
AcDb2dVertex
 10
48.8819077895
 20
240.6521223899
 30
0.0
  0
SEQEND
  5
105
330
A4
100
AcDbEntity
  8
DEFAULT
  6
CONTINUOUS
 62
     7
 48
25.4
  0
LINE
  5
A5
330
A1
100
AcDbEntity
  8
DEFAULT
  6
CONTINUOUS
 62
     7
 48
25.4
100
AcDbLine
 10
86.2290968627
 20
169.6521224159
 30
0.0
 11
47.8819077808
 21
169.6521224159
 31
0.0
  0
LINE
  5
A6
330
A1
100
AcDbEntity
  8
DEFAULT
  6
CONTINUOUS
 62
     7
 48
25.4
100
AcDbLine
 10
72.2290968627
 20
243.6521224159
 30
0.0
 11
47.8819077808
 21
243.6521224159
 31
0.0
  0
LINE
  5
A7
330
A1
100
AcDbEntity
  8
DEFAULT
  6
CONTINUOUS
 62
     7
 48
25.4
100
AcDbLine
 10
49.3819077939
 20
169.6521224159
 30
0.0
 11
49.3819077939
 21
243.6521233696
 31
0.0
  0
TEXT
  5
A8
330
A1
100
AcDbEntity
  8
DEFAULT
  6
CONTINUOUS
 62
     7
 48
25.4
100
AcDbText
 10
48.6319077939
 20
204.8112138019
 30
0.0
 40
3.0
  1
74
 50
90.0
  7
SEACAD_SEISO_TTF
 11
45.6319077939
 21
204.8112138019
 31
0.0
100
AcDbText
 73
     3
  0
ENDBLK
  5
AA
330
A1
100
AcDbEntity
  8
0
100
AcDbBlockEnd
  0
BLOCK
  5
B3
330
AB
100
AcDbEntity
  8
0
100
AcDbBlockBegin
  2
SE12
 70
     0
 71
     0
 10
0.0
 20
0.0
 30
0.0
  3
SE12
  1

  0
POLYLINE
  5
AD
330
AB
100
AcDbEntity
  8
DEFAULT
  6
CONTINUOUS
 62
     7
 48
25.4
100
AcDb2dPolyline
 66
     1
 10
0.0
 20
0.0
 30
0.0
 70
     1
  0
VERTEX
  5
10B
330
AD
100
AcDbEntity
  8
DEFAULT
  6
CONTINUOUS
 62
     7
100
AcDbVertex
100
AcDb2dVertex
 10
48.8819077895
 20
166.6521223899
 30
0.0
  0
VERTEX
  5
10C
330
AD
100
AcDbEntity
  8
DEFAULT
  6
CONTINUOUS
 62
     7
100
AcDbVertex
100
AcDb2dVertex
 10
49.3819077939
 20
169.6521224159
 30
0.0
  0
VERTEX
  5
10D
330
AD
100
AcDbEntity
  8
DEFAULT
  6
CONTINUOUS
 62
     7
100
AcDbVertex
100
AcDb2dVertex
 10
49.8819077982
 20
166.6521223899
 30
0.0
  0
VERTEX
  5
10E
330
AD
100
AcDbEntity
  8
DEFAULT
  6
CONTINUOUS
 62
     7
100
AcDbVertex
100
AcDb2dVertex
 10
48.8819077895
 20
166.6521223899
 30
0.0
  0
SEQEND
  5
10A
330
AD
100
AcDbEntity
  8
DEFAULT
  6
CONTINUOUS
 62
     7
 48
25.4
  0
POLYLINE
  5
AE
330
AB
100
AcDbEntity
  8
DEFAULT
  6
CONTINUOUS
 62
     7
 48
25.4
100
AcDb2dPolyline
 66
     1
 10
0.0
 20
0.0
 30
0.0
 70
     1
  0
VERTEX
  5
110
330
AE
100
AcDbEntity
  8
DEFAULT
  6
CONTINUOUS
 62
     7
100
AcDbVertex
100
AcDb2dVertex
 10
48.8819077895
 20
28.652122442
 30
0.0
  0
VERTEX
  5
111
330
AE
100
AcDbEntity
  8
DEFAULT
  6
CONTINUOUS
 62
     7
100
AcDbVertex
100
AcDb2dVertex
 10
49.3819077939
 20
25.6521224159
 30
0.0
  0
VERTEX
  5
112
330
AE
100
AcDbEntity
  8
DEFAULT
  6
CONTINUOUS
 62
     7
100
AcDbVertex
100
AcDb2dVertex
 10
49.8819077982
 20
28.652122442
 30
0.0
  0
VERTEX
  5
113
330
AE
100
AcDbEntity
  8
DEFAULT
  6
CONTINUOUS
 62
     7
100
AcDbVertex
100
AcDb2dVertex
 10
48.8819077895
 20
28.652122442
 30
0.0
  0
SEQEND
  5
10F
330
AE
100
AcDbEntity
  8
DEFAULT
  6
CONTINUOUS
 62
     7
 48
25.4
  0
LINE
  5
AF
330
AB
100
AcDbEntity
  8
DEFAULT
  6
CONTINUOUS
 62
     7
 48
25.4
100
AcDbLine
 10
86.2290968627
 20
169.6521224159
 30
0.0
 11
47.8819077808
 21
169.6521224159
 31
0.0
  0
LINE
  5
B0
330
AB
100
AcDbEntity
  8
DEFAULT
  6
CONTINUOUS
 62
     7
 48
25.4
100
AcDbLine
 10
72.2290968627
 20
25.6521224159
 30
0.0
 11
47.8819077808
 21
25.6521224159
 31
0.0
  0
LINE
  5
B1
330
AB
100
AcDbEntity
  8
DEFAULT
  6
CONTINUOUS
 62
     7
 48
25.4
100
AcDbLine
 10
49.3819077939
 20
169.6521224159
 30
0.0
 11
49.3819077939
 21
25.6521286148
 31
0.0
  0
TEXT
  5
B2
330
AB
100
AcDbEntity
  8
DEFAULT
  6
CONTINUOUS
 62
     7
 48
25.4
100
AcDbText
 10
48.6319077939
 20
95.265761879
 30
0.0
 40
3.0
  1
144
 50
90.0
  7
SEACAD_SEISO_TTF
 11
45.6319077939
 21
95.265761879
 31
0.0
100
AcDbText
 73
     3
  0
ENDBLK
  5
B4
330
AB
100
AcDbEntity
  8
0
100
AcDbBlockEnd
  0
BLOCK
  5
BD
330
B5
100
AcDbEntity
  8
0
100
AcDbBlockBegin
  2
SE13
 70
     0
 71
     0
 10
0.0
 20
0.0
 30
0.0
  3
SE13
  1

  0
POLYLINE
  5
B7
330
B5
100
AcDbEntity
  8
DEFAULT
  6
CONTINUOUS
 62
     7
 48
25.4
100
AcDb2dPolyline
 66
     1
 10
0.0
 20
0.0
 30
0.0
 70
     1
  0
VERTEX
  5
115
330
B7
100
AcDbEntity
  8
DEFAULT
  6
CONTINUOUS
 62
     7
100
AcDbVertex
100
AcDb2dVertex
 10
64.2290968887
 20
287.1467699232
 30
0.0
  0
VERTEX
  5
116
330
B7
100
AcDbEntity
  8
DEFAULT
  6
CONTINUOUS
 62
     7
100
AcDbVertex
100
AcDb2dVertex
 10
61.2290968627
 20
286.6467699188
 30
0.0
  0
VERTEX
  5
117
330
B7
100
AcDbEntity
  8
DEFAULT
  6
CONTINUOUS
 62
     7
100
AcDbVertex
100
AcDb2dVertex
 10
64.2290968887
 20
286.1467699145
 30
0.0
  0
VERTEX
  5
118
330
B7
100
AcDbEntity
  8
DEFAULT
  6
CONTINUOUS
 62
     7
100
AcDbVertex
100
AcDb2dVertex
 10
64.2290968887
 20
287.1467699232
 30
0.0
  0
SEQEND
  5
114
330
B7
100
AcDbEntity
  8
DEFAULT
  6
CONTINUOUS
 62
     7
 48
25.4
  0
POLYLINE
  5
B8
330
B5
100
AcDbEntity
  8
DEFAULT
  6
CONTINUOUS
 62
     7
 48
25.4
100
AcDb2dPolyline
 66
     1
 10
0.0
 20
0.0
 30
0.0
 70
     1
  0
VERTEX
  5
11A
330
B8
100
AcDbEntity
  8
DEFAULT
  6
CONTINUOUS
 62
     7
100
AcDbVertex
100
AcDb2dVertex
 10
108.2290968366
 20
287.1467699232
 30
0.0
  0
VERTEX
  5
11B
330
B8
100
AcDbEntity
  8
DEFAULT
  6
CONTINUOUS
 62
     7
100
AcDbVertex
100
AcDb2dVertex
 10
111.2290968627
 20
286.6467699188
 30
0.0
  0
VERTEX
  5
11C
330
B8
100
AcDbEntity
  8
DEFAULT
  6
CONTINUOUS
 62
     7
100
AcDbVertex
100
AcDb2dVertex
 10
108.2290968366
 20
286.1467699145
 30
0.0
  0
VERTEX
  5
11D
330
B8
100
AcDbEntity
  8
DEFAULT
  6
CONTINUOUS
 62
     7
100
AcDbVertex
100
AcDb2dVertex
 10
108.2290968366
 20
287.1467699232
 30
0.0
  0
SEQEND
  5
119
330
B8
100
AcDbEntity
  8
DEFAULT
  6
CONTINUOUS
 62
     7
 48
25.4
  0
LINE
  5
B9
330
B5
100
AcDbEntity
  8
DEFAULT
  6
CONTINUOUS
 62
     7
 48
25.4
100
AcDbLine
 10
61.2290968627
 20
236.6521224159
 30
0.0
 11
61.2290968627
 21
288.1467699319
 31
0.0
  0
LINE
  5
BA
330
B5
100
AcDbEntity
  8
DEFAULT
  6
CONTINUOUS
 62
     7
 48
25.4
100
AcDbLine
 10
111.2290968627
 20
236.6521224159
 30
0.0
 11
111.2290968627
 21
288.1467699319
 31
0.0
  0
LINE
  5
BB
330
B5
100
AcDbEntity
  8
DEFAULT
  6
CONTINUOUS
 62
     7
 48
25.4
100
AcDbLine
 10
61.2290968627
 20
286.6467699188
 30
0.0
 11
111.2290976077
 21
286.6467699188
 31
0.0
  0
TEXT
  5
BC
330
B5
100
AcDbEntity
  8
DEFAULT
  6
CONTINUOUS
 62
     7
 48
25.4
100
AcDbText
 10
84.4904608716
 20
287.3967699188
 30
0.0
 40
3.0
  1
50
  7
SEACAD_SEISO_TTF
 11
84.4904608716
 21
290.3967699188
 31
0.0
100
AcDbText
 73
     3
  0
ENDBLK
  5
BE
330
B5
100
AcDbEntity
  8
0
100
AcDbBlockEnd
  0
BLOCK
  5
C7
330
BF
100
AcDbEntity
  8
0
100
AcDbBlockBegin
  2
SE14
 70
     0
 71
     0
 10
0.0
 20
0.0
 30
0.0
  3
SE14
  1

  0
POLYLINE
  5
C1
330
BF
100
AcDbEntity
  8
DEFAULT
  6
CONTINUOUS
 62
     7
 48
25.4
100
AcDb2dPolyline
 66
     1
 10
0.0
 20
0.0
 30
0.0
 70
     1
  0
VERTEX
  5
11F
330
C1
100
AcDbEntity
  8
DEFAULT
  6
CONTINUOUS
 62
     7
100
AcDbVertex
100
AcDb2dVertex
 10
75.2290968887
 20
277.4232078912
 30
0.0
  0
VERTEX
  5
120
330
C1
100
AcDbEntity
  8
DEFAULT
  6
CONTINUOUS
 62
     7
100
AcDbVertex
100
AcDb2dVertex
 10
72.2290968627
 20
276.9232078869
 30
0.0
  0
VERTEX
  5
121
330
C1
100
AcDbEntity
  8
DEFAULT
  6
CONTINUOUS
 62
     7
100
AcDbVertex
100
AcDb2dVertex
 10
75.2290968887
 20
276.4232078825
 30
0.0
  0
VERTEX
  5
122
330
C1
100
AcDbEntity
  8
DEFAULT
  6
CONTINUOUS
 62
     7
100
AcDbVertex
100
AcDb2dVertex
 10
75.2290968887
 20
277.4232078912
 30
0.0
  0
SEQEND
  5
11E
330
C1
100
AcDbEntity
  8
DEFAULT
  6
CONTINUOUS
 62
     7
 48
25.4
  0
POLYLINE
  5
C2
330
BF
100
AcDbEntity
  8
DEFAULT
  6
CONTINUOUS
 62
     7
 48
25.4
100
AcDb2dPolyline
 66
     1
 10
0.0
 20
0.0
 30
0.0
 70
     1
  0
VERTEX
  5
124
330
C2
100
AcDbEntity
  8
DEFAULT
  6
CONTINUOUS
 62
     7
100
AcDbVertex
100
AcDb2dVertex
 10
97.2290968366
 20
277.4232078912
 30
0.0
  0
VERTEX
  5
125
330
C2
100
AcDbEntity
  8
DEFAULT
  6
CONTINUOUS
 62
     7
100
AcDbVertex
100
AcDb2dVertex
 10
100.2290968627
 20
276.9232078869
 30
0.0
  0
VERTEX
  5
126
330
C2
100
AcDbEntity
  8
DEFAULT
  6
CONTINUOUS
 62
     7
100
AcDbVertex
100
AcDb2dVertex
 10
97.2290968366
 20
276.4232078825
 30
0.0
  0
VERTEX
  5
127
330
C2
100
AcDbEntity
  8
DEFAULT
  6
CONTINUOUS
 62
     7
100
AcDbVertex
100
AcDb2dVertex
 10
97.2290968366
 20
277.4232078912
 30
0.0
  0
SEQEND
  5
123
330
C2
100
AcDbEntity
  8
DEFAULT
  6
CONTINUOUS
 62
     7
 48
25.4
  0
LINE
  5
C3
330
BF
100
AcDbEntity
  8
DEFAULT
  6
CONTINUOUS
 62
     7
 48
25.4
100
AcDbLine
 10
72.2290968627
 20
243.6521224159
 30
0.0
 11
72.2290968627
 21
278.4232078999
 31
0.0
  0
LINE
  5
C4
330
BF
100
AcDbEntity
  8
DEFAULT
  6
CONTINUOUS
 62
     7
 48
25.4
100
AcDbLine
 10
100.2290968627
 20
243.6521224159
 30
0.0
 11
100.2290968627
 21
278.4232078999
 31
0.0
  0
LINE
  5
C5
330
BF
100
AcDbEntity
  8
DEFAULT
  6
CONTINUOUS
 62
     7
 48
25.4
100
AcDbLine
 10
72.2290968627
 20
276.9232078869
 30
0.0
 11
100.2290977269
 21
276.9232078869
 31
0.0
  0
TEXT
  5
C6
330
BF
100
AcDbEntity
  8
DEFAULT
  6
CONTINUOUS
 62
     7
 48
25.4
100
AcDbText
 10
84.3540972948
 20
277.6732078869
 30
0.0
 40
3.0
  1
28
  7
SEACAD_SEISO_TTF
 11
84.3540972948
 21
280.6732078869
 31
0.0
100
AcDbText
 73
     3
  0
ENDBLK
  5
C8
330
BF
100
AcDbEntity
  8
0
100
AcDbBlockEnd
  0
BLOCK
  5
D1
330
C9
100
AcDbEntity
  8
0
100
AcDbBlockBegin
  2
SE15
 70
     0
 71
     0
 10
0.0
 20
0.0
 30
0.0
  3
SE15
  1

  0
POLYLINE
  5
CB
330
C9
100
AcDbEntity
  8
DEFAULT
  6
CONTINUOUS
 62
     7
 48
25.4
100
AcDb2dPolyline
 66
     1
 10
0.0
 20
0.0
 30
0.0
 70
     1
  0
VERTEX
  5
129
330
CB
100
AcDbEntity
  8
DEFAULT
  6
CONTINUOUS
 62
     7
100
AcDbVertex
100
AcDb2dVertex
 10
159.9185704285
 20
286.1232411079
 30
0.0
  0
VERTEX
  5
12A
330
CB
100
AcDbEntity
  8
DEFAULT
  6
CONTINUOUS
 62
     7
100
AcDbVertex
100
AcDb2dVertex
 10
156.9185704024
 20
285.6232411035
 30
0.0
  0
VERTEX
  5
12B
330
CB
100
AcDbEntity
  8
DEFAULT
  6
CONTINUOUS
 62
     7
100
AcDbVertex
100
AcDb2dVertex
 10
159.9185704285
 20
285.1232410992
 30
0.0
  0
VERTEX
  5
12C
330
CB
100
AcDbEntity
  8
DEFAULT
  6
CONTINUOUS
 62
     7
100
AcDbVertex
100
AcDb2dVertex
 10
159.9185704285
 20
286.1232411079
 30
0.0
  0
SEQEND
  5
128
330
CB
100
AcDbEntity
  8
DEFAULT
  6
CONTINUOUS
 62
     7
 48
25.4
  0
POLYLINE
  5
CC
330
C9
100
AcDbEntity
  8
DEFAULT
  6
CONTINUOUS
 62
     7
 48
25.4
100
AcDb2dPolyline
 66
     1
 10
0.0
 20
0.0
 30
0.0
 70
     1
  0
VERTEX
  5
12E
330
CC
100
AcDbEntity
  8
DEFAULT
  6
CONTINUOUS
 62
     7
100
AcDbVertex
100
AcDb2dVertex
 10
163.4185703763
 20
286.1232411079
 30
0.0
  0
VERTEX
  5
12F
330
CC
100
AcDbEntity
  8
DEFAULT
  6
CONTINUOUS
 62
     7
100
AcDbVertex
100
AcDb2dVertex
 10
166.4185704024
 20
285.6232411035
 30
0.0
  0
VERTEX
  5
130
330
CC
100
AcDbEntity
  8
DEFAULT
  6
CONTINUOUS
 62
     7
100
AcDbVertex
100
AcDb2dVertex
 10
163.4185703763
 20
285.1232410992
 30
0.0
  0
VERTEX
  5
131
330
CC
100
AcDbEntity
  8
DEFAULT
  6
CONTINUOUS
 62
     7
100
AcDbVertex
100
AcDb2dVertex
 10
163.4185703763
 20
286.1232411079
 30
0.0
  0
SEQEND
  5
12D
330
CC
100
AcDbEntity
  8
DEFAULT
  6
CONTINUOUS
 62
     7
 48
25.4
  0
LINE
  5
CD
330
C9
100
AcDbEntity
  8
DEFAULT
  6
CONTINUOUS
 62
     7
 48
25.4
100
AcDbLine
 10
156.9185704024
 20
180.1939568289
 30
0.0
 11
156.9185704024
 21
287.1232411165
 31
0.0
  0
LINE
  5
CE
330
C9
100
AcDbEntity
  8
DEFAULT
  6
CONTINUOUS
 62
     7
 48
25.4
100
AcDbLine
 10
166.4185704024
 20
236.6521224159
 30
0.0
 11
166.4185704024
 21
287.1232411165
 31
0.0
  0
LINE
  5
CF
330
C9
100
AcDbEntity
  8
DEFAULT
  6
CONTINUOUS
 62
     7
 48
25.4
100
AcDbLine
 10
156.9185704024
 20
285.6232411035
 30
0.0
 11
166.4185700969
 21
285.6232411035
 31
0.0
  0
TEXT
  5
D0
330
C9
100
AcDbEntity
  8
DEFAULT
  6
CONTINUOUS
 62
     7
 48
25.4
100
AcDbText
 10
159.6231157042
 20
286.3732411035
 30
0.0
 40
3.0
  1
9,5
  7
SEACAD_SEISO_TTF
 11
159.6231157042
 21
289.3732411035
 31
0.0
100
AcDbText
 73
     3
  0
ENDBLK
  5
D2
330
C9
100
AcDbEntity
  8
0
100
AcDbBlockEnd
  0
BLOCK
  5
DB
330
D3
100
AcDbEntity
  8
0
100
AcDbBlockBegin
  2
SE16
 70
     0
 71
     0
 10
0.0
 20
0.0
 30
0.0
  3
SE16
  1

  0
POLYLINE
  5
D5
330
D3
100
AcDbEntity
  8
DEFAULT
  6
CONTINUOUS
 62
     7
 48
25.4
100
AcDb2dPolyline
 66
     1
 10
0.0
 20
0.0
 30
0.0
 70
     1
  0
VERTEX
  5
133
330
D5
100
AcDbEntity
  8
DEFAULT
  6
CONTINUOUS
 62
     7
100
AcDbVertex
100
AcDb2dVertex
 10
158.2185703763
 20
273.329075885
 30
0.0
  0
VERTEX
  5
134
330
D5
100
AcDbEntity
  8
DEFAULT
  6
CONTINUOUS
 62
     7
100
AcDbVertex
100
AcDb2dVertex
 10
161.2185704024
 20
272.8290758807
 30
0.0
  0
VERTEX
  5
135
330
D5
100
AcDbEntity
  8
DEFAULT
  6
CONTINUOUS
 62
     7
100
AcDbVertex
100
AcDb2dVertex
 10
158.2185703763
 20
272.3290758763
 30
0.0
  0
VERTEX
  5
136
330
D5
100
AcDbEntity
  8
DEFAULT
  6
CONTINUOUS
 62
     7
100
AcDbVertex
100
AcDb2dVertex
 10
158.2185703763
 20
273.329075885
 30
0.0
  0
SEQEND
  5
132
330
D5
100
AcDbEntity
  8
DEFAULT
  6
CONTINUOUS
 62
     7
 48
25.4
  0
POLYLINE
  5
D6
330
D3
100
AcDbEntity
  8
DEFAULT
  6
CONTINUOUS
 62
     7
 48
25.4
100
AcDb2dPolyline
 66
     1
 10
0.0
 20
0.0
 30
0.0
 70
     1
  0
VERTEX
  5
138
330
D6
100
AcDbEntity
  8
DEFAULT
  6
CONTINUOUS
 62
     7
100
AcDbVertex
100
AcDb2dVertex
 10
169.4185704285
 20
273.329075885
 30
0.0
  0
VERTEX
  5
139
330
D6
100
AcDbEntity
  8
DEFAULT
  6
CONTINUOUS
 62
     7
100
AcDbVertex
100
AcDb2dVertex
 10
166.4185704024
 20
272.8290758807
 30
0.0
  0
VERTEX
  5
13A
330
D6
100
AcDbEntity
  8
DEFAULT
  6
CONTINUOUS
 62
     7
100
AcDbVertex
100
AcDb2dVertex
 10
169.4185704285
 20
272.3290758763
 30
0.0
  0
VERTEX
  5
13B
330
D6
100
AcDbEntity
  8
DEFAULT
  6
CONTINUOUS
 62
     7
100
AcDbVertex
100
AcDb2dVertex
 10
169.4185704285
 20
273.329075885
 30
0.0
  0
SEQEND
  5
137
330
D6
100
AcDbEntity
  8
DEFAULT
  6
CONTINUOUS
 62
     7
 48
25.4
  0
LINE
  5
D7
330
D3
100
AcDbEntity
  8
DEFAULT
  6
CONTINUOUS
 62
     7
 48
25.4
100
AcDbLine
 10
161.2185704024
 20
261.6521227885
 30
0.0
 11
161.2185704024
 21
274.3290758937
 31
0.0
  0
LINE
  5
D8
330
D3
100
AcDbEntity
  8
DEFAULT
  6
CONTINUOUS
 62
     7
 48
25.4
100
AcDbLine
 10
166.4185704024
 20
259.299628042
 30
0.0
 11
166.4185704024
 21
274.3290758937
 31
0.0
  0
LINE
  5
D9
330
D3
100
AcDbEntity
  8
DEFAULT
  6
CONTINUOUS
 62
     7
 48
25.4
100
AcDbLine
 10
155.2185703503
 20
272.8290758807
 30
0.0
 11
172.4185700031
 21
272.8290758807
 31
0.0
  0
TEXT
  5
DA
330
D3
100
AcDbEntity
  8
DEFAULT
  6
CONTINUOUS
 62
     7
 48
25.4
100
AcDbText
 10
161.773115864
 20
273.5790758807
 30
0.0
 40
3.0
  1
5,2
  7
SEACAD_SEISO_TTF
 11
161.773115864
 21
276.5790758807
 31
0.0
100
AcDbText
 73
     3
  0
ENDBLK
  5
DC
330
D3
100
AcDbEntity
  8
0
100
AcDbBlockEnd
  0
ENDSEC
  0
SECTION
  2
ENTITIES
  0
INSERT
  5
2F
330
1F
100
AcDbEntity
  8
0
100
AcDbBlockReference
  2
SE
 10
0.0
 20
0.0
 30
0.0
  0
INSERT
  5
37
330
1F
100
AcDbEntity
  8
0
100
AcDbBlockReference
  2
SE1
 10
0.0
 20
0.0
 30
0.0
  0
INSERT
  5
3D
330
1F
100
AcDbEntity
  8
0
100
AcDbBlockReference
  2
SE2
 10
0.0
 20
0.0
 30
0.0
  0
INSERT
  5
43
330
1F
100
AcDbEntity
  8
0
100
AcDbBlockReference
  2
SE3
 10
0.0
 20
0.0
 30
0.0
  0
INSERT
  5
49
330
1F
100
AcDbEntity
  8
0
100
AcDbBlockReference
  2
SE4
 10
0.0
 20
0.0
 30
0.0
  0
INSERT
  5
4F
330
1F
100
AcDbEntity
  8
0
100
AcDbBlockReference
  2
SE5
 10
0.0
 20
0.0
 30
0.0
  0
INSERT
  5
66
330
1F
100
AcDbEntity
  8
0
100
AcDbBlockReference
  2
SE6
 10
0.0
 20
0.0
 30
0.0
  0
INSERT
  5
7A
330
1F
100
AcDbEntity
  8
0
100
AcDbBlockReference
  2
SE7
 10
0.0
 20
0.0
 30
0.0
  0
INSERT
  5
84
330
1F
100
AcDbEntity
  8
0
100
AcDbBlockReference
  2
SE8
 10
0.0
 20
0.0
 30
0.0
  0
INSERT
  5
8E
330
1F
100
AcDbEntity
  8
0
100
AcDbBlockReference
  2
SE9
 10
0.0
 20
0.0
 30
0.0
  0
INSERT
  5
98
330
1F
100
AcDbEntity
  8
0
100
AcDbBlockReference
  2
SE10
 10
0.0
 20
0.0
 30
0.0
  0
INSERT
  5
A2
330
1F
100
AcDbEntity
  8
0
100
AcDbBlockReference
  2
SE11
 10
0.0
 20
0.0
 30
0.0
  0
INSERT
  5
AC
330
1F
100
AcDbEntity
  8
0
100
AcDbBlockReference
  2
SE12
 10
0.0
 20
0.0
 30
0.0
  0
INSERT
  5
B6
330
1F
100
AcDbEntity
  8
0
100
AcDbBlockReference
  2
SE13
 10
0.0
 20
0.0
 30
0.0
  0
INSERT
  5
C0
330
1F
100
AcDbEntity
  8
0
100
AcDbBlockReference
  2
SE14
 10
0.0
 20
0.0
 30
0.0
  0
INSERT
  5
CA
330
1F
100
AcDbEntity
  8
0
100
AcDbBlockReference
  2
SE15
 10
0.0
 20
0.0
 30
0.0
  0
INSERT
  5
D4
330
1F
100
AcDbEntity
  8
0
100
AcDbBlockReference
  2
SE16
 10
0.0
 20
0.0
 30
0.0
  0
ENDSEC
  0
SECTION
  2
OBJECTS
  0
DICTIONARY
  5
C
330
0
100
AcDbDictionary
  3
ACAD_GROUP
350
D
  3
ACAD_LAYOUT
350
1A
  3
ACAD_MLINESTYLE
350
17
  3
ACAD_PLOTSETTINGS
350
19
  3
ACAD_TABLESTYLE
350
2A
  3
ACDBVARIABLEDICTIONARY
350
2C
1001
ACAD
1000
TREAT_AS_HARD
1070
     0
  0
DICTIONARY
  5
13C
330
29
100
AcDbDictionary
  3
ACAD_XREC_ROUNDTRIP
360
13D
  0
DICTIONARY
  5
D
102
{ACAD_REACTORS
330
C
102
}
330
C
100
AcDbDictionary
1001
ACAD
1000
TREAT_AS_HARD
1070
     0
  0
DICTIONARY
  5
1A
102
{ACAD_REACTORS
330
C
102
}
330
C
100
AcDbDictionary
1001
ACAD
1000
TREAT_AS_HARD
1070
     0
  0
DICTIONARY
  5
17
102
{ACAD_REACTORS
330
C
102
}
330
C
100
AcDbDictionary
  3
STANDARD
350
18
1001
ACAD
1000
TREAT_AS_HARD
1070
     0
  0
DICTIONARY
  5
19
102
{ACAD_REACTORS
330
C
102
}
330
C
100
AcDbDictionary
1001
ACAD
1000
TREAT_AS_HARD
1070
     0
  0
DICTIONARY
  5
2A
102
{ACAD_REACTORS
330
C
102
}
330
C
100
AcDbDictionary
  3
STANDARD
350
2B
1001
ACAD
1000
TREAT_AS_HARD
1070
     0
  0
DICTIONARY
  5
2C
102
{ACAD_REACTORS
330
C
102
}
330
C
100
AcDbDictionary
  3
CTABLESTYLE
350
2D
1001
ACAD
1000
TREAT_AS_HARD
1070
     0
  0
XRECORD
  5
13D
102
{ACAD_REACTORS
330
13C
102
}
330
13C
100
AcDbXrecord
102
UCS
 74
     0
 71
     1
 10
0.0
 20
0.0
 30
0.0
 10
1.0
 20
0.0
 30
0.0
 10
0.0
 20
1.0
 30
0.0
146
0.0
 79
     0
102
VIEW
281
     0
  0
MLINESTYLE
  5
18
102
{ACAD_REACTORS
330
17
102
}
330
17
100
AcDbMlineStyle
  2
Standard
 70
     0
  3

 62
   256
 51
90.0
 52
90.0
 71
     2
 49
0.5
 62
   256
  6
BYLAYER
 49
-0.5
 62
   256
  6
BYLAYER
  0
TABLESTYLE
  5
2B
102
{ACAD_REACTORS
330
2A
102
}
330
2A
100
AcDbTableStyle
  3
Standard
 70
     0
 71
     0
 40
0.06
 41
0.06
280
     0
281
     0
  7
STANDARD
140
0.18
170
     2
 62
     0
 63
     7
283
     0
274
    -2
284
     1
 64
     0
275
    -2
285
     1
 65
     0
276
    -2
286
     1
 66
     0
277
    -2
287
     1
 67
     0
278
    -2
288
     1
 68
     0
279
    -2
289
     1
 69
     0
  7
STANDARD
140
0.25
170
     5
 62
     0
 63
     7
283
     0
274
    -2
284
     1
 64
     0
275
    -2
285
     1
 65
     0
276
    -2
286
     1
 66
     0
277
    -2
287
     1
 67
     0
278
    -2
288
     1
 68
     0
279
    -2
289
     1
 69
     0
  7
STANDARD
140
0.18
170
     5
 62
     0
 63
     7
283
     0
274
    -2
284
     1
 64
     0
275
    -2
285
     1
 65
     0
276
    -2
286
     1
 66
     0
277
    -2
287
     1
 67
     0
278
    -2
288
     1
 68
     0
279
    -2
289
     1
 69
     0
  0
DICTIONARYVAR
  5
2D
102
{ACAD_REACTORS
330
2C
102
}
330
2C
100
DictionaryVariables
280
     0
  1
Standard
  0
ENDSEC
  0
EOF
