  0
SECTION
  2
HEADER
  9
$ACADVER
  1
AC1012
  9
$DWGCODEPAGE
  3
ansi_1252
  9
$INSBASE
 10
0.0
 20
0.0
 30
0.0
  9
$EXTMIN
 10
0.0
 20
0.0
 30
0.0
  9
$EXTMAX
 10
210.0
 20
297.0
 30
0.0
  9
$LIMMIN
 10
0.0
 20
0.0
  9
$LIMMAX
 10
210.0
 20
297.0
  9
$ORTHOMODE
 70
     0
  9
$REGENMODE
 70
     1
  9
$FILLMODE
 70
     1
  9
$QTEXTMODE
 70
     0
  9
$MIRRTEXT
 70
     1
  9
$DRAGMODE
 70
     2
  9
$LTSCALE
 40
1.0
  9
$OSMODE
 70
    37
  9
$ATTMODE
 70
     1
  9
$TEXTSIZE
 40
0.2
  9
$TRACEWID
 40
0.05
  9
$TEXTSTYLE
  7
STANDARD
  9
$CLAYER
  8
0
  9
$CELTYPE
  6
BYLAYER
  9
$CECOLOR
 62
   256
  9
$CELTSCALE
 40
25.4
  9
$DELOBJ
 70
     1
  9
$DISPSILH
 70
     0
  9
$DIMSCALE
 40
1.0
  9
$DIMASZ
 40
0.18
  9
$DIMEXO
 40
0.0625
  9
$DIMDLI
 40
0.38
  9
$DIMRND
 40
0.0
  9
$DIMDLE
 40
0.0
  9
$DIMEXE
 40
0.18
  9
$DIMTP
 40
0.0
  9
$DIMTM
 40
0.0
  9
$DIMTXT
 40
0.18
  9
$DIMCEN
 40
0.09
  9
$DIMTSZ
 40
0.0
  9
$DIMTOL
 70
     0
  9
$DIMLIM
 70
     0
  9
$DIMTIH
 70
     1
  9
$DIMTOH
 70
     1
  9
$DIMSE1
 70
     0
  9
$DIMSE2
 70
     0
  9
$DIMTAD
 70
     0
  9
$DIMZIN
 70
     0
  9
$DIMBLK
  1

  9
$DIMASO
 70
     1
  9
$DIMSHO
 70
     1
  9
$DIMPOST
  1

  9
$DIMAPOST
  1

  9
$DIMALT
 70
     0
  9
$DIMALTD
 70
     2
  9
$DIMALTF
 40
25.4
  9
$DIMLFAC
 40
1.0
  9
$DIMTOFL
 70
     0
  9
$DIMTVP
 40
0.0
  9
$DIMTIX
 70
     0
  9
$DIMSOXD
 70
     0
  9
$DIMSAH
 70
     0
  9
$DIMBLK1
  1

  9
$DIMBLK2
  1

  9
$DIMSTYLE
  2
STANDARD
  9
$DIMCLRD
 70
     0
  9
$DIMCLRE
 70
     0
  9
$DIMCLRT
 70
     0
  9
$DIMTFAC
 40
1.0
  9
$DIMGAP
 40
0.09
  9
$DIMJUST
 70
     0
  9
$DIMSD1
 70
     0
  9
$DIMSD2
 70
     0
  9
$DIMTOLJ
 70
     1
  9
$DIMTZIN
 70
     0
  9
$DIMALTZ
 70
     0
  9
$DIMALTTZ
 70
     0
  9
$DIMFIT
 70
     3
  9
$DIMUPT
 70
     0
  9
$DIMUNIT
 70
     2
  9
$DIMDEC
 70
     4
  9
$DIMTDEC
 70
     4
  9
$DIMALTU
 70
     2
  9
$DIMALTTD
 70
     2
  9
$DIMTXSTY
  7
STANDARD
  9
$DIMAUNIT
 70
     0
  9
$LUNITS
 70
     2
  9
$LUPREC
 70
     4
  9
$SKETCHINC
 40
0.1
  9
$FILLETRAD
 40
0.5
  9
$AUNITS
 70
     0
  9
$AUPREC
 70
     0
  9
$MENU
  1
.
  9
$ELEVATION
 40
0.0
  9
$PELEVATION
 40
0.0
  9
$THICKNESS
 40
0.0
  9
$LIMCHECK
 70
     0
  9
$CHAMFERA
 40
0.5
  9
$CHAMFERB
 40
0.5
  9
$CHAMFERC
 40
1.0
  9
$CHAMFERD
 40
0.0
  9
$SKPOLY
 70
     0
  9
$TDCREATE
 40
2453762.544475474
  9
$TDUPDATE
 40
2453762.544475486
  9
$TDINDWG
 40
0.0000000116
  9
$TDUSRTIMER
 40
0.0000000116
  9
$USRTIMER
 70
     1
  9
$ANGBASE
 50
0.0
  9
$ANGDIR
 70
     0
  9
$PDMODE
 70
     0
  9
$PDSIZE
 40
0.0
  9
$PLINEWID
 40
0.0
  9
$COORDS
 70
     1
  9
$SPLFRAME
 70
     0
  9
$SPLINETYPE
 70
     6
  9
$SPLINESEGS
 70
     8
  9
$ATTDIA
 70
     0
  9
$ATTREQ
 70
     1
  9
$HANDLING
 70
     1
  9
$HANDSEED
  5
F3
  9
$SURFTAB1
 70
     6
  9
$SURFTAB2
 70
     6
  9
$SURFTYPE
 70
     6
  9
$SURFU
 70
     6
  9
$SURFV
 70
     6
  9
$UCSNAME
  2

  9
$UCSORG
 10
0.0
 20
0.0
 30
0.0
  9
$UCSXDIR
 10
1.0
 20
0.0
 30
0.0
  9
$UCSYDIR
 10
0.0
 20
1.0
 30
0.0
  9
$PUCSNAME
  2

  9
$PUCSORG
 10
0.0
 20
0.0
 30
0.0
  9
$PUCSXDIR
 10
1.0
 20
0.0
 30
0.0
  9
$PUCSYDIR
 10
0.0
 20
1.0
 30
0.0
  9
$USERI1
 70
     0
  9
$USERI2
 70
     0
  9
$USERI3
 70
     0
  9
$USERI4
 70
     0
  9
$USERI5
 70
     0
  9
$USERR1
 40
0.0
  9
$USERR2
 40
0.0
  9
$USERR3
 40
0.0
  9
$USERR4
 40
0.0
  9
$USERR5
 40
0.0
  9
$WORLDVIEW
 70
     1
  9
$SHADEDGE
 70
     3
  9
$SHADEDIF
 70
    70
  9
$TILEMODE
 70
     1
  9
$MAXACTVP
 70
    64
  9
$PINSBASE
 10
0.0
 20
0.0
 30
0.0
  9
$PLIMCHECK
 70
     0
  9
$PEXTMIN
 10
0.0
 20
0.0
 30
0.0
  9
$PEXTMAX
 10
210.0
 20
297.0
 30
0.0
  9
$PLIMMIN
 10
0.0
 20
0.0
  9
$PLIMMAX
 10
12.0
 20
9.0
  9
$UNITMODE
 70
     0
  9
$VISRETAIN
 70
     1
  9
$PLINEGEN
 70
     0
  9
$PSLTSCALE
 70
     1
  9
$TREEDEPTH
 70
  3020
  9
$PICKSTYLE
 70
     1
  9
$CMLSTYLE
  2
STANDARD
  9
$CMLJUST
 70
     0
  9
$CMLSCALE
 40
1.0
  9
$SAVEIMAGES
 70
     1
  0
ENDSEC
  0
SECTION
  2
CLASSES
  0
CLASS
  1
ACDBDICTIONARYWDFLT
  2
AcDbDictionaryWithDefault
  3
ObjectDBX Classes
 90
        0
280
     0
281
     0
  0
CLASS
  1
TABLESTYLE
  2
AcDbTableStyle
  3
ObjectDBX Classes
 90
     2047
280
     0
281
     0
  0
CLASS
  1
DICTIONARYVAR
  2
AcDbDictionaryVar
  3
ObjectDBX Classes
 90
        0
280
     0
281
     0
  0
CLASS
  1
XRECORD
  2
AcDbXrecord
  3
AutoCAD 2000
 90
    32768
280
     0
281
     0
  0
CLASS
  1
LWPOLYLINE
  2
AcDbPolyline
  3
AutoCAD 2000
 90
    32768
280
     0
281
     1
  0
CLASS
  1
HATCH
  2
AcDbHatch
  3
AutoCAD 2000
 90
    32768
280
     0
281
     1
  0
CLASS
  1
ACDBPLACEHOLDER
  2
AcDbPlaceHolder
  3
ObjectDBX Classes
 90
        0
280
     0
281
     0
  0
CLASS
  1
LAYOUT
  2
AcDbLayout
  3
ObjectDBX Classes
 90
        0
280
     0
281
     0
  0
ENDSEC
  0
SECTION
  2
TABLES
  0
TABLE
  2
VPORT
  5
8
330
0
100
AcDbSymbolTable
 70
     2
  0
VPORT
  5
29
102
{ACAD_XDICTIONARY
360
F1
102
}
330
8
100
AcDbSymbolTableRecord
100
AcDbViewportTableRecord
  2
*ACTIVE
 70
     0
 10
0.0
 20
0.0
 11
1.0
 21
1.0
 12
10.4299065421
 22
4.5
 13
0.0
 23
0.0
 14
0.5
 24
0.5
 15
0.5
 25
0.5
 16
0.0
 26
0.0
 36
1.0
 17
0.0
 27
0.0
 37
0.0
 40
9.0
 41
1.9729729729
 42
50.0
 43
0.0
 44
0.0
 50
0.0
 51
0.0
 71
     0
 72
   100
 73
     1
 74
     3
 75
     0
 76
     0
 77
     0
 78
     0
  0
ENDTAB
  0
TABLE
  2
LTYPE
  5
5
330
0
100
AcDbSymbolTable
 70
     2
  0
LTYPE
  5
14
330
5
100
AcDbSymbolTableRecord
100
AcDbLinetypeTableRecord
  2
BYBLOCK
 70
     0
  3

 72
    65
 73
     0
 40
0.0
  0
LTYPE
  5
15
330
5
100
AcDbSymbolTableRecord
100
AcDbLinetypeTableRecord
  2
BYLAYER
 70
     0
  3

 72
    65
 73
     0
 40
0.0
  0
LTYPE
  5
16
330
5
100
AcDbSymbolTableRecord
100
AcDbLinetypeTableRecord
  2
CONTINUOUS
 70
     0
  3
Solid line
 72
    65
 73
     0
 40
0.0
  0
LTYPE
  5
52
330
5
100
AcDbSymbolTableRecord
100
AcDbLinetypeTableRecord
  2
CENTER2
 70
     0
  3
___ _ ___ _ ___ _ ___ _ ___ _ ___ _ ___ _ ___ _
 72
    65
 73
     4
 40
1.125
 49
0.75
 74
     4
 75
     0
340
0
 46
0.0
 50
0.0
 44
0.0
 45
0.0
 49
-0.125
 74
     4
 75
     0
340
0
 46
0.0
 50
0.0
 44
0.0
 45
0.0
 49
0.125
 74
     4
 75
     0
340
0
 46
0.0
 50
0.0
 44
0.0
 45
0.0
 49
-0.125
 74
     4
 75
     0
340
0
 46
0.0
 50
0.0
 44
0.0
 45
0.0
  0
ENDTAB
  0
TABLE
  2
LAYER
  5
2
330
0
100
AcDbSymbolTable
 70
     6
  0
LAYER
  5
10
330
2
100
AcDbSymbolTableRecord
100
AcDbLayerTableRecord
  2
0
 70
     0
 62
     7
  6
CONTINUOUS
  0
LAYER
  5
30
330
2
100
AcDbSymbolTableRecord
100
AcDbLayerTableRecord
  2
MEGA_001669
 70
     0
 62
     7
  6
CONTINUOUS
  0
LAYER
  5
41
330
2
100
AcDbSymbolTableRecord
100
AcDbLayerTableRecord
  2
MEGA_002298
 70
     0
 62
     7
  6
CONTINUOUS
  0
LAYER
  5
44
330
2
100
AcDbSymbolTableRecord
100
AcDbLayerTableRecord
  2
MEGA_001979
 70
     0
 62
     7
  6
CONTINUOUS
  0
LAYER
  5
51
330
2
100
AcDbSymbolTableRecord
100
AcDbLayerTableRecord
  2
STANDARD
 70
     0
 62
     7
  6
CONTINUOUS
  0
LAYER
  5
7E
330
2
100
AcDbSymbolTableRecord
100
AcDbLayerTableRecord
  2
DEFAULT
 70
     0
 62
     7
  6
CONTINUOUS
  0
ENDTAB
  0
TABLE
  2
STYLE
  5
3
330
0
100
AcDbSymbolTable
 70
     2
  0
STYLE
  5
11
330
3
100
AcDbSymbolTableRecord
100
AcDbTextStyleTableRecord
  2
STANDARD
 70
     0
 40
0.0
 41
1.0
 50
0.0
 71
     0
 42
0.2
  3
txt
  4

  0
STYLE
  5
83
330
3
100
AcDbSymbolTableRecord
100
AcDbTextStyleTableRecord
  2
SEACAD_SEISO_TTF
 70
     0
 40
0.2
 41
1.0
 50
0.0
 71
     0
 42
0.2
  3
seiso.ttf
  4

  0
ENDTAB
  0
TABLE
  2
VIEW
  5
6
330
0
100
AcDbSymbolTable
 70
     0
  0
ENDTAB
  0
TABLE
  2
UCS
  5
7
330
0
100
AcDbSymbolTable
 70
     0
  0
ENDTAB
  0
TABLE
  2
APPID
  5
9
330
0
100
AcDbSymbolTable
 70
     1
  0
APPID
  5
12
330
9
100
AcDbSymbolTableRecord
100
AcDbRegAppTableRecord
  2
ACAD
 70
     0
  0
ENDTAB
  0
TABLE
  2
DIMSTYLE
  5
A
330
0
100
AcDbSymbolTable
 70
     1
  0
DIMSTYLE
105
27
330
A
100
AcDbSymbolTableRecord
100
AcDbDimStyleTableRecord
  2
STANDARD
 70
     0
  3

  4

  5

  6

  7

 40
1.0
 41
0.18
 42
0.0625
 43
0.38
 44
0.18
 45
0.0
 46
0.0
 47
0.0
 48
0.0
140
0.18
141
0.09
142
0.0
143
25.4
144
1.0
145
0.0
146
1.0
147
0.09
 71
     0
 72
     0
 73
     1
 74
     1
 75
     0
 76
     0
 77
     0
 78
     0
170
     0
171
     2
172
     0
173
     0
174
     0
175
     0
176
     0
177
     0
178
     0
270
     2
271
     4
272
     4
273
     2
274
     2
340
11
275
     0
280
     0
281
     0
282
     0
283
     1
284
     0
285
     0
286
     0
287
     3
288
     0
  0
ENDTAB
  0
TABLE
  2
BLOCK_RECORD
  5
1
330
0
100
AcDbSymbolTable
 70
     9
  0
BLOCK_RECORD
  5
1F
330
1
100
AcDbSymbolTableRecord
100
AcDbBlockTableRecord
  2
*MODEL_SPACE
  0
BLOCK_RECORD
  5
1B
330
1
100
AcDbSymbolTableRecord
100
AcDbBlockTableRecord
  2
*PAPER_SPACE
  0
BLOCK_RECORD
  5
2E
330
1
100
AcDbSymbolTableRecord
100
AcDbBlockTableRecord
  2
SE
  0
BLOCK_RECORD
  5
58
330
1
100
AcDbSymbolTableRecord
100
AcDbBlockTableRecord
  2
SE1
  0
BLOCK_RECORD
  5
7C
330
1
100
AcDbSymbolTableRecord
100
AcDbBlockTableRecord
  2
SE2
  0
BLOCK_RECORD
  5
87
330
1
100
AcDbSymbolTableRecord
100
AcDbBlockTableRecord
  2
SE3
  0
BLOCK_RECORD
  5
91
330
1
100
AcDbSymbolTableRecord
100
AcDbBlockTableRecord
  2
SE4
  0
BLOCK_RECORD
  5
9B
330
1
100
AcDbSymbolTableRecord
100
AcDbBlockTableRecord
  2
SE5
  0
BLOCK_RECORD
  5
A5
330
1
100
AcDbSymbolTableRecord
100
AcDbBlockTableRecord
  2
SE6
  0
BLOCK_RECORD
  5
AF
330
1
100
AcDbSymbolTableRecord
100
AcDbBlockTableRecord
  2
SE7
  0
ENDTAB
  0
ENDSEC
  0
SECTION
  2
BLOCKS
  0
BLOCK
  5
20
330
1F
100
AcDbEntity
  8
0
100
AcDbBlockBegin
  2
*MODEL_SPACE
 70
     0
 71
     0
 10
0.0
 20
0.0
 30
0.0
  3
*MODEL_SPACE
  1

  0
ENDBLK
  5
21
330
1F
100
AcDbEntity
  8
0
100
AcDbBlockEnd
  0
BLOCK
  5
1C
330
1B
100
AcDbEntity
 67
     1
  8
0
100
AcDbBlockBegin
  2
*PAPER_SPACE
 70
     0
 71
     0
 10
0.0
 20
0.0
 30
0.0
  3
*PAPER_SPACE
  1

  0
ENDBLK
  5
1D
330
1B
100
AcDbEntity
 67
     1
  8
0
100
AcDbBlockEnd
  0
BLOCK
  5
56
330
2E
100
AcDbEntity
  8
0
100
AcDbBlockBegin
  2
SE
 70
     0
 71
     0
 10
0.0
 20
0.0
 30
0.0
  3
SE
  1

  0
LINE
  5
31
330
2E
100
AcDbEntity
  8
MEGA_001669
  6
CONTINUOUS
 62
     7
 48
25.4
100
AcDbLine
 10
73.8126124549
 20
33.3615955819
 30
0.0
 11
69.5456771055
 21
33.3615955819
 31
0.0
  0
LINE
  5
32
330
2E
100
AcDbEntity
  8
MEGA_001669
  6
CONTINUOUS
 62
     7
 48
25.4
100
AcDbLine
 10
74.112429703
 20
33.3105436046
 30
0.0
 11
74.1622937541
 21
33.0587628533
 31
0.0
  0
LINE
  5
33
330
2E
100
AcDbEntity
  8
MEGA_001669
  6
CONTINUOUS
 62
     7
 48
25.4
100
AcDbLine
 10
69.1959958063
 20
33.0587628533
 30
0.0
 11
69.2458598574
 21
33.3105436046
 31
0.0
  0
ARC
  5
34
330
2E
100
AcDbEntity
  8
MEGA_001669
  6
CONTINUOUS
 62
     7
 48
25.4
100
AcDbCircle
 10
89.6791447802
 20
35.9736762244
 30
0.0
 40
3.0
100
AcDbArc
 50
270.0
 51
360.0
  0
LINE
  5
35
330
2E
100
AcDbEntity
  8
MEGA_001669
  6
CONTINUOUS
 62
     7
 48
25.4
100
AcDbLine
 10
74.6619891676
 20
32.9736762244
 30
0.0
 11
89.6791447802
 21
32.9736762244
 31
0.0
  0
ARC
  5
36
330
2E
100
AcDbEntity
  8
MEGA_001669
  6
CONTINUOUS
 62
     7
 48
25.4
100
AcDbCircle
 10
53.6791447802
 20
35.9736762244
 30
0.0
 40
3.0
100
AcDbArc
 50
180.0
 51
270.0
  0
ARC
  5
37
330
2E
100
AcDbEntity
  8
MEGA_001669
  6
CONTINUOUS
 62
     7
 48
25.4
100
AcDbCircle
 10
53.6791447802
 20
263.9736762244
 30
0.0
 40
3.0
100
AcDbArc
 50
90.0
 51
180.0
  0
LINE
  5
38
330
2E
100
AcDbEntity
  8
MEGA_001669
  6
CONTINUOUS
 62
     7
 48
25.4
100
AcDbLine
 10
92.6791447802
 20
35.9736762244
 30
0.0
 11
92.6791447802
 21
263.9736762244
 31
0.0
  0
ARC
  5
39
330
2E
100
AcDbEntity
  8
MEGA_001669
  6
CONTINUOUS
 62
     7
 48
25.4
100
AcDbCircle
 10
89.6791447802
 20
263.9736762244
 30
0.0
 40
3.0
100
AcDbArc
 50
0.0
 51
90.0
  0
LINE
  5
3A
330
2E
100
AcDbEntity
  8
MEGA_001669
  6
CONTINUOUS
 62
     7
 48
25.4
100
AcDbLine
 10
50.6791447802
 20
263.9736762244
 30
0.0
 11
50.6791447802
 21
35.9736762244
 31
0.0
  0
LINE
  5
3B
330
2E
100
AcDbEntity
  8
MEGA_001669
  6
CONTINUOUS
 62
     7
 48
25.4
100
AcDbLine
 10
53.6791447802
 20
32.9736762244
 30
0.0
 11
68.6963003928
 21
32.9736762244
 31
0.0
  0
LINE
  5
3C
330
2E
100
AcDbEntity
  8
MEGA_001669
  6
CONTINUOUS
 62
     7
 48
25.4
100
AcDbLine
 10
89.6791447802
 20
266.9736762244
 30
0.0
 11
53.6791447802
 21
266.9736762244
 31
0.0
  0
ELLIPSE
  5
3D
330
2E
100
AcDbEntity
  8
MEGA_001669
  6
CONTINUOUS
 62
     7
 48
25.4
100
AcDbEllipse
 10
68.6963003928
 20
33.0618397147
 30
0.0
 11
0.5000000000000004
 21
0.0
 31
0.0
210
0.0
220
0.0
230
1.0
 40
0.1763269807
 41
4.71238898038469
 42
6.248278722139347
  0
ELLIPSE
  5
3E
330
2E
100
AcDbEntity
  8
MEGA_001669
  6
CONTINUOUS
 62
     7
 48
25.4
100
AcDbEllipse
 10
74.6619891676
 20
33.0618397147
 30
0.0
 11
-0.5000000000000004
 21
0.0
 31
0.0
210
0.0
220
0.0
230
1.0
 40
0.1763269807
 41
0.0349065850394244
 42
1.570796326794897
  0
ELLIPSE
  5
3F
330
2E
100
AcDbEntity
  8
MEGA_001669
  6
CONTINUOUS
 62
     7
 48
25.4
100
AcDbEllipse
 10
69.5456771055
 20
33.3086974877
 30
0.0
 11
-0.3000000000000004
 21
0.0
 31
0.0
210
0.0
220
0.0
230
1.0
 40
0.1763269807
 41
4.71238898038469
 42
6.248278722136618
  0
ELLIPSE
  5
40
330
2E
100
AcDbEntity
  8
MEGA_001669
  6
CONTINUOUS
 62
     7
 48
25.4
100
AcDbEllipse
 10
73.8126124549
 20
33.3086974877
 30
0.0
 11
0.3000000000000004
 21
0.0
 31
0.0
210
0.0
220
0.0
230
1.0
 40
0.1763269807
 41
0.0349065850388995
 42
1.570796326794897
  0
CIRCLE
  5
42
330
2E
100
AcDbEntity
  8
MEGA_002298
  6
CONTINUOUS
 62
     7
 48
25.4
100
AcDbCircle
 10
71.6791447802
 20
172.9736762244
 30
0.0
 40
8.0
  0
CIRCLE
  5
43
330
2E
100
AcDbEntity
  8
MEGA_002298
  6
CONTINUOUS
 62
     7
 48
25.4
100
AcDbCircle
 10
71.6791447802
 20
172.9736762244
 30
0.0
 40
12.0
  0
CIRCLE
  5
45
330
2E
100
AcDbEntity
  8
MEGA_001979
  6
CONTINUOUS
 62
     7
 48
25.4
100
AcDbCircle
 10
71.6791447802
 20
94.9596356255
 30
0.0
 40
10.5
  0
ELLIPSE
  5
46
330
2E
100
AcDbEntity
  8
MEGA_001979
  6
CONTINUOUS
 62
     7
 48
25.4
100
AcDbEllipse
 10
71.6696744476
 20
93.5619778906
 30
0.0
 11
24.99942611635073
 21
-0.1693926005671975
 31
0.0
210
0.0
220
0.0
230
1.0
 40
0.0174550649
 41
1.241288507751509
 42
1.900304145838278
  0
ELLIPSE
  5
47
330
2E
100
AcDbEntity
  8
MEGA_001979
  6
CONTINUOUS
 62
     7
 48
25.4
100
AcDbEllipse
 10
71.6886151127
 20
96.3572933604
 30
0.0
 11
24.99942611635085
 21
-0.1693926005672045
 31
0.0
210
0.0
220
0.0
230
1.0
 40
0.0174550649
 41
4.382881161341304
 42
5.041896799428068
  0
CIRCLE
  5
48
330
2E
100
AcDbEntity
  8
MEGA_001979
  6
CONTINUOUS
 62
     7
 48
25.4
100
AcDbCircle
 10
71.6791447802
 20
94.9596356255
 30
0.0
 40
9.5
  0
ELLIPSE
  5
49
330
2E
100
AcDbEntity
  8
MEGA_001979
  6
CONTINUOUS
 62
     7
 48
25.4
100
AcDbEllipse
 10
71.6782827624
 20
94.832416669
 30
0.0
 11
-49.79778166778831
 21
0.3374227752238959
 31
0.0
210
0.0
220
0.0
230
1.0
 40
0.0174524064
 41
1.407631361612774
 42
1.733961291976999
  0
SPLINE
  5
4A
330
2E
100
AcDbEntity
  8
MEGA_001979
  6
CONTINUOUS
 62
     7
 48
25.4
100
AcDbSpline
210
0.0
220
0.0
230
1.0
 70
     8
 71
     3
 72
    14
 73
    10
 74
     0
 42
0.0000000001
 43
0.0000000001
 40
0.0
 40
0.0
 40
0.0
 40
0.0
 40
0.2500000000000058
 40
0.2500000000000058
 40
0.2500000000000058
 40
0.5000000000000117
 40
0.5000000000000117
 40
0.5000000000000117
 40
1.0
 40
1.0
 40
1.0
 40
1.0
 10
63.19817401670226
 20
93.82858855393967
 30
0.0
 10
63.19655802995369
 20
93.87051845430888
 30
0.0
 10
63.22137150597307
 20
93.90793036659414
 30
0.0
 10
63.25167341050891
 20
93.93430561943761
 30
0.0
 10
63.28197531504476
 20
93.9606808722811
 30
0.0
 10
63.31747017361886
 20
93.978572313025
 30
0.0
 10
63.3541596681482
 20
93.99225364286838
 30
0.0
 10
63.42753865720689
 20
94.01961630255518
 30
0.0
 10
63.50511601488107
 20
94.02974333773651
 30
0.0
 10
63.58322370520636
 20
94.0296803336911
 30
0.0
  0
ARC
  5
4B
330
2E
100
AcDbEntity
  8
MEGA_001979
  6
CONTINUOUS
 62
     7
 48
25.4
100
AcDbCircle
 10
53.9373488823
 20
95.0798515429
 30
0.0
 40
26.24224211070001
100
AcDbArc
 50
357.0160197094
 51
2.2075358619
  0
SPLINE
  5
4C
330
2E
100
AcDbEntity
  8
MEGA_001979
  6
CONTINUOUS
 62
     7
 48
25.4
100
AcDbSpline
210
0.0
220
0.0
230
1.0
 70
     8
 71
     3
 72
    14
 73
    10
 74
     0
 42
0.0000000001
 43
0.0000000001
 40
0.0
 40
0.0
 40
0.0
 40
0.0
 40
0.4999999999999882
 40
0.4999999999999882
 40
0.4999999999999882
 40
0.7499999999999941
 40
0.7499999999999941
 40
0.7499999999999941
 40
1.0
 40
1.0
 40
1.0
 40
1.0
 10
79.76172057067181
 20
93.92005711095972
 30
0.0
 10
79.83989552481093
 20
93.91906072649097
 30
0.0
 10
79.91623909671121
 20
93.90813318756671
 30
0.0
 10
79.9895035145571
 20
93.87982147159704
 30
0.0
 10
80.02613572348004
 20
93.86566561361221
 30
0.0
 10
80.06205659799379
 20
93.84689079209335
 30
0.0
 10
80.09180370419135
 20
93.82032723945342
 30
0.0
 10
80.1215508103889
 20
93.79376368681349
 30
0.0
 10
80.1461982774412
 20
93.75575362766789
 30
0.0
 10
80.14400988957954
 20
93.7137659498554
 30
0.0
  0
ARC
  5
4D
330
2E
100
AcDbEntity
  8
MEGA_001979
  6
CONTINUOUS
 62
     7
 48
25.4
100
AcDbCircle
 10
89.4209406781
 20
94.839419708
 30
0.0
 40
26.24224211070001
100
AcDbArc
 50
177.0160197094
 51
182.2075358619
  0
SPLINE
  5
4E
330
2E
100
AcDbEntity
  8
MEGA_001979
  6
CONTINUOUS
 62
     7
 48
25.4
100
AcDbSpline
210
0.0
220
0.0
230
1.0
 70
     8
 71
     3
 72
    14
 73
    10
 74
     0
 42
0.0000000001
 43
0.0000000001
 40
0.0
 40
0.0
 40
0.0
 40
0.0
 40
0.4999999999999898
 40
0.4999999999999898
 40
0.4999999999999898
 40
0.7499999999999949
 40
0.7499999999999949
 40
0.7499999999999949
 40
1.0
 40
1.0
 40
1.0
 40
1.0
 10
63.59656898968618
 20
95.99921413999718
 30
0.0
 10
63.51839403554707
 20
96.00021052446593
 30
0.0
 10
63.44205046364679
 20
96.01113806339019
 30
0.0
 10
63.3687860458009
 20
96.03944977935986
 30
0.0
 10
63.33215383687794
 20
96.05360563734469
 30
0.0
 10
63.29623296236419
 20
96.07238045886359
 30
0.0
 10
63.26648585616665
 20
96.09894401150351
 30
0.0
 10
63.2367387499691
 20
96.12550756414339
 30
0.0
 10
63.21209128291679
 20
96.16351762328904
 30
0.0
 10
63.21427967077846
 20
96.2055053011015
 30
0.0
  0
ELLIPSE
  5
4F
330
2E
100
AcDbEntity
  8
MEGA_001979
  6
CONTINUOUS
 62
     7
 48
25.4
100
AcDbEllipse
 10
71.680006798
 20
95.086854582
 30
0.0
 11
49.79778166778831
 21
-0.3374227752238959
 31
0.0
210
0.0
220
0.0
230
1.0
 40
0.0174524064
 41
1.407631361612774
 42
1.733961291976998
  0
SPLINE
  5
50
330
2E
100
AcDbEntity
  8
MEGA_001979
  6
CONTINUOUS
 62
     7
 48
25.4
100
AcDbSpline
210
0.0
220
0.0
230
1.0
 70
     8
 71
     3
 72
    14
 73
    10
 74
     0
 42
0.0000000001
 43
0.0000000001
 40
0.0
 40
0.0
 40
0.0
 40
0.0
 40
0.2500000000000012
 40
0.2500000000000012
 40
0.2500000000000012
 40
0.5000000000000023
 40
0.5000000000000023
 40
0.5000000000000023
 40
1.0
 40
1.0
 40
1.0
 40
1.0
 10
80.16011554365574
 20
96.09068269701723
 30
0.0
 10
80.16173153040433
 20
96.04875279664799
 30
0.0
 10
80.13691805438495
 20
96.01134088436272
 30
0.0
 10
80.10661614984912
 20
95.98496563151926
 30
0.0
 10
80.07631424531324
 20
95.95859037867579
 30
0.0
 10
80.04081938673915
 20
95.94069893793191
 30
0.0
 10
80.0041298922098
 20
95.92701760808855
 30
0.0
 10
79.93075090315111
 20
95.8996549484017
 30
0.0
 10
79.85317354547692
 20
95.88952791322041
 30
0.0
 10
79.77506585515165
 20
95.88959091726579
 30
0.0
  0
LINE
  5
53
330
2E
100
AcDbEntity
  8
STANDARD
  6
CENTER2
 62
     7
 48
25.4
100
AcDbLine
 10
59.6791447066
 20
172.9736762244
 30
0.0
 11
83.6791447802
 21
172.9736762244
 31
0.0
  0
LINE
  5
54
330
2E
100
AcDbEntity
  8
STANDARD
  6
CENTER2
 62
     7
 48
25.4
100
AcDbLine
 10
71.6791447802
 20
266.9736762244
 30
0.0
 11
71.6791447802
 21
33.3615955819
 31
0.0
  0
LINE
  5
55
330
2E
100
AcDbEntity
  8
STANDARD
  6
CENTER2
 62
     7
 48
25.4
100
AcDbLine
 10
59.1263900629
 20
94.9596356255
 30
0.0
 11
84.1821376799
 21
94.9596356255
 31
0.0
  0
ENDBLK
  5
57
330
2E
100
AcDbEntity
  8
0
100
AcDbBlockEnd
  0
BLOCK
  5
7A
330
58
100
AcDbEntity
  8
0
100
AcDbBlockBegin
  2
SE1
 70
     0
 71
     0
 10
0.0
 20
0.0
 30
0.0
  3
SE1
  1

  0
ARC
  5
5A
330
58
100
AcDbEntity
  8
MEGA_001669
  6
CONTINUOUS
 62
     7
 48
25.4
100
AcDbCircle
 10
154.3605825043
 20
264.7786763108
 30
0.0
 40
1.25
100
AcDbArc
 50
0.0
 51
80.0
  0
ARC
  5
5B
330
58
100
AcDbEntity
  8
MEGA_001669
  6
CONTINUOUS
 62
     7
 48
25.4
100
AcDbCircle
 10
154.3605825043
 20
35.168676138
 30
0.0
 40
1.25
100
AcDbArc
 50
280.0
 51
360.0
  0
LINE
  5
5C
330
58
100
AcDbEntity
  8
MEGA_001669
  6
CONTINUOUS
 62
     7
 48
25.4
100
AcDbLine
 10
149.1105825043
 20
32.9736762244
 30
0.0
 11
149.1105825043
 21
35.9736762244
 31
0.0
  0
LINE
  5
5D
330
58
100
AcDbEntity
  8
MEGA_001669
  6
CONTINUOUS
 62
     7
 48
25.4
100
AcDbLine
 10
149.1105825043
 20
263.9736762244
 30
0.0
 11
149.1105825043
 21
266.9736762244
 31
0.0
  0
LINE
  5
5E
330
58
100
AcDbEntity
  8
MEGA_001669
  6
CONTINUOUS
 62
     7
 48
25.4
100
AcDbLine
 10
149.1105825043
 20
266.9736762244
 30
0.0
 11
154.5776427264
 21
266.0096860021
 31
0.0
  0
LINE
  5
5F
330
58
100
AcDbEntity
  8
MEGA_001669
  6
CONTINUOUS
 62
     7
 48
25.4
100
AcDbLine
 10
154.5776427264
 20
33.9376664467
 30
0.0
 11
149.1105825043
 21
32.9736762244
 31
0.0
  0
LINE
  5
60
330
58
100
AcDbEntity
  8
MEGA_001669
  6
CONTINUOUS
 62
     7
 48
25.4
100
AcDbLine
 10
149.1105825043
 20
263.9736762244
 30
0.0
 11
149.1105825043
 21
35.9736762244
 31
0.0
  0
LINE
  5
61
330
58
100
AcDbEntity
  8
MEGA_001669
  6
CONTINUOUS
 62
     7
 48
25.4
100
AcDbLine
 10
155.6105825043
 20
35.9736762244
 30
0.0
 11
155.6105825043
 21
35.168676138
 31
0.0
  0
LINE
  5
62
330
58
100
AcDbEntity
  8
MEGA_001669
  6
CONTINUOUS
 62
     7
 48
25.4
100
AcDbLine
 10
155.6105825043
 20
264.7786763108
 30
0.0
 11
155.6105825043
 21
263.9736762244
 31
0.0
  0
LINE
  5
63
330
58
100
AcDbEntity
  8
MEGA_001669
  6
CONTINUOUS
 62
     7
 48
25.4
100
AcDbLine
 10
155.6105825043
 20
263.9736762244
 30
0.0
 11
155.6105825043
 21
35.9736762244
 31
0.0
  0
LINE
  5
64
330
58
100
AcDbEntity
  8
MEGA_002298
  6
CONTINUOUS
 62
     7
 48
25.4
100
AcDbLine
 10
157.1105825043
 20
163.3259431675
 30
0.0
 11
157.1105825043
 21
182.6214092812
 31
0.0
  0
LINE
  5
65
330
58
100
AcDbEntity
  8
MEGA_002298
  6
CONTINUOUS
 62
     7
 48
25.4
100
AcDbLine
 10
156.1463714304
 20
160.9736762244
 30
0.0
 11
156.1463714304
 21
184.9736762244
 31
0.0
  0
ARC
  5
66
330
58
100
AcDbEntity
  8
MEGA_002298
  6
CONTINUOUS
 62
     7
 48
25.4
100
AcDbCircle
 10
153.7592090645
 20
182.6214092812
 30
0.0
 40
3.3513734398
100
AcDbArc
 50
0.0
 51
44.5781508306
  0
LINE
  5
67
330
58
100
AcDbEntity
  8
MEGA_002298
  6
CONTINUOUS
 62
     7
 48
25.4
100
AcDbLine
 10
156.1463714304
 20
184.9736762244
 30
0.0
 11
155.6105825043
 21
184.9736762244
 31
0.0
  0
ARC
  5
68
330
58
100
AcDbEntity
  8
MEGA_002298
  6
CONTINUOUS
 62
     7
 48
25.4
100
AcDbCircle
 10
153.7592090645
 20
163.3259431675
 30
0.0
 40
3.3513734398
100
AcDbArc
 50
315.4218491694
 51
360.0
  0
LINE
  5
69
330
58
100
AcDbEntity
  8
MEGA_002298
  6
CONTINUOUS
 62
     7
 48
25.4
100
AcDbLine
 10
155.6105825043
 20
160.9736762244
 30
0.0
 11
156.1463714304
 21
160.9736762244
 31
0.0
  0
LINE
  5
6A
330
58
100
AcDbEntity
  8
MEGA_001979
  6
CONTINUOUS
 62
     7
 48
25.4
100
AcDbLine
 10
157.6105825043
 20
104.4596356255
 30
0.0
 11
157.6105825043
 21
85.4596356255
 31
0.0
  0
LINE
  5
6B
330
58
100
AcDbEntity
  8
MEGA_001979
  6
CONTINUOUS
 62
     7
 48
25.4
100
AcDbLine
 10
156.6105825043
 20
105.4596356255
 30
0.0
 11
156.6105825043
 21
84.4596356255
 31
0.0
  0
ELLIPSE
  5
6C
330
58
100
AcDbEntity
  8
MEGA_001979
  6
CONTINUOUS
 62
     7
 48
25.4
100
AcDbEllipse
 10
108.5191573223
 20
94.832416669
 30
0.0
 11
-49.79133985375167
 21
0.8691310212134221
 31
0.0
210
0.0
220
0.0
230
1.0
 40
0.0067746721
 41
3.274979316966767
 42
3.286235833027458
  0
ARC
  5
6D
330
58
100
AcDbEntity
  8
MEGA_001979
  6
CONTINUOUS
 62
     7
 48
25.4
100
AcDbCircle
 10
108.5213779884
 20
94.9596356255
 30
0.0
 40
49.99999999999999
100
AcDbArc
 50
1.376531146
 51
10.9527841989
  0
SPLINE
  5
6E
330
58
100
AcDbEntity
  8
MEGA_001979
  6
CONTINUOUS
 62
     7
 48
25.4
100
AcDbSpline
210
0.0
220
0.0
230
1.0
 70
     8
 71
     3
 72
    62
 73
    58
 74
     0
 42
0.0000000001
 43
0.0000000001
 40
0.0
 40
0.0
 40
0.0
 40
0.0
 40
0.0657772762601069
 40
0.0657772762601069
 40
0.0657772762601069
 40
0.1691822740041902
 40
0.1691822740041902
 40
0.1691822740041902
 40
0.2730626652649097
 40
0.2730626652649097
 40
0.2730626652649097
 40
0.3777154773532497
 40
0.3777154773532497
 40
0.3777154773532497
 40
0.4837254648224286
 40
0.4837254648224286
 40
0.4837254648224286
 40
0.5924119583286633
 40
0.5924119583286633
 40
0.5924119583286633
 40
0.7075170639361246
 40
0.7075170639361246
 40
0.7075170639361246
 40
0.7769930763761365
 40
0.7769930763761365
 40
0.7769930763761365
 40
0.8382917427276037
 40
0.8382917427276037
 40
0.8382917427276037
 40
0.8684930969455167
 40
0.8684930969455167
 40
0.8684930969455167
 40
0.8935604731627875
 40
0.8935604731627875
 40
0.8935604731627875
 40
0.9139088078039769
 40
0.9139088078039769
 40
0.9139088078039769
 40
0.9309002308660471
 40
0.9309002308660471
 40
0.9309002308660471
 40
0.9455994727564546
 40
0.9455994727564546
 40
0.9455994727564546
 40
0.9588443800101506
 40
0.9588443800101506
 40
0.9588443800101506
 40
0.9712900121522373
 40
0.9712900121522373
 40
0.9712900121522373
 40
0.9834092609000442
 40
0.9834092609000442
 40
0.9834092609000442
 40
0.9965460694334286
 40
0.9965460694334286
 40
0.9965460694334286
 40
1.0
 40
1.0
 40
1.0
 40
1.0
 10
157.8822025549108
 20
95.90410027721661
 30
0.0
 10
157.9038161760336
 20
95.90556870911453
 30
0.0
 10
157.9220456929299
 20
95.9068121264775
 30
0.0
 10
157.940016101746
 20
95.90808914672641
 30
0.0
 10
157.9682664366449
 20
95.91009668311989
 30
0.0
 10
157.9958764291672
 20
95.91218726343776
 30
0.0
 10
158.0217323831176
 20
95.91423022652249
 30
0.0
 10
158.0477072070758
 20
95.91628258191342
 30
0.0
 10
158.0719118273759
 20
95.91828688123442
 30
0.0
 10
158.0946799741132
 20
95.92028362502613
 30
0.0
 10
158.1176174173898
 20
95.92229521595566
 30
0.0
 10
158.139096945381
 20
95.92429913857725
 30
0.0
 10
158.1590877443154
 20
95.92629383997108
 30
0.0
 10
158.1793377911344
 20
95.92831440937137
 30
0.0
 10
158.1980602457749
 20
95.9303255168247
 30
0.0
 10
158.2153958573411
 20
95.93235583438874
 30
0.0
 10
158.2331691528475
 20
95.93443741275705
 30
0.0
 10
158.2494846921083
 20
95.93653918350289
 30
0.0
 10
158.2645769010109
 20
95.93870945301977
 30
0.0
 10
158.2805603985326
 20
95.94100789042334
 30
0.0
 10
158.2951718086631
 20
95.94338315605202
 30
0.0
 10
158.309440317882
 20
95.94618103595317
 30
0.0
 10
158.318052612869
 20
95.94786980151915
 30
0.0
 10
158.3265399828921
 20
95.94971253305894
 30
0.0
 10
158.3355723043495
 20
95.95198316683776
 30
0.0
 10
158.3435415190461
 20
95.95398654638601
 30
0.0
 10
158.3519349527108
 20
95.95632302762894
 30
0.0
 10
158.3621217931808
 20
95.9598677411914
 30
0.0
 10
158.3671407666056
 20
95.96161419272572
 30
0.0
 10
158.3725950810557
 20
95.96365393694475
 30
0.0
 10
158.3788716295191
 20
95.9663355085732
 30
0.0
 10
158.3840812171602
 20
95.96856123541909
 30
0.0
 10
158.3898572532117
 20
95.97122912606494
 30
0.0
 10
158.396535134968
 20
95.97477643792817
 30
0.0
 10
158.4019558767118
 20
95.97765595304949
 30
0.0
 10
158.4079708726088
 20
95.98111494613248
 30
0.0
 10
158.4147973326226
 20
95.98564050721042
 30
0.0
 10
158.420497615823
 20
95.98941947606582
 30
0.0
 10
158.4267637096297
 20
95.99394213212963
 30
0.0
 10
158.433650842488
 20
95.99970475279997
 30
0.0
 10
158.4396088856397
 20
96.00468998298619
 30
0.0
 10
158.446031710766
 20
96.01060319539312
 30
0.0
 10
158.4527558706804
 20
96.01786947676696
 30
0.0
 10
158.4588147460352
 20
96.02441683639226
 30
0.0
 10
158.4651182781624
 20
96.03206276644282
 30
0.0
 10
158.4713414815424
 20
96.04112003071106
 30
0.0
 10
158.4771891404599
 20
96.04963072671951
 30
0.0
 10
158.4829658731155
 20
96.05938756017987
 30
0.0
 10
158.4880137125844
 20
96.07030288635812
 30
0.0
 10
158.4929291738053
 20
96.08093196100917
 30
0.0
 10
158.4971534706129
 20
96.09265956278898
 30
0.0
 10
158.5006370138541
 20
96.10554029919666
 30
0.0
 10
158.5044130433366
 20
96.11950253163185
 30
0.0
 10
158.5073187064679
 20
96.13481966753807
 30
0.0
 10
158.5068912416985
 20
96.1490668906837
 30
0.0
 10
158.5067788526331
 20
96.15281277153339
 30
0.0
 10
158.506436054565
 20
96.15648469256533
 30
0.0
 10
158.5060211860933
 20
96.16079140329228
 30
0.0
  0
LINE
  5
6F
330
58
100
AcDbEntity
  8
MEGA_001979
  6
CONTINUOUS
 62
     7
 48
25.4
100
AcDbLine
 10
156.6105825043
 20
84.4596356255
 30
0.0
 11
157.6105825043
 21
85.4596356255
 31
0.0
  0
SPLINE
  5
70
330
58
100
AcDbEntity
  8
MEGA_001979
  6
CONTINUOUS
 62
     7
 48
25.4
100
AcDbSpline
210
0.0
220
0.0
230
1.0
 70
     8
 71
     3
 72
    62
 73
    58
 74
     0
 42
0.0000000001
 43
0.0000000001
 40
0.0
 40
0.0
 40
0.0
 40
0.0
 40
0.010234511059878
 40
0.010234511059878
 40
0.010234511059878
 40
0.0226866887052495
 40
0.0226866887052495
 40
0.0226866887052495
 40
0.0350073014812171
 40
0.0350073014812171
 40
0.0350073014812171
 40
0.0475336947810047
 40
0.0475336947810047
 40
0.0475336947810047
 40
0.0607925000216479
 40
0.0607925000216479
 40
0.0607925000216479
 40
0.0754562254936437
 40
0.0754562254936437
 40
0.0754562254936437
 40
0.092351456117904
 40
0.092351456117904
 40
0.092351456117904
 40
0.1125499888632419
 40
0.1125499888632419
 40
0.1125499888632419
 40
0.1375552665050926
 40
0.1375552665050926
 40
0.1375552665050926
 40
0.1696687319642385
 40
0.1696687319642385
 40
0.1696687319642385
 40
0.2128356157247166
 40
0.2128356157247166
 40
0.2128356157247166
 40
0.2751995946070773
 40
0.2751995946070773
 40
0.2751995946070773
 40
0.3815257346678293
 40
0.3815257346678293
 40
0.3815257346678293
 40
0.4899692968380062
 40
0.4899692968380062
 40
0.4899692968380062
 40
0.593067020583307
 40
0.593067020583307
 40
0.593067020583307
 40
0.7022600041904066
 40
0.7022600041904066
 40
0.7022600041904066
 40
0.8082082421573577
 40
0.8082082421573577
 40
0.8082082421573577
 40
0.912572541362319
 40
0.912572541362319
 40
0.912572541362319
 40
1.0
 40
1.0
 40
1.0
 40
1.0
 10
158.5062084628362
 20
93.75857619384014
 30
0.0
 10
158.5062322547122
 20
93.77160009398691
 30
0.0
 10
158.506171217708
 20
93.78251294231147
 30
0.0
 10
158.5047441231709
 20
93.79353478895486
 30
0.0
 10
158.5030077984371
 20
93.80694490611444
 30
0.0
 10
158.499249267647
 20
93.82051637596608
 30
0.0
 10
158.4947405948744
 20
93.8327464081917
 30
0.0
 10
158.490279558986
 20
93.84484722265007
 30
0.0
 10
158.4850841487925
 20
93.85563479595203
 30
0.0
 10
158.4795242567361
 20
93.86521707752449
 30
0.0
 10
158.4738715026184
 20
93.87495940364646
 30
0.0
 10
158.4678419897119
 20
93.88345583992161
 30
0.0
 10
158.4619207192557
 20
93.8907997432769
 30
0.0
 10
158.4556532350823
 20
93.89857304098224
 30
0.0
 10
158.4495070211695
 20
93.90505508957894
 30
0.0
 10
158.4436961675023
 20
93.91059379929253
 30
0.0
 10
158.4372695882301
 20
93.91671939788415
 30
0.0
 10
158.4312532049751
 20
93.92169115114763
 30
0.0
 10
158.4257005572013
 20
93.92589801609034
 30
0.0
 10
158.419302915286
 20
93.93074507583299
 30
0.0
 10
158.4135208894176
 20
93.93457673446129
 30
0.0
 10
158.408254935962
 20
93.93780169738707
 30
0.0
 10
158.4019593999215
 20
93.9416571948767
 30
0.0
 10
158.3964014658044
 20
93.9446455661527
 30
0.0
 10
158.3913681311393
 20
93.94715597812915
 30
0.0
 10
158.3851369888899
 20
93.95026380527968
 30
0.0
 10
158.3797098383105
 20
93.95263912061753
 30
0.0
 10
158.374779055666
 20
93.95464258733175
 30
0.0
 10
158.3684466117551
 20
93.95721557452458
 30
0.0
 10
158.3629328488316
 20
93.95917525578651
 30
0.0
 10
158.3578468110935
 20
93.96084971550971
 30
0.0
 10
158.3510101649483
 20
93.96310052236593
 30
0.0
 10
158.3449463628584
 20
93.96483597081401
 30
0.0
 10
158.3391746783516
 20
93.96635700257677
 30
0.0
 10
158.330836221198
 20
93.96855446471599
 30
0.0
 10
158.3231074749101
 20
93.97030439411368
 30
0.0
 10
158.3153572293367
 20
93.97190185448723
 30
0.0
 10
158.3021436129012
 20
93.97462541059228
 30
0.0
 10
158.2888675027293
 20
93.97690577248018
 30
0.0
 10
158.2745171651191
 20
93.97908837364155
 30
0.0
 10
158.2598810490342
 20
93.98131444001245
 30
0.0
 10
158.2441274942835
 20
93.98343881319261
 30
0.0
 10
158.226949478029
 20
93.98553510236975
 30
0.0
 10
158.2106182699899
 20
93.98752805278699
 30
0.0
 10
158.1929995794923
 20
93.9894956198147
 30
0.0
 10
158.1739411433875
 20
93.99146807325286
 30
0.0
 10
158.1537559499072
 20
93.99355714048066
 30
0.0
 10
158.1319557395154
 20
93.99565168897921
 30
0.0
 10
158.1085679917588
 20
93.99775419414846
 30
0.0
 10
158.0858752272332
 20
93.99979422191063
 30
0.0
 10
158.0616878730706
 20
94.00184174049339
 30
0.0
 10
158.0356246415357
 20
94.00393626720232
 30
0.0
 10
158.0099510584128
 20
94.00599948048782
 30
0.0
 10
157.9824572678274
 20
94.00810830685187
 30
0.0
 10
157.9543920252304
 20
94.01014104688636
 30
0.0
 10
157.9308813721143
 20
94.01184390214088
 30
0.0
 10
157.9069696939015
 20
94.01349336266223
 30
0.0
 10
157.8784780254958
 20
94.0154485733274
 30
0.0
  0
LINE
  5
71
330
58
100
AcDbEntity
  8
MEGA_001979
  6
CONTINUOUS
 62
     7
 48
25.4
100
AcDbLine
 10
157.6105825043
 20
104.4596356255
 30
0.0
 11
156.6105825043
 21
105.4596356255
 31
0.0
  0
LINE
  5
72
330
58
100
AcDbEntity
  8
MEGA_001979
  6
CONTINUOUS
 62
     7
 48
25.4
100
AcDbLine
 10
156.6105825043
 20
105.4596356255
 30
0.0
 11
155.6105825043
 21
105.4596356255
 31
0.0
  0
LINE
  5
73
330
58
100
AcDbEntity
  8
MEGA_001979
  6
CONTINUOUS
 62
     7
 48
25.4
100
AcDbLine
 10
155.6105825043
 20
84.4596356255
 30
0.0
 11
156.6105825043
 21
84.4596356255
 31
0.0
  0
ARC
  5
74
330
58
100
AcDbEntity
  8
MEGA_001979
  6
CONTINUOUS
 62
     7
 48
25.4
100
AcDbCircle
 10
84.9893437326
 20
95.0170469275
 30
0.0
 40
72.80423472210003
100
AcDbArc
 50
359.0646605413
 51
0.9353394587
  0
ARC
  5
75
330
58
100
AcDbEntity
  8
MEGA_001979
  6
CONTINUOUS
 62
     7
 48
25.4
100
AcDbCircle
 10
108.5213779884
 20
94.9596356255
 30
0.0
 40
49.99999999999999
100
AcDbArc
 50
349.0472158011
 51
358.623468854
  0
ELLIPSE
  5
76
330
58
100
AcDbEntity
  8
MEGA_001979
  6
CONTINUOUS
 62
     7
 48
25.4
100
AcDbEllipse
 10
108.5191573223
 20
95.086854582
 30
0.0
 11
-49.79133985375167
 21
-0.8691310212134221
 31
0.0
210
0.0
220
0.0
230
1.0
 40
0.0067746721
 41
2.997056544051087
 42
3.008830974045858
  0
ELLIPSE
  5
77
330
58
100
AcDbEntity
  8
MEGA_001979
  6
CONTINUOUS
 62
     7
 48
25.4
100
AcDbEllipse
 10
108.5191573223
 20
95.086854582
 30
0.0
 11
-49.79133985375167
 21
-0.8691310212134221
 31
0.0
210
0.0
220
0.0
230
1.0
 40
0.0067746721
 41
3.244854148721502
 42
3.286021571291585
  0
LINE
  5
78
330
58
100
AcDbEntity
  8
STANDARD
  6
CENTER2
 62
     7
 48
25.4
100
AcDbLine
 10
149.1216584532
 20
172.96901561
 30
0.0
 11
157.1105825043
 21
172.9736762244
 31
0.0
  0
LINE
  5
79
330
58
100
AcDbEntity
  8
STANDARD
  6
CENTER2
 62
     7
 48
25.4
100
AcDbLine
 10
149.0658445226
 20
94.979470753
 30
0.0
 11
158.5062084628
 21
94.9596356255
 31
0.0
  0
ENDBLK
  5
7B
330
58
100
AcDbEntity
  8
0
100
AcDbBlockEnd
  0
BLOCK
  5
85
330
7C
100
AcDbEntity
  8
0
100
AcDbBlockBegin
  2
SE2
 70
     0
 71
     0
 10
0.0
 20
0.0
 30
0.0
  3
SE2
  1

  0
POLYLINE
  5
7F
330
7C
100
AcDbEntity
  8
DEFAULT
  6
CONTINUOUS
 62
     7
 48
25.4
100
AcDb2dPolyline
 66
     1
 10
0.0
 20
0.0
 30
0.0
 70
     1
  0
VERTEX
  5
BB
330
7F
100
AcDbEntity
  8
DEFAULT
  6
CONTINUOUS
 62
     7
100
AcDbVertex
100
AcDb2dVertex
 10
89.6791447541
 20
282.5094307901
 30
0.0
  0
VERTEX
  5
BC
330
7F
100
AcDbEntity
  8
DEFAULT
  6
CONTINUOUS
 62
     7
100
AcDbVertex
100
AcDb2dVertex
 10
92.6791447802
 20
282.0094307858
 30
0.0
  0
VERTEX
  5
BD
330
7F
100
AcDbEntity
  8
DEFAULT
  6
CONTINUOUS
 62
     7
100
AcDbVertex
100
AcDb2dVertex
 10
89.6791447541
 20
281.5094307815
 30
0.0
  0
VERTEX
  5
BE
330
7F
100
AcDbEntity
  8
DEFAULT
  6
CONTINUOUS
 62
     7
100
AcDbVertex
100
AcDb2dVertex
 10
89.6791447541
 20
282.5094307901
 30
0.0
  0
SEQEND
  5
BA
330
7F
100
AcDbEntity
  8
DEFAULT
  6
CONTINUOUS
 62
     7
 48
25.4
  0
LINE
  5
80
330
7C
100
AcDbEntity
  8
DEFAULT
  6
CONTINUOUS
 62
     7
 48
25.4
100
AcDbLine
 10
50.6791447802
 20
263.9736762244
 30
0.0
 11
50.6791447802
 21
283.5094307988
 31
0.0
  0
LINE
  5
81
330
7C
100
AcDbEntity
  8
DEFAULT
  6
CONTINUOUS
 62
     7
 48
25.4
100
AcDbLine
 10
92.6791447802
 20
263.9736762244
 30
0.0
 11
92.6791447802
 21
283.5094307988
 31
0.0
  0
LINE
  5
82
330
7C
100
AcDbEntity
  8
DEFAULT
  6
CONTINUOUS
 62
     7
 48
25.4
100
AcDbLine
 10
50.6791447802
 20
282.0094307858
 30
0.0
 11
92.6791442139
 21
282.0094307858
 31
0.0
  0
TEXT
  5
84
330
7C
100
AcDbEntity
  8
DEFAULT
  6
CONTINUOUS
 62
     7
 48
25.4
100
AcDbText
 10
69.8723263152
 20
282.7594307858
 30
0.0
 40
3.0
  1
42
  7
SEACAD_SEISO_TTF
 11
69.8723263152
 21
285.7594307858
 31
0.0
100
AcDbText
 73
     3
  0
ENDBLK
  5
86
330
7C
100
AcDbEntity
  8
0
100
AcDbBlockEnd
  0
BLOCK
  5
8F
330
87
100
AcDbEntity
  8
0
100
AcDbBlockBegin
  2
SE3
 70
     0
 71
     0
 10
0.0
 20
0.0
 30
0.0
  3
SE3
  1

  0
POLYLINE
  5
89
330
87
100
AcDbEntity
  8
DEFAULT
  6
CONTINUOUS
 62
     7
 48
25.4
100
AcDb2dPolyline
 66
     1
 10
0.0
 20
0.0
 30
0.0
 70
     1
  0
VERTEX
  5
C0
330
89
100
AcDbEntity
  8
DEFAULT
  6
CONTINUOUS
 62
     7
100
AcDbVertex
100
AcDb2dVertex
 10
146.1105824782
 20
281.9976653101
 30
0.0
  0
VERTEX
  5
C1
330
89
100
AcDbEntity
  8
DEFAULT
  6
CONTINUOUS
 62
     7
100
AcDbVertex
100
AcDb2dVertex
 10
149.1105825043
 20
281.4976653058
 30
0.0
  0
VERTEX
  5
C2
330
89
100
AcDbEntity
  8
DEFAULT
  6
CONTINUOUS
 62
     7
100
AcDbVertex
100
AcDb2dVertex
 10
146.1105824782
 20
280.9976653014
 30
0.0
  0
VERTEX
  5
C3
330
89
100
AcDbEntity
  8
DEFAULT
  6
CONTINUOUS
 62
     7
100
AcDbVertex
100
AcDb2dVertex
 10
146.1105824782
 20
281.9976653101
 30
0.0
  0
SEQEND
  5
BF
330
89
100
AcDbEntity
  8
DEFAULT
  6
CONTINUOUS
 62
     7
 48
25.4
  0
POLYLINE
  5
8A
330
87
100
AcDbEntity
  8
DEFAULT
  6
CONTINUOUS
 62
     7
 48
25.4
100
AcDb2dPolyline
 66
     1
 10
0.0
 20
0.0
 30
0.0
 70
     1
  0
VERTEX
  5
C5
330
8A
100
AcDbEntity
  8
DEFAULT
  6
CONTINUOUS
 62
     7
100
AcDbVertex
100
AcDb2dVertex
 10
158.6105825304
 20
281.9976653101
 30
0.0
  0
VERTEX
  5
C6
330
8A
100
AcDbEntity
  8
DEFAULT
  6
CONTINUOUS
 62
     7
100
AcDbVertex
100
AcDb2dVertex
 10
155.6105825043
 20
281.4976653058
 30
0.0
  0
VERTEX
  5
C7
330
8A
100
AcDbEntity
  8
DEFAULT
  6
CONTINUOUS
 62
     7
100
AcDbVertex
100
AcDb2dVertex
 10
158.6105825304
 20
280.9976653014
 30
0.0
  0
VERTEX
  5
C8
330
8A
100
AcDbEntity
  8
DEFAULT
  6
CONTINUOUS
 62
     7
100
AcDbVertex
100
AcDb2dVertex
 10
158.6105825304
 20
281.9976653101
 30
0.0
  0
SEQEND
  5
C4
330
8A
100
AcDbEntity
  8
DEFAULT
  6
CONTINUOUS
 62
     7
 48
25.4
  0
LINE
  5
8B
330
87
100
AcDbEntity
  8
DEFAULT
  6
CONTINUOUS
 62
     7
 48
25.4
100
AcDbLine
 10
149.1105825043
 20
263.9736762244
 30
0.0
 11
149.1105825043
 21
282.9976653188
 31
0.0
  0
LINE
  5
8C
330
87
100
AcDbEntity
  8
DEFAULT
  6
CONTINUOUS
 62
     7
 48
25.4
100
AcDbLine
 10
155.6105825043
 20
263.9736762244
 30
0.0
 11
155.6105825043
 21
282.9976653188
 31
0.0
  0
LINE
  5
8D
330
87
100
AcDbEntity
  8
DEFAULT
  6
CONTINUOUS
 62
     7
 48
25.4
100
AcDbLine
 10
143.1105824522
 20
281.4976653058
 30
0.0
 11
161.6105826906
 21
281.4976653058
 31
0.0
  0
TEXT
  5
8E
330
87
100
AcDbEntity
  8
DEFAULT
  6
CONTINUOUS
 62
     7
 48
25.4
100
AcDbText
 10
150.3151280259
 20
282.2476653058
 30
0.0
 40
3.0
  1
6,5
  7
SEACAD_SEISO_TTF
 11
150.3151280259
 21
285.2476653058
 31
0.0
100
AcDbText
 73
     3
  0
ENDBLK
  5
90
330
87
100
AcDbEntity
  8
0
100
AcDbBlockEnd
  0
BLOCK
  5
99
330
91
100
AcDbEntity
  8
0
100
AcDbBlockBegin
  2
SE4
 70
     0
 71
     0
 10
0.0
 20
0.0
 30
0.0
  3
SE4
  1

  0
POLYLINE
  5
93
330
91
100
AcDbEntity
  8
DEFAULT
  6
CONTINUOUS
 62
     7
 48
25.4
100
AcDb2dPolyline
 66
     1
 10
0.0
 20
0.0
 30
0.0
 70
     1
  0
VERTEX
  5
CA
330
93
100
AcDbEntity
  8
DEFAULT
  6
CONTINUOUS
 62
     7
100
AcDbVertex
100
AcDb2dVertex
 10
20.6751391053
 20
263.9736761983
 30
0.0
  0
VERTEX
  5
CB
330
93
100
AcDbEntity
  8
DEFAULT
  6
CONTINUOUS
 62
     7
100
AcDbVertex
100
AcDb2dVertex
 10
21.1751391096
 20
266.9736762244
 30
0.0
  0
VERTEX
  5
CC
330
93
100
AcDbEntity
  8
DEFAULT
  6
CONTINUOUS
 62
     7
100
AcDbVertex
100
AcDb2dVertex
 10
21.675139114
 20
263.9736761983
 30
0.0
  0
VERTEX
  5
CD
330
93
100
AcDbEntity
  8
DEFAULT
  6
CONTINUOUS
 62
     7
100
AcDbVertex
100
AcDb2dVertex
 10
20.6751391053
 20
263.9736761983
 30
0.0
  0
SEQEND
  5
C9
330
93
100
AcDbEntity
  8
DEFAULT
  6
CONTINUOUS
 62
     7
 48
25.4
  0
POLYLINE
  5
94
330
91
100
AcDbEntity
  8
DEFAULT
  6
CONTINUOUS
 62
     7
 48
25.4
100
AcDb2dPolyline
 66
     1
 10
0.0
 20
0.0
 30
0.0
 70
     1
  0
VERTEX
  5
CF
330
94
100
AcDbEntity
  8
DEFAULT
  6
CONTINUOUS
 62
     7
100
AcDbVertex
100
AcDb2dVertex
 10
20.6751391053
 20
35.9736762505
 30
0.0
  0
VERTEX
  5
D0
330
94
100
AcDbEntity
  8
DEFAULT
  6
CONTINUOUS
 62
     7
100
AcDbVertex
100
AcDb2dVertex
 10
21.1751391096
 20
32.9736762244
 30
0.0
  0
VERTEX
  5
D1
330
94
100
AcDbEntity
  8
DEFAULT
  6
CONTINUOUS
 62
     7
100
AcDbVertex
100
AcDb2dVertex
 10
21.675139114
 20
35.9736762505
 30
0.0
  0
VERTEX
  5
D2
330
94
100
AcDbEntity
  8
DEFAULT
  6
CONTINUOUS
 62
     7
100
AcDbVertex
100
AcDb2dVertex
 10
20.6751391053
 20
35.9736762505
 30
0.0
  0
SEQEND
  5
CE
330
94
100
AcDbEntity
  8
DEFAULT
  6
CONTINUOUS
 62
     7
 48
25.4
  0
LINE
  5
95
330
91
100
AcDbEntity
  8
DEFAULT
  6
CONTINUOUS
 62
     7
 48
25.4
100
AcDbLine
 10
53.6791463299
 20
266.9736762244
 30
0.0
 11
19.6751390966
 21
266.9736762244
 31
0.0
  0
LINE
  5
96
330
91
100
AcDbEntity
  8
DEFAULT
  6
CONTINUOUS
 62
     7
 48
25.4
100
AcDbLine
 10
61.1877225865
 20
32.9736762244
 30
0.0
 11
19.6751390966
 21
32.9736762244
 31
0.0
  0
LINE
  5
97
330
91
100
AcDbEntity
  8
DEFAULT
  6
CONTINUOUS
 62
     7
 48
25.4
100
AcDbLine
 10
21.1751391096
 20
266.9736762244
 30
0.0
 11
21.1751391096
 21
32.973678847
 31
0.0
  0
TEXT
  5
98
330
91
100
AcDbEntity
  8
DEFAULT
  6
CONTINUOUS
 62
     7
 48
25.4
100
AcDbText
 10
20.4251391096
 20
147.3827684448
 30
0.0
 40
3.0
  1
234
 50
90.0
  7
SEACAD_SEISO_TTF
 11
17.4251391096
 21
147.3827684448
 31
0.0
100
AcDbText
 73
     3
  0
ENDBLK
  5
9A
330
91
100
AcDbEntity
  8
0
100
AcDbBlockEnd
  0
BLOCK
  5
A3
330
9B
100
AcDbEntity
  8
0
100
AcDbBlockBegin
  2
SE5
 70
     0
 71
     0
 10
0.0
 20
0.0
 30
0.0
  3
SE5
  1

  0
POLYLINE
  5
9D
330
9B
100
AcDbEntity
  8
DEFAULT
  6
CONTINUOUS
 62
     7
 48
25.4
100
AcDb2dPolyline
 66
     1
 10
0.0
 20
0.0
 30
0.0
 70
     1
  0
VERTEX
  5
D4
330
9D
100
AcDbEntity
  8
DEFAULT
  6
CONTINUOUS
 62
     7
100
AcDbVertex
100
AcDb2dVertex
 10
32.9575322032
 20
175.9736762505
 30
0.0
  0
VERTEX
  5
D5
330
9D
100
AcDbEntity
  8
DEFAULT
  6
CONTINUOUS
 62
     7
100
AcDbVertex
100
AcDb2dVertex
 10
33.4575322075
 20
172.9736762244
 30
0.0
  0
VERTEX
  5
D6
330
9D
100
AcDbEntity
  8
DEFAULT
  6
CONTINUOUS
 62
     7
100
AcDbVertex
100
AcDb2dVertex
 10
33.9575322119
 20
175.9736762505
 30
0.0
  0
VERTEX
  5
D7
330
9D
100
AcDbEntity
  8
DEFAULT
  6
CONTINUOUS
 62
     7
100
AcDbVertex
100
AcDb2dVertex
 10
32.9575322032
 20
175.9736762505
 30
0.0
  0
SEQEND
  5
D3
330
9D
100
AcDbEntity
  8
DEFAULT
  6
CONTINUOUS
 62
     7
 48
25.4
  0
POLYLINE
  5
9E
330
9B
100
AcDbEntity
  8
DEFAULT
  6
CONTINUOUS
 62
     7
 48
25.4
100
AcDb2dPolyline
 66
     1
 10
0.0
 20
0.0
 30
0.0
 70
     1
  0
VERTEX
  5
D9
330
9E
100
AcDbEntity
  8
DEFAULT
  6
CONTINUOUS
 62
     7
100
AcDbVertex
100
AcDb2dVertex
 10
32.9575322032
 20
263.9736761983
 30
0.0
  0
VERTEX
  5
DA
330
9E
100
AcDbEntity
  8
DEFAULT
  6
CONTINUOUS
 62
     7
100
AcDbVertex
100
AcDb2dVertex
 10
33.4575322075
 20
266.9736762244
 30
0.0
  0
VERTEX
  5
DB
330
9E
100
AcDbEntity
  8
DEFAULT
  6
CONTINUOUS
 62
     7
100
AcDbVertex
100
AcDb2dVertex
 10
33.9575322119
 20
263.9736761983
 30
0.0
  0
VERTEX
  5
DC
330
9E
100
AcDbEntity
  8
DEFAULT
  6
CONTINUOUS
 62
     7
100
AcDbVertex
100
AcDb2dVertex
 10
32.9575322032
 20
263.9736761983
 30
0.0
  0
SEQEND
  5
D8
330
9E
100
AcDbEntity
  8
DEFAULT
  6
CONTINUOUS
 62
     7
 48
25.4
  0
LINE
  5
9F
330
9B
100
AcDbEntity
  8
DEFAULT
  6
CONTINUOUS
 62
     7
 48
25.4
100
AcDbLine
 10
71.6791447802
 20
172.9736762244
 30
0.0
 11
31.9575321945
 21
172.9736762244
 31
0.0
  0
LINE
  5
A0
330
9B
100
AcDbEntity
  8
DEFAULT
  6
CONTINUOUS
 62
     7
 48
25.4
100
AcDbLine
 10
53.6791447802
 20
266.9736762244
 30
0.0
 11
31.9575321945
 21
266.9736762244
 31
0.0
  0
LINE
  5
A1
330
9B
100
AcDbEntity
  8
DEFAULT
  6
CONTINUOUS
 62
     7
 48
25.4
100
AcDbLine
 10
33.4575322075
 20
172.9736762244
 30
0.0
 11
33.4575322075
 21
266.9736730057
 31
0.0
  0
TEXT
  5
A2
330
9B
100
AcDbEntity
  8
DEFAULT
  6
CONTINUOUS
 62
     7
 48
25.4
100
AcDbText
 10
32.7075322075
 20
218.1668564332
 30
0.0
 40
3.0
  1
94
 50
90.0
  7
SEACAD_SEISO_TTF
 11
29.7075322075
 21
218.1668564332
 31
0.0
100
AcDbText
 73
     3
  0
ENDBLK
  5
A4
330
9B
100
AcDbEntity
  8
0
100
AcDbBlockEnd
  0
BLOCK
  5
AD
330
A5
100
AcDbEntity
  8
0
100
AcDbBlockBegin
  2
SE6
 70
     0
 71
     0
 10
0.0
 20
0.0
 30
0.0
  3
SE6
  1

  0
POLYLINE
  5
A7
330
A5
100
AcDbEntity
  8
DEFAULT
  6
CONTINUOUS
 62
     7
 48
25.4
100
AcDb2dPolyline
 66
     1
 10
0.0
 20
0.0
 30
0.0
 70
     1
  0
VERTEX
  5
DE
330
A7
100
AcDbEntity
  8
DEFAULT
  6
CONTINUOUS
 62
     7
100
AcDbVertex
100
AcDb2dVertex
 10
32.9575322032
 20
169.9736761983
 30
0.0
  0
VERTEX
  5
DF
330
A7
100
AcDbEntity
  8
DEFAULT
  6
CONTINUOUS
 62
     7
100
AcDbVertex
100
AcDb2dVertex
 10
33.4575322075
 20
172.9736762244
 30
0.0
  0
VERTEX
  5
E0
330
A7
100
AcDbEntity
  8
DEFAULT
  6
CONTINUOUS
 62
     7
100
AcDbVertex
100
AcDb2dVertex
 10
33.9575322119
 20
169.9736761983
 30
0.0
  0
VERTEX
  5
E1
330
A7
100
AcDbEntity
  8
DEFAULT
  6
CONTINUOUS
 62
     7
100
AcDbVertex
100
AcDb2dVertex
 10
32.9575322032
 20
169.9736761983
 30
0.0
  0
SEQEND
  5
DD
330
A7
100
AcDbEntity
  8
DEFAULT
  6
CONTINUOUS
 62
     7
 48
25.4
  0
POLYLINE
  5
A8
330
A5
100
AcDbEntity
  8
DEFAULT
  6
CONTINUOUS
 62
     7
 48
25.4
100
AcDb2dPolyline
 66
     1
 10
0.0
 20
0.0
 30
0.0
 70
     1
  0
VERTEX
  5
E3
330
A8
100
AcDbEntity
  8
DEFAULT
  6
CONTINUOUS
 62
     7
100
AcDbVertex
100
AcDb2dVertex
 10
32.9575322032
 20
97.9596356516
 30
0.0
  0
VERTEX
  5
E4
330
A8
100
AcDbEntity
  8
DEFAULT
  6
CONTINUOUS
 62
     7
100
AcDbVertex
100
AcDb2dVertex
 10
33.4575322075
 20
94.9596356255
 30
0.0
  0
VERTEX
  5
E5
330
A8
100
AcDbEntity
  8
DEFAULT
  6
CONTINUOUS
 62
     7
100
AcDbVertex
100
AcDb2dVertex
 10
33.9575322119
 20
97.9596356516
 30
0.0
  0
VERTEX
  5
E6
330
A8
100
AcDbEntity
  8
DEFAULT
  6
CONTINUOUS
 62
     7
100
AcDbVertex
100
AcDb2dVertex
 10
32.9575322032
 20
97.9596356516
 30
0.0
  0
SEQEND
  5
E2
330
A8
100
AcDbEntity
  8
DEFAULT
  6
CONTINUOUS
 62
     7
 48
25.4
  0
LINE
  5
A9
330
A5
100
AcDbEntity
  8
DEFAULT
  6
CONTINUOUS
 62
     7
 48
25.4
100
AcDbLine
 10
71.6791447802
 20
172.9736762244
 30
0.0
 11
31.9575321945
 21
172.9736762244
 31
0.0
  0
LINE
  5
AA
330
A5
100
AcDbEntity
  8
DEFAULT
  6
CONTINUOUS
 62
     7
 48
25.4
100
AcDbLine
 10
71.6791447802
 20
94.9596356255
 30
0.0
 11
31.9575321945
 21
94.9596356255
 31
0.0
  0
LINE
  5
AB
330
A5
100
AcDbEntity
  8
DEFAULT
  6
CONTINUOUS
 62
     7
 48
25.4
100
AcDbLine
 10
33.4575322075
 20
172.9736762244
 30
0.0
 11
33.4575322075
 21
94.9596377212
 31
0.0
  0
TEXT
  5
AC
330
A5
100
AcDbEntity
  8
DEFAULT
  6
CONTINUOUS
 62
     7
 48
25.4
100
AcDbText
 10
32.7075322075
 20
132.0575660637
 30
0.0
 40
3.0
  1
78
 50
90.0
  7
SEACAD_SEISO_TTF
 11
29.7075322075
 21
132.0575660637
 31
0.0
100
AcDbText
 73
     3
  0
ENDBLK
  5
AE
330
A5
100
AcDbEntity
  8
0
100
AcDbBlockEnd
  0
BLOCK
  5
B8
330
AF
100
AcDbEntity
  8
0
100
AcDbBlockBegin
  2
SE7
 70
     0
 71
     0
 10
0.0
 20
0.0
 30
0.0
  3
SE7
  1

  0
POLYLINE
  5
B1
330
AF
100
AcDbEntity
  8
DEFAULT
  6
CONTINUOUS
 62
     7
 48
25.4
100
AcDb2dPolyline
 66
     1
 10
0.0
 20
0.0
 30
0.0
 70
     1
  0
VERTEX
  5
E8
330
B1
100
AcDbEntity
  8
DEFAULT
  6
CONTINUOUS
 62
     7
100
AcDbVertex
100
AcDb2dVertex
 10
113.7931075044
 20
167.9736780913
 30
0.0
  0
VERTEX
  5
E9
330
B1
100
AcDbEntity
  8
DEFAULT
  6
CONTINUOUS
 62
     7
100
AcDbVertex
100
AcDb2dVertex
 10
113.2931076312
 20
164.9736780434
 30
0.0
  0
VERTEX
  5
EA
330
B1
100
AcDbEntity
  8
DEFAULT
  6
CONTINUOUS
 62
     7
100
AcDbVertex
100
AcDb2dVertex
 10
112.7931074957
 20
167.9736780476
 30
0.0
  0
VERTEX
  5
EB
330
B1
100
AcDbEntity
  8
DEFAULT
  6
CONTINUOUS
 62
     7
100
AcDbVertex
100
AcDb2dVertex
 10
113.7931075044
 20
167.9736780913
 30
0.0
  0
SEQEND
  5
E7
330
B1
100
AcDbEntity
  8
DEFAULT
  6
CONTINUOUS
 62
     7
 48
25.4
  0
POLYLINE
  5
B2
330
AF
100
AcDbEntity
  8
DEFAULT
  6
CONTINUOUS
 62
     7
 48
25.4
100
AcDb2dPolyline
 66
     1
 10
0.0
 20
0.0
 30
0.0
 70
     1
  0
VERTEX
  5
ED
330
B2
100
AcDbEntity
  8
DEFAULT
  6
CONTINUOUS
 62
     7
100
AcDbVertex
100
AcDb2dVertex
 10
113.7931070673
 20
177.9736780392
 30
0.0
  0
VERTEX
  5
EE
330
B2
100
AcDbEntity
  8
DEFAULT
  6
CONTINUOUS
 62
     7
100
AcDbVertex
100
AcDb2dVertex
 10
113.2931069318
 20
180.9736780434
 30
0.0
  0
VERTEX
  5
EF
330
B2
100
AcDbEntity
  8
DEFAULT
  6
CONTINUOUS
 62
     7
100
AcDbVertex
100
AcDb2dVertex
 10
112.7931070586
 20
177.9736779954
 30
0.0
  0
VERTEX
  5
F0
330
B2
100
AcDbEntity
  8
DEFAULT
  6
CONTINUOUS
 62
     7
100
AcDbVertex
100
AcDb2dVertex
 10
113.7931070673
 20
177.9736780392
 30
0.0
  0
SEQEND
  5
EC
330
B2
100
AcDbEntity
  8
DEFAULT
  6
CONTINUOUS
 62
     7
 48
25.4
  0
LINE
  5
B3
330
AF
100
AcDbEntity
  8
DEFAULT
  6
CONTINUOUS
 62
     7
 48
25.4
100
AcDbLine
 10
71.6791451299
 20
164.9736762244
 30
0.0
 11
114.7931076442
 21
164.9736781089
 31
0.0
  0
LINE
  5
B4
330
AF
100
AcDbEntity
  8
DEFAULT
  6
CONTINUOUS
 62
     7
 48
25.4
100
AcDbLine
 10
71.6791444305
 20
180.9736762244
 30
0.0
 11
114.7931069448
 21
180.9736781089
 31
0.0
  0
LINE
  5
B5
330
AF
100
AcDbEntity
  8
DEFAULT
  6
CONTINUOUS
 62
     7
 48
25.4
100
AcDbLine
 10
113.2931076312
 20
164.9736780434
 30
0.0
 11
113.2931069318
 21
180.9736788033
 31
0.0
  0
TEXT
  5
B6
330
AF
100
AcDbEntity
  8
DEFAULT
  6
CONTINUOUS
 62
     7
 48
25.4
100
AcDbText
 10
112.5431072815
 20
169.1759511506
 30
0.0
 40
3.0
  1
16
 50
90.0
  7
SEACAD_SEISO_TTF
 11
109.5431072815
 21
169.1759511506
 31
0.0
100
AcDbText
 73
     3
  0
TEXT
  5
B7
330
AF
100
AcDbEntity
  8
DEFAULT
  6
CONTINUOUS
 62
     7
 48
25.4
100
AcDbText
 10
112.5431072815
 20
172.5441329688
 30
0.0
 40
3.0
  1
/18
 50
90.0
  7
SEACAD_SEISO_TTF
 11
109.5431072815
 21
172.5441329688
 31
0.0
100
AcDbText
 73
     3
  0
ENDBLK
  5
B9
330
AF
100
AcDbEntity
  8
0
100
AcDbBlockEnd
  0
ENDSEC
  0
SECTION
  2
ENTITIES
  0
INSERT
  5
2F
330
1F
100
AcDbEntity
  8
0
100
AcDbBlockReference
  2
SE
 10
0.0
 20
0.0
 30
0.0
  0
INSERT
  5
59
330
1F
100
AcDbEntity
  8
0
100
AcDbBlockReference
  2
SE1
 10
0.0
 20
0.0
 30
0.0
  0
INSERT
  5
7D
330
1F
100
AcDbEntity
  8
0
100
AcDbBlockReference
  2
SE2
 10
0.0
 20
0.0
 30
0.0
  0
INSERT
  5
88
330
1F
100
AcDbEntity
  8
0
100
AcDbBlockReference
  2
SE3
 10
0.0
 20
0.0
 30
0.0
  0
INSERT
  5
92
330
1F
100
AcDbEntity
  8
0
100
AcDbBlockReference
  2
SE4
 10
0.0
 20
0.0
 30
0.0
  0
INSERT
  5
9C
330
1F
100
AcDbEntity
  8
0
100
AcDbBlockReference
  2
SE5
 10
0.0
 20
0.0
 30
0.0
  0
INSERT
  5
A6
330
1F
100
AcDbEntity
  8
0
100
AcDbBlockReference
  2
SE6
 10
0.0
 20
0.0
 30
0.0
  0
INSERT
  5
B0
330
1F
100
AcDbEntity
  8
0
100
AcDbBlockReference
  2
SE7
 10
0.0
 20
0.0
 30
0.0
  0
ENDSEC
  0
SECTION
  2
OBJECTS
  0
DICTIONARY
  5
C
330
0
100
AcDbDictionary
  3
ACAD_GROUP
350
D
  3
ACAD_LAYOUT
350
1A
  3
ACAD_MLINESTYLE
350
17
  3
ACAD_PLOTSETTINGS
350
19
  3
ACAD_TABLESTYLE
350
2A
  3
ACDBVARIABLEDICTIONARY
350
2C
1001
ACAD
1000
TREAT_AS_HARD
1070
     0
  0
DICTIONARY
  5
F1
330
29
100
AcDbDictionary
  3
ACAD_XREC_ROUNDTRIP
360
F2
  0
DICTIONARY
  5
D
102
{ACAD_REACTORS
330
C
102
}
330
C
100
AcDbDictionary
1001
ACAD
1000
TREAT_AS_HARD
1070
     0
  0
DICTIONARY
  5
1A
102
{ACAD_REACTORS
330
C
102
}
330
C
100
AcDbDictionary
1001
ACAD
1000
TREAT_AS_HARD
1070
     0
  0
DICTIONARY
  5
17
102
{ACAD_REACTORS
330
C
102
}
330
C
100
AcDbDictionary
  3
STANDARD
350
18
1001
ACAD
1000
TREAT_AS_HARD
1070
     0
  0
DICTIONARY
  5
19
102
{ACAD_REACTORS
330
C
102
}
330
C
100
AcDbDictionary
1001
ACAD
1000
TREAT_AS_HARD
1070
     0
  0
DICTIONARY
  5
2A
102
{ACAD_REACTORS
330
C
102
}
330
C
100
AcDbDictionary
  3
STANDARD
350
2B
1001
ACAD
1000
TREAT_AS_HARD
1070
     0
  0
DICTIONARY
  5
2C
102
{ACAD_REACTORS
330
C
102
}
330
C
100
AcDbDictionary
  3
CTABLESTYLE
350
2D
1001
ACAD
1000
TREAT_AS_HARD
1070
     0
  0
XRECORD
  5
F2
102
{ACAD_REACTORS
330
F1
102
}
330
F1
100
AcDbXrecord
102
UCS
 74
     0
 71
     1
 10
0.0
 20
0.0
 30
0.0
 10
1.0
 20
0.0
 30
0.0
 10
0.0
 20
1.0
 30
0.0
146
0.0
 79
     0
102
VIEW
281
     0
  0
MLINESTYLE
  5
18
102
{ACAD_REACTORS
330
17
102
}
330
17
100
AcDbMlineStyle
  2
Standard
 70
     0
  3

 62
   256
 51
90.0
 52
90.0
 71
     2
 49
0.5
 62
   256
  6
BYLAYER
 49
-0.5
 62
   256
  6
BYLAYER
  0
TABLESTYLE
  5
2B
102
{ACAD_REACTORS
330
2A
102
}
330
2A
100
AcDbTableStyle
  3
Standard
 70
     0
 71
     0
 40
0.06
 41
0.06
280
     0
281
     0
  7
STANDARD
140
0.18
170
     2
 62
     0
 63
     7
283
     0
274
    -2
284
     1
 64
     0
275
    -2
285
     1
 65
     0
276
    -2
286
     1
 66
     0
277
    -2
287
     1
 67
     0
278
    -2
288
     1
 68
     0
279
    -2
289
     1
 69
     0
  7
STANDARD
140
0.25
170
     5
 62
     0
 63
     7
283
     0
274
    -2
284
     1
 64
     0
275
    -2
285
     1
 65
     0
276
    -2
286
     1
 66
     0
277
    -2
287
     1
 67
     0
278
    -2
288
     1
 68
     0
279
    -2
289
     1
 69
     0
  7
STANDARD
140
0.18
170
     5
 62
     0
 63
     7
283
     0
274
    -2
284
     1
 64
     0
275
    -2
285
     1
 65
     0
276
    -2
286
     1
 66
     0
277
    -2
287
     1
 67
     0
278
    -2
288
     1
 68
     0
279
    -2
289
     1
 69
     0
  0
DICTIONARYVAR
  5
2D
102
{ACAD_REACTORS
330
2C
102
}
330
2C
100
DictionaryVariables
280
     0
  1
Standard
  0
ENDSEC
  0
EOF
