  0
SECTION
  2
HEADER
  9
$ACADVER
  1
AC1012
  9
$DWGCODEPAGE
  3
ansi_1252
  9
$INSBASE
 10
0.0
 20
0.0
 30
0.0
  9
$EXTMIN
 10
0.0
 20
0.0
 30
0.0
  9
$EXTMAX
 10
210.0
 20
297.0
 30
0.0
  9
$LIMMIN
 10
0.0
 20
0.0
  9
$LIMMAX
 10
210.0
 20
297.0
  9
$ORTHOMODE
 70
     0
  9
$REGENMODE
 70
     1
  9
$FILLMODE
 70
     1
  9
$QTEXTMODE
 70
     0
  9
$MIRRTEXT
 70
     1
  9
$DRAGMODE
 70
     2
  9
$LTSCALE
 40
1.0
  9
$OSMODE
 70
    37
  9
$ATTMODE
 70
     1
  9
$TEXTSIZE
 40
0.2
  9
$TRACEWID
 40
0.05
  9
$TEXTSTYLE
  7
STANDARD
  9
$CLAYER
  8
0
  9
$CELTYPE
  6
BYLAYER
  9
$CECOLOR
 62
   256
  9
$CELTSCALE
 40
25.4
  9
$DELOBJ
 70
     1
  9
$DISPSILH
 70
     0
  9
$DIMSCALE
 40
1.0
  9
$DIMASZ
 40
0.18
  9
$DIMEXO
 40
0.0625
  9
$DIMDLI
 40
0.38
  9
$DIMRND
 40
0.0
  9
$DIMDLE
 40
0.0
  9
$DIMEXE
 40
0.18
  9
$DIMTP
 40
0.0
  9
$DIMTM
 40
0.0
  9
$DIMTXT
 40
0.18
  9
$DIMCEN
 40
0.09
  9
$DIMTSZ
 40
0.0
  9
$DIMTOL
 70
     0
  9
$DIMLIM
 70
     0
  9
$DIMTIH
 70
     1
  9
$DIMTOH
 70
     1
  9
$DIMSE1
 70
     0
  9
$DIMSE2
 70
     0
  9
$DIMTAD
 70
     0
  9
$DIMZIN
 70
     0
  9
$DIMBLK
  1

  9
$DIMASO
 70
     1
  9
$DIMSHO
 70
     1
  9
$DIMPOST
  1

  9
$DIMAPOST
  1

  9
$DIMALT
 70
     0
  9
$DIMALTD
 70
     2
  9
$DIMALTF
 40
25.4
  9
$DIMLFAC
 40
1.0
  9
$DIMTOFL
 70
     0
  9
$DIMTVP
 40
0.0
  9
$DIMTIX
 70
     0
  9
$DIMSOXD
 70
     0
  9
$DIMSAH
 70
     0
  9
$DIMBLK1
  1

  9
$DIMBLK2
  1

  9
$DIMSTYLE
  2
STANDARD
  9
$DIMCLRD
 70
     0
  9
$DIMCLRE
 70
     0
  9
$DIMCLRT
 70
     0
  9
$DIMTFAC
 40
1.0
  9
$DIMGAP
 40
0.09
  9
$DIMJUST
 70
     0
  9
$DIMSD1
 70
     0
  9
$DIMSD2
 70
     0
  9
$DIMTOLJ
 70
     1
  9
$DIMTZIN
 70
     0
  9
$DIMALTZ
 70
     0
  9
$DIMALTTZ
 70
     0
  9
$DIMFIT
 70
     3
  9
$DIMUPT
 70
     0
  9
$DIMUNIT
 70
     2
  9
$DIMDEC
 70
     4
  9
$DIMTDEC
 70
     4
  9
$DIMALTU
 70
     2
  9
$DIMALTTD
 70
     2
  9
$DIMTXSTY
  7
STANDARD
  9
$DIMAUNIT
 70
     0
  9
$LUNITS
 70
     2
  9
$LUPREC
 70
     4
  9
$SKETCHINC
 40
0.1
  9
$FILLETRAD
 40
0.5
  9
$AUNITS
 70
     0
  9
$AUPREC
 70
     0
  9
$MENU
  1
.
  9
$ELEVATION
 40
0.0
  9
$PELEVATION
 40
0.0
  9
$THICKNESS
 40
0.0
  9
$LIMCHECK
 70
     0
  9
$CHAMFERA
 40
0.5
  9
$CHAMFERB
 40
0.5
  9
$CHAMFERC
 40
1.0
  9
$CHAMFERD
 40
0.0
  9
$SKPOLY
 70
     0
  9
$TDCREATE
 40
2453762.544492106
  9
$TDUPDATE
 40
2453762.544492118
  9
$TDINDWG
 40
0.0000000116
  9
$TDUSRTIMER
 40
0.0000000116
  9
$USRTIMER
 70
     1
  9
$ANGBASE
 50
0.0
  9
$ANGDIR
 70
     0
  9
$PDMODE
 70
     0
  9
$PDSIZE
 40
0.0
  9
$PLINEWID
 40
0.0
  9
$COORDS
 70
     1
  9
$SPLFRAME
 70
     0
  9
$SPLINETYPE
 70
     6
  9
$SPLINESEGS
 70
     8
  9
$ATTDIA
 70
     0
  9
$ATTREQ
 70
     1
  9
$HANDLING
 70
     1
  9
$HANDSEED
  5
11F
  9
$SURFTAB1
 70
     6
  9
$SURFTAB2
 70
     6
  9
$SURFTYPE
 70
     6
  9
$SURFU
 70
     6
  9
$SURFV
 70
     6
  9
$UCSNAME
  2

  9
$UCSORG
 10
0.0
 20
0.0
 30
0.0
  9
$UCSXDIR
 10
1.0
 20
0.0
 30
0.0
  9
$UCSYDIR
 10
0.0
 20
1.0
 30
0.0
  9
$PUCSNAME
  2

  9
$PUCSORG
 10
0.0
 20
0.0
 30
0.0
  9
$PUCSXDIR
 10
1.0
 20
0.0
 30
0.0
  9
$PUCSYDIR
 10
0.0
 20
1.0
 30
0.0
  9
$USERI1
 70
     0
  9
$USERI2
 70
     0
  9
$USERI3
 70
     0
  9
$USERI4
 70
     0
  9
$USERI5
 70
     0
  9
$USERR1
 40
0.0
  9
$USERR2
 40
0.0
  9
$USERR3
 40
0.0
  9
$USERR4
 40
0.0
  9
$USERR5
 40
0.0
  9
$WORLDVIEW
 70
     1
  9
$SHADEDGE
 70
     3
  9
$SHADEDIF
 70
    70
  9
$TILEMODE
 70
     1
  9
$MAXACTVP
 70
    64
  9
$PINSBASE
 10
0.0
 20
0.0
 30
0.0
  9
$PLIMCHECK
 70
     0
  9
$PEXTMIN
 10
0.0
 20
0.0
 30
0.0
  9
$PEXTMAX
 10
210.0
 20
297.0
 30
0.0
  9
$PLIMMIN
 10
0.0
 20
0.0
  9
$PLIMMAX
 10
12.0
 20
9.0
  9
$UNITMODE
 70
     0
  9
$VISRETAIN
 70
     1
  9
$PLINEGEN
 70
     0
  9
$PSLTSCALE
 70
     1
  9
$TREEDEPTH
 70
  3020
  9
$PICKSTYLE
 70
     1
  9
$CMLSTYLE
  2
STANDARD
  9
$CMLJUST
 70
     0
  9
$CMLSCALE
 40
1.0
  9
$SAVEIMAGES
 70
     1
  0
ENDSEC
  0
SECTION
  2
CLASSES
  0
CLASS
  1
ACDBDICTIONARYWDFLT
  2
AcDbDictionaryWithDefault
  3
ObjectDBX Classes
 90
        0
280
     0
281
     0
  0
CLASS
  1
TABLESTYLE
  2
AcDbTableStyle
  3
ObjectDBX Classes
 90
     2047
280
     0
281
     0
  0
CLASS
  1
DICTIONARYVAR
  2
AcDbDictionaryVar
  3
ObjectDBX Classes
 90
        0
280
     0
281
     0
  0
CLASS
  1
XRECORD
  2
AcDbXrecord
  3
AutoCAD 2000
 90
    32768
280
     0
281
     0
  0
CLASS
  1
LWPOLYLINE
  2
AcDbPolyline
  3
AutoCAD 2000
 90
    32768
280
     0
281
     1
  0
CLASS
  1
HATCH
  2
AcDbHatch
  3
AutoCAD 2000
 90
    32768
280
     0
281
     1
  0
CLASS
  1
ACDBPLACEHOLDER
  2
AcDbPlaceHolder
  3
ObjectDBX Classes
 90
        0
280
     0
281
     0
  0
CLASS
  1
LAYOUT
  2
AcDbLayout
  3
ObjectDBX Classes
 90
        0
280
     0
281
     0
  0
ENDSEC
  0
SECTION
  2
TABLES
  0
TABLE
  2
VPORT
  5
8
330
0
100
AcDbSymbolTable
 70
     2
  0
VPORT
  5
29
102
{ACAD_XDICTIONARY
360
11D
102
}
330
8
100
AcDbSymbolTableRecord
100
AcDbViewportTableRecord
  2
*ACTIVE
 70
     0
 10
0.0
 20
0.0
 11
1.0
 21
1.0
 12
10.4299065421
 22
4.5
 13
0.0
 23
0.0
 14
0.5
 24
0.5
 15
0.5
 25
0.5
 16
0.0
 26
0.0
 36
1.0
 17
0.0
 27
0.0
 37
0.0
 40
9.0
 41
1.9729729729
 42
50.0
 43
0.0
 44
0.0
 50
0.0
 51
0.0
 71
     0
 72
   100
 73
     1
 74
     3
 75
     0
 76
     0
 77
     0
 78
     0
  0
ENDTAB
  0
TABLE
  2
LTYPE
  5
5
330
0
100
AcDbSymbolTable
 70
     2
  0
LTYPE
  5
14
330
5
100
AcDbSymbolTableRecord
100
AcDbLinetypeTableRecord
  2
BYBLOCK
 70
     0
  3

 72
    65
 73
     0
 40
0.0
  0
LTYPE
  5
15
330
5
100
AcDbSymbolTableRecord
100
AcDbLinetypeTableRecord
  2
BYLAYER
 70
     0
  3

 72
    65
 73
     0
 40
0.0
  0
LTYPE
  5
16
330
5
100
AcDbSymbolTableRecord
100
AcDbLinetypeTableRecord
  2
CONTINUOUS
 70
     0
  3
Solid line
 72
    65
 73
     0
 40
0.0
  0
LTYPE
  5
66
330
5
100
AcDbSymbolTableRecord
100
AcDbLinetypeTableRecord
  2
CENTER2
 70
     0
  3
___ _ ___ _ ___ _ ___ _ ___ _ ___ _ ___ _ ___ _
 72
    65
 73
     4
 40
1.125
 49
0.75
 74
     4
 75
     0
340
0
 46
0.0
 50
0.0
 44
0.0
 45
0.0
 49
-0.125
 74
     4
 75
     0
340
0
 46
0.0
 50
0.0
 44
0.0
 45
0.0
 49
0.125
 74
     4
 75
     0
340
0
 46
0.0
 50
0.0
 44
0.0
 45
0.0
 49
-0.125
 74
     4
 75
     0
340
0
 46
0.0
 50
0.0
 44
0.0
 45
0.0
  0
ENDTAB
  0
TABLE
  2
LAYER
  5
2
330
0
100
AcDbSymbolTable
 70
     6
  0
LAYER
  5
10
330
2
100
AcDbSymbolTableRecord
100
AcDbLayerTableRecord
  2
0
 70
     0
 62
     7
  6
CONTINUOUS
  0
LAYER
  5
30
330
2
100
AcDbSymbolTableRecord
100
AcDbLayerTableRecord
  2
MEGA_001669
 70
     0
 62
     7
  6
CONTINUOUS
  0
LAYER
  5
41
330
2
100
AcDbSymbolTableRecord
100
AcDbLayerTableRecord
  2
MEGA_002298
 70
     0
 62
     7
  6
CONTINUOUS
  0
LAYER
  5
44
330
2
100
AcDbSymbolTableRecord
100
AcDbLayerTableRecord
  2
MEGA_001062
 70
     0
 62
     7
  6
CONTINUOUS
  0
LAYER
  5
65
330
2
100
AcDbSymbolTableRecord
100
AcDbLayerTableRecord
  2
STANDARD
 70
     0
 62
     7
  6
CONTINUOUS
  0
LAYER
  5
96
330
2
100
AcDbSymbolTableRecord
100
AcDbLayerTableRecord
  2
DEFAULT
 70
     0
 62
     7
  6
CONTINUOUS
  0
ENDTAB
  0
TABLE
  2
STYLE
  5
3
330
0
100
AcDbSymbolTable
 70
     2
  0
STYLE
  5
11
330
3
100
AcDbSymbolTableRecord
100
AcDbTextStyleTableRecord
  2
STANDARD
 70
     0
 40
0.0
 41
1.0
 50
0.0
 71
     0
 42
0.2
  3
txt
  4

  0
STYLE
  5
9B
330
3
100
AcDbSymbolTableRecord
100
AcDbTextStyleTableRecord
  2
SEACAD_SEISO_TTF
 70
     0
 40
0.2
 41
1.0
 50
0.0
 71
     0
 42
0.2
  3
seiso.ttf
  4

  0
ENDTAB
  0
TABLE
  2
VIEW
  5
6
330
0
100
AcDbSymbolTable
 70
     0
  0
ENDTAB
  0
TABLE
  2
UCS
  5
7
330
0
100
AcDbSymbolTable
 70
     0
  0
ENDTAB
  0
TABLE
  2
APPID
  5
9
330
0
100
AcDbSymbolTable
 70
     1
  0
APPID
  5
12
330
9
100
AcDbSymbolTableRecord
100
AcDbRegAppTableRecord
  2
ACAD
 70
     0
  0
ENDTAB
  0
TABLE
  2
DIMSTYLE
  5
A
330
0
100
AcDbSymbolTable
 70
     1
  0
DIMSTYLE
105
27
330
A
100
AcDbSymbolTableRecord
100
AcDbDimStyleTableRecord
  2
STANDARD
 70
     0
  3

  4

  5

  6

  7

 40
1.0
 41
0.18
 42
0.0625
 43
0.38
 44
0.18
 45
0.0
 46
0.0
 47
0.0
 48
0.0
140
0.18
141
0.09
142
0.0
143
25.4
144
1.0
145
0.0
146
1.0
147
0.09
 71
     0
 72
     0
 73
     1
 74
     1
 75
     0
 76
     0
 77
     0
 78
     0
170
     0
171
     2
172
     0
173
     0
174
     0
175
     0
176
     0
177
     0
178
     0
270
     2
271
     4
272
     4
273
     2
274
     2
340
11
275
     0
280
     0
281
     0
282
     0
283
     1
284
     0
285
     0
286
     0
287
     3
288
     0
  0
ENDTAB
  0
TABLE
  2
BLOCK_RECORD
  5
1
330
0
100
AcDbSymbolTable
 70
    10
  0
BLOCK_RECORD
  5
1F
330
1
100
AcDbSymbolTableRecord
100
AcDbBlockTableRecord
  2
*MODEL_SPACE
  0
BLOCK_RECORD
  5
1B
330
1
100
AcDbSymbolTableRecord
100
AcDbBlockTableRecord
  2
*PAPER_SPACE
  0
BLOCK_RECORD
  5
2E
330
1
100
AcDbSymbolTableRecord
100
AcDbBlockTableRecord
  2
SE
  0
BLOCK_RECORD
  5
6C
330
1
100
AcDbSymbolTableRecord
100
AcDbBlockTableRecord
  2
SE1
  0
BLOCK_RECORD
  5
94
330
1
100
AcDbSymbolTableRecord
100
AcDbBlockTableRecord
  2
SE2
  0
BLOCK_RECORD
  5
9F
330
1
100
AcDbSymbolTableRecord
100
AcDbBlockTableRecord
  2
SE3
  0
BLOCK_RECORD
  5
A9
330
1
100
AcDbSymbolTableRecord
100
AcDbBlockTableRecord
  2
SE4
  0
BLOCK_RECORD
  5
B3
330
1
100
AcDbSymbolTableRecord
100
AcDbBlockTableRecord
  2
SE5
  0
BLOCK_RECORD
  5
BD
330
1
100
AcDbSymbolTableRecord
100
AcDbBlockTableRecord
  2
SE6
  0
BLOCK_RECORD
  5
C7
330
1
100
AcDbSymbolTableRecord
100
AcDbBlockTableRecord
  2
SE7
  0
BLOCK_RECORD
  5
D2
330
1
100
AcDbSymbolTableRecord
100
AcDbBlockTableRecord
  2
SE8
  0
ENDTAB
  0
ENDSEC
  0
SECTION
  2
BLOCKS
  0
BLOCK
  5
20
330
1F
100
AcDbEntity
  8
0
100
AcDbBlockBegin
  2
*MODEL_SPACE
 70
     0
 71
     0
 10
0.0
 20
0.0
 30
0.0
  3
*MODEL_SPACE
  1

  0
ENDBLK
  5
21
330
1F
100
AcDbEntity
  8
0
100
AcDbBlockEnd
  0
BLOCK
  5
1C
330
1B
100
AcDbEntity
 67
     1
  8
0
100
AcDbBlockBegin
  2
*PAPER_SPACE
 70
     0
 71
     0
 10
0.0
 20
0.0
 30
0.0
  3
*PAPER_SPACE
  1

  0
ENDBLK
  5
1D
330
1B
100
AcDbEntity
 67
     1
  8
0
100
AcDbBlockEnd
  0
BLOCK
  5
6A
330
2E
100
AcDbEntity
  8
0
100
AcDbBlockBegin
  2
SE
 70
     0
 71
     0
 10
0.0
 20
0.0
 30
0.0
  3
SE
  1

  0
LINE
  5
31
330
2E
100
AcDbEntity
  8
MEGA_001669
  6
CONTINUOUS
 62
     7
 48
25.4
100
AcDbLine
 10
62.1551918409
 20
36.7078160017
 30
0.0
 11
57.8882564916
 21
36.7078160017
 31
0.0
  0
LINE
  5
32
330
2E
100
AcDbEntity
  8
MEGA_001669
  6
CONTINUOUS
 62
     7
 48
25.4
100
AcDbLine
 10
62.455009089
 20
36.6567640243
 30
0.0
 11
62.5048731401
 21
36.404983273
 31
0.0
  0
LINE
  5
33
330
2E
100
AcDbEntity
  8
MEGA_001669
  6
CONTINUOUS
 62
     7
 48
25.4
100
AcDbLine
 10
57.5385751923
 20
36.404983273
 30
0.0
 11
57.5884392435
 21
36.6567640243
 31
0.0
  0
ARC
  5
34
330
2E
100
AcDbEntity
  8
MEGA_001669
  6
CONTINUOUS
 62
     7
 48
25.4
100
AcDbCircle
 10
42.0217241662
 20
267.3198966441
 30
0.0
 40
3.0
100
AcDbArc
 50
90.0
 51
180.0
  0
ARC
  5
35
330
2E
100
AcDbEntity
  8
MEGA_001669
  6
CONTINUOUS
 62
     7
 48
25.4
100
AcDbCircle
 10
78.0217241662
 20
39.3198966441
 30
0.0
 40
3.0
100
AcDbArc
 50
270.0
 51
360.0
  0
ARC
  5
36
330
2E
100
AcDbEntity
  8
MEGA_001669
  6
CONTINUOUS
 62
     7
 48
25.4
100
AcDbCircle
 10
42.0217241662
 20
39.3198966441
 30
0.0
 40
3.0
100
AcDbArc
 50
180.0
 51
270.0
  0
ARC
  5
37
330
2E
100
AcDbEntity
  8
MEGA_001669
  6
CONTINUOUS
 62
     7
 48
25.4
100
AcDbCircle
 10
78.0217241662
 20
267.3198966441
 30
0.0
 40
3.0
100
AcDbArc
 50
0.0
 51
90.0
  0
LINE
  5
38
330
2E
100
AcDbEntity
  8
MEGA_001669
  6
CONTINUOUS
 62
     7
 48
25.4
100
AcDbLine
 10
63.0045685536
 20
36.3198966441
 30
0.0
 11
78.0217241662
 21
36.3198966441
 31
0.0
  0
LINE
  5
39
330
2E
100
AcDbEntity
  8
MEGA_001669
  6
CONTINUOUS
 62
     7
 48
25.4
100
AcDbLine
 10
78.0217241662
 20
270.3198966441
 30
0.0
 11
42.0217241662
 21
270.3198966441
 31
0.0
  0
LINE
  5
3A
330
2E
100
AcDbEntity
  8
MEGA_001669
  6
CONTINUOUS
 62
     7
 48
25.4
100
AcDbLine
 10
81.0217241662
 20
39.3198966441
 30
0.0
 11
81.0217241662
 21
267.3198966441
 31
0.0
  0
LINE
  5
3B
330
2E
100
AcDbEntity
  8
MEGA_001669
  6
CONTINUOUS
 62
     7
 48
25.4
100
AcDbLine
 10
39.0217241662
 20
267.3198966441
 30
0.0
 11
39.0217241662
 21
39.3198966441
 31
0.0
  0
LINE
  5
3C
330
2E
100
AcDbEntity
  8
MEGA_001669
  6
CONTINUOUS
 62
     7
 48
25.4
100
AcDbLine
 10
42.0217241662
 20
36.3198966441
 30
0.0
 11
57.0388797788
 21
36.3198966441
 31
0.0
  0
ELLIPSE
  5
3D
330
2E
100
AcDbEntity
  8
MEGA_001669
  6
CONTINUOUS
 62
     7
 48
25.4
100
AcDbEllipse
 10
57.0388797788
 20
36.4080601345
 30
0.0
 11
0.5000000000000004
 21
0.0
 31
0.0
210
0.0
220
0.0
230
1.0
 40
0.1763269807
 41
4.71238898038469
 42
6.248278722139754
  0
ELLIPSE
  5
3E
330
2E
100
AcDbEntity
  8
MEGA_001669
  6
CONTINUOUS
 62
     7
 48
25.4
100
AcDbEllipse
 10
63.0045685536
 20
36.4080601345
 30
0.0
 11
-0.5000000000000004
 21
0.0
 31
0.0
210
0.0
220
0.0
230
1.0
 40
0.1763269807
 41
0.0349065850394244
 42
1.570796326794897
  0
ELLIPSE
  5
3F
330
2E
100
AcDbEntity
  8
MEGA_001669
  6
CONTINUOUS
 62
     7
 48
25.4
100
AcDbEllipse
 10
62.1551918409
 20
36.6549179074
 30
0.0
 11
0.3000000000000004
 21
0.0
 31
0.0
210
0.0
220
0.0
230
1.0
 40
0.1763269807
 41
0.0349065850402547
 42
1.570796326794897
  0
ELLIPSE
  5
40
330
2E
100
AcDbEntity
  8
MEGA_001669
  6
CONTINUOUS
 62
     7
 48
25.4
100
AcDbEllipse
 10
57.8882564916
 20
36.6549179074
 30
0.0
 11
-0.3000000000000004
 21
0.0
 31
0.0
210
0.0
220
0.0
230
1.0
 40
0.1763269807
 41
4.71238898038469
 42
6.248278722139331
  0
CIRCLE
  5
42
330
2E
100
AcDbEntity
  8
MEGA_002298
  6
CONTINUOUS
 62
     7
 48
25.4
100
AcDbCircle
 10
60.0217241662
 20
176.3198966441
 30
0.0
 40
12.00000000000001
  0
CIRCLE
  5
43
330
2E
100
AcDbEntity
  8
MEGA_002298
  6
CONTINUOUS
 62
     7
 48
25.4
100
AcDbCircle
 10
60.0217241662
 20
176.3198966441
 30
0.0
 40
7.999999999999993
  0
LINE
  5
45
330
2E
100
AcDbEntity
  8
MEGA_001062
  6
CONTINUOUS
 62
     7
 48
25.4
100
AcDbLine
 10
65.6626351511
 20
105.6198119394
 30
0.0
 11
64.1128561322
 21
105.9979728258
 31
0.0
  0
ARC
  5
46
330
2E
100
AcDbEntity
  8
MEGA_001062
  6
CONTINUOUS
 62
     7
 48
25.4
100
AcDbCircle
 10
64.42070401
 20
88.7319904462
 30
0.0
 40
1.2408246058
100
AcDbArc
 50
101.7172568873
 51
113.178883787
  0
LINE
  5
47
330
2E
100
AcDbEntity
  8
MEGA_001062
  6
CONTINUOUS
 62
     7
 48
25.4
100
AcDbLine
 10
54.3767432798
 20
90.3443305149
 30
0.0
 11
55.7670173414
 21
90.0050903619
 31
0.0
  0
ARC
  5
48
330
2E
100
AcDbEntity
  8
MEGA_001062
  6
CONTINUOUS
 62
     7
 48
25.4
100
AcDbCircle
 10
130.8738071935
 20
-174.7352649893
 30
0.0
 40
272.9248733956
100
AcDbArc
 50
102.8767157895
 51
103.6062415426
  0
ARC
  5
49
330
2E
100
AcDbEntity
  8
MEGA_001062
  6
CONTINUOUS
 62
     7
 48
25.4
100
AcDbCircle
 10
-14.5694667137
 20
-173.925805627
 30
0.0
 40
273.1074288952
100
AcDbArc
 50
75.6183158437
 51
76.3453472635
  0
ARC
  5
4A
330
2E
100
AcDbEntity
  8
MEGA_001062
  6
CONTINUOUS
 62
     7
 48
25.4
100
AcDbCircle
 10
-261.5661695395
 20
1558.695305782
 30
0.0
 40
1504.3732947718
100
AcDbArc
 50
282.7346142492
 51
282.9407853718
  0
SPLINE
  5
4B
330
2E
100
AcDbEntity
  8
MEGA_001062
  6
CONTINUOUS
 62
     7
 48
25.4
100
AcDbSpline
210
0.0
220
0.0
230
1.0
 70
     8
 71
     3
 72
    83
 73
    79
 74
     0
 42
0.0000000001
 43
0.0000000001
 40
0.0
 40
0.0
 40
0.0
 40
0.0
 40
0.028589372715814
 40
0.028589372715814
 40
0.028589372715814
 40
0.0767832108971779
 40
0.0767832108971779
 40
0.0767832108971779
 40
0.1247782074164081
 40
0.1247782074164081
 40
0.1247782074164081
 40
0.1725715842836669
 40
0.1725715842836669
 40
0.1725715842836669
 40
0.2205924535609774
 40
0.2205924535609774
 40
0.2205924535609774
 40
0.2691906679082242
 40
0.2691906679082242
 40
0.2691906679082242
 40
0.3182448414972652
 40
0.3182448414972652
 40
0.3182448414972652
 40
0.3676485962806708
 40
0.3676485962806708
 40
0.3676485962806708
 40
0.4173530817804038
 40
0.4173530817804038
 40
0.4173530817804038
 40
0.4674377910047137
 40
0.4674377910047137
 40
0.4674377910047137
 40
0.5183155448962099
 40
0.5183155448962099
 40
0.5183155448962099
 40
0.5713555531074892
 40
0.5713555531074892
 40
0.5713555531074892
 40
0.6276582415618479
 40
0.6276582415618479
 40
0.6276582415618479
 40
0.6842996866928014
 40
0.6842996866928014
 40
0.6842996866928014
 40
0.7217253945907776
 40
0.7217253945907776
 40
0.7217253945907776
 40
0.746788452075754
 40
0.746788452075754
 40
0.746788452075754
 40
0.7705097654002223
 40
0.7705097654002223
 40
0.7705097654002223
 40
0.7939869070838614
 40
0.7939869070838614
 40
0.7939869070838614
 40
0.8181559558573063
 40
0.8181559558573063
 40
0.8181559558573063
 40
0.8438508684190417
 40
0.8438508684190417
 40
0.8438508684190417
 40
0.8708901569324865
 40
0.8708901569324865
 40
0.8708901569324865
 40
0.898803804729555
 40
0.898803804729555
 40
0.898803804729555
 40
0.9272600978491739
 40
0.9272600978491739
 40
0.9272600978491739
 40
0.9560528696117213
 40
0.9560528696117213
 40
0.9560528696117213
 40
0.9850492287119785
 40
0.9850492287119785
 40
0.9850492287119785
 40
1.0
 40
1.0
 40
1.0
 40
1.0
 10
75.33687376235557
 20
92.53115160412402
 30
0.0
 10
75.40852060775097
 20
92.54755088389371
 30
0.0
 10
75.46934449526006
 20
92.561477068451
 30
0.0
 10
75.53225488030739
 20
92.57594944252631
 30
0.0
 10
75.63830452844188
 20
92.60034589435544
 30
0.0
 10
75.75028331587571
 20
92.62629443703379
 30
0.0
 10
75.85985130638581
 20
92.65175838255732
 30
0.0
 10
75.96896723326763
 20
92.67711726707218
 30
0.0
 10
76.07569221547166
 20
92.70199554495574
 30
0.0
 10
76.18166715528061
 20
92.72682498456598
 30
0.0
 10
76.28719691054883
 20
92.75155011949165
 30
0.0
 10
76.39198291181305
 20
92.77622682560643
 30
0.0
 10
76.49507853227166
 20
92.80064840333242
 30
0.0
 10
76.59866487911754
 20
92.82518622569185
 30
0.0
 10
76.70054471472146
 20
92.84946648510325
 30
0.0
 10
76.8005049917207
 20
92.87345971574077
 30
0.0
 10
76.90166707064445
 20
92.89774141207307
 30
0.0
 10
77.00086315657653
 20
92.92172913636593
 30
0.0
 10
77.09770031698612
 20
92.94535143427119
 30
0.0
 10
77.19544602514446
 20
92.96919536182249
 30
0.0
 10
77.29078833620683
 20
92.99266697379599
 30
0.0
 10
77.38339323853222
 20
93.01571023012662
 30
0.0
 10
77.47665808332508
 20
93.03891770263866
 30
0.0
 10
77.56714636444865
 20
93.06169069245927
 30
0.0
 10
77.65454934068275
 20
93.08398423245924
 30
0.0
 10
77.74248435663262
 20
93.10641347777724
 30
0.0
 10
77.82729639161161
 20
93.12835741849169
 30
0.0
 10
77.90865587396611
 20
93.14976286354131
 30
0.0
 10
77.99063773084276
 20
93.17133205353187
 30
0.0
 10
78.06911401117006
 20
93.19235447770019
 30
0.0
 10
78.14412447931998
 20
93.212909208857
 30
0.0
 10
78.22032266828668
 20
93.23378940501465
 30
0.0
 10
78.29294442032759
 20
93.25418697993642
 30
0.0
 10
78.36184406135466
 20
93.27414866912234
 30
0.0
 10
78.43367186911567
 20
93.29495871039478
 30
0.0
 10
78.50145447102399
 20
93.31529502922226
 30
0.0
 10
78.56595474898357
 20
93.33548405645628
 30
0.0
 10
78.6344226692884
 20
93.35691498282463
 30
0.0
 10
78.69919203066951
 20
93.37817993939665
 30
0.0
 10
78.76210952488829
 20
93.4001788101881
 30
0.0
 10
78.82540557511966
 20
93.42231004169912
 30
0.0
 10
78.88682740687229
 20
93.44518404548877
 30
0.0
 10
78.95117024879059
 20
93.47181011625474
 30
0.0
 10
78.99368463735169
 20
93.48940323282609
 30
0.0
 10
79.03747430273096
 20
93.50863445531412
 30
0.0
 10
79.08472554896376
 20
93.5315980163369
 30
0.0
 10
79.11636852292693
 20
93.546976136947
 30
0.0
 10
79.14956389295485
 20
93.5640280788251
 30
0.0
 10
79.1846447805102
 20
93.58358891982971
 30
0.0
 10
79.21784762201904
 20
93.60210257637932
 30
0.0
 10
79.25273950352279
 20
93.62286369597616
 30
0.0
 10
79.28888710466927
 20
93.64638113933951
 30
0.0
 10
79.32466262611835
 20
93.6696565095657
 30
0.0
 10
79.3616681491486
 20
93.69563175202097
 30
0.0
 10
79.39889810799249
 20
93.72438035149528
 30
0.0
 10
79.43722529037515
 20
93.75397621594192
 30
0.0
 10
79.47579033243976
 20
93.78651131636688
 30
0.0
 10
79.51349287870774
 20
93.82173586572485
 30
0.0
 10
79.55357569863131
 20
93.85918424543822
 30
0.0
 10
79.59268368120749
 20
93.89967237940203
 30
0.0
 10
79.62988792227584
 20
93.94279149255286
 30
0.0
 10
79.66903871548259
 20
93.98816662812212
 30
0.0
 10
79.70608134557513
 20
94.03645525444293
 30
0.0
 10
79.74030789269693
 20
94.08714499327283
 30
0.0
 10
79.77564121077563
 20
94.1394738670862
 30
0.0
 10
79.80797337599846
 20
94.19436165189008
 30
0.0
 10
79.83688465957492
 20
94.25136735318219
 30
0.0
 10
79.86635798265679
 20
94.30948125349545
 30
0.0
 10
79.89227612641432
 20
94.36979621589967
 30
0.0
 10
79.91402701683464
 20
94.4313944861038
 30
0.0
 10
79.93603509852231
 20
94.49372111900358
 30
0.0
 10
79.95377679366649
 20
94.55736158782491
 30
0.0
 10
79.96804682315104
 20
94.62304044167793
 30
0.0
 10
79.98241775286624
 20
94.68918369621839
 30
0.0
 10
79.99326774858852
 20
94.75739426364328
 30
0.0
 10
79.99662914130713
 20
94.82206001380108
 30
0.0
 10
79.99836230420425
 20
94.85540222885069
 30
0.0
 10
79.99810460552709
 20
94.8878020464356
 30
0.0
 10
79.9975990372633
 20
94.92587698189793
 30
0.0
  0
ARC
  5
4C
330
2E
100
AcDbEntity
  8
MEGA_001062
  6
CONTINUOUS
 62
     7
 48
25.4
100
AcDbCircle
 10
416.3186082009
 20
1618.0324028614
 30
0.0
 40
1569.9259580469
100
AcDbArc
 50
256.3053176165
 51
256.502879947
  0
SPLINE
  5
4D
330
2E
100
AcDbEntity
  8
MEGA_001062
  6
CONTINUOUS
 62
     7
 48
25.4
100
AcDbSpline
210
0.0
220
0.0
230
1.0
 70
     8
 71
     3
 72
    86
 73
    82
 74
     0
 42
0.0000000001
 43
0.0000000001
 40
0.0
 40
0.0
 40
0.0
 40
0.0
 40
0.0246454866910075
 40
0.0246454866910075
 40
0.0246454866910075
 40
0.0531251582059689
 40
0.0531251582059689
 40
0.0531251582059689
 40
0.0806813528519895
 40
0.0806813528519895
 40
0.0806813528519895
 40
0.1073441445030826
 40
0.1073441445030826
 40
0.1073441445030826
 40
0.1331015796372738
 40
0.1331015796372738
 40
0.1331015796372738
 40
0.1578859442333099
 40
0.1578859442333099
 40
0.1578859442333099
 40
0.1815848681992515
 40
0.1815848681992515
 40
0.1815848681992515
 40
0.2041721928063899
 40
0.2041721928063899
 40
0.2041721928063899
 40
0.2260033908989182
 40
0.2260033908989182
 40
0.2260033908989182
 40
0.2480261638696641
 40
0.2480261638696641
 40
0.2480261638696641
 40
0.2713340060650851
 40
0.2713340060650851
 40
0.2713340060650851
 40
0.2978082731381253
 40
0.2978082731381253
 40
0.2978082731381253
 40
0.3305740104267763
 40
0.3305740104267763
 40
0.3305740104267763
 40
0.3764901306774257
 40
0.3764901306774257
 40
0.3764901306774257
 40
0.4354824595370985
 40
0.4354824595370985
 40
0.4354824595370985
 40
0.4876033359968476
 40
0.4876033359968476
 40
0.4876033359968476
 40
0.5372830849257126
 40
0.5372830849257126
 40
0.5372830849257126
 40
0.5895522619767848
 40
0.5895522619767848
 40
0.5895522619767848
 40
0.6405008156848921
 40
0.6405008156848921
 40
0.6405008156848921
 40
0.6906219178017016
 40
0.6906219178017016
 40
0.6906219178017016
 40
0.7399986085532909
 40
0.7399986085532909
 40
0.7399986085532909
 40
0.7885572882010261
 40
0.7885572882010261
 40
0.7885572882010261
 40
0.8361665529566364
 40
0.8361665529566364
 40
0.8361665529566364
 40
0.8839043360885722
 40
0.8839043360885722
 40
0.8839043360885722
 40
0.9319007717844817
 40
0.9319007717844817
 40
0.9319007717844817
 40
0.9803112636314066
 40
0.9803112636314066
 40
0.9803112636314066
 40
1.0
 40
1.0
 40
1.0
 40
1.0
 10
40.00688309292337
 20
95.19719718520508
 30
0.0
 10
40.00740242370738
 20
95.13450707456973
 30
0.0
 10
40.00827794470899
 20
95.08147337909951
 30
0.0
 10
40.01354137168502
 20
95.02642957632716
 30
0.0
 10
40.01962364846047
 20
94.96282241605702
 30
0.0
 10
40.03156531606106
 20
94.8965310587343
 30
0.0
 10
40.04719954275556
 20
94.83221894965932
 30
0.0
 10
40.06232681673789
 20
94.76999221383356
 30
0.0
 10
40.08091106374071
 20
94.70961844978679
 30
0.0
 10
40.10324344063356
 20
94.65058426371155
 30
0.0
 10
40.12485177661089
 20
94.59346403271323
 30
0.0
 10
40.1499691450291
 20
94.537597926491
 30
0.0
 10
40.17815260897817
 20
94.48372145063748
 30
0.0
 10
40.20537908076044
 20
94.43167439381705
 30
0.0
 10
40.23546695979595
 20
94.38148414240621
 30
0.0
 10
40.26803379316457
 20
94.33350680120972
 30
0.0
 10
40.29937030892171
 20
94.28734195947111
 30
0.0
 10
40.33300201590595
 20
94.24322598650048
 30
0.0
 10
40.36836331721465
 20
94.20155795519844
 30
0.0
 10
40.40217595694581
 20
94.16171479110155
 30
0.0
 10
40.43757001194778
 20
94.12410984684732
 30
0.0
 10
40.47381645849563
 20
94.0890644037414
 30
0.0
 10
40.5083627634337
 20
94.05566276911141
 30
0.0
 10
40.54368337230431
 20
94.02458615965797
 30
0.0
 10
40.57891878138583
 20
93.99604090604137
 30
0.0
 10
40.61297466046443
 20
93.96845122478673
 30
0.0
 10
40.64695094852239
 20
93.94322625824339
 30
0.0
 10
40.68005816013506
 20
93.92034209686534
 30
0.0
 10
40.71345589680303
 20
93.89725712056132
 30
0.0
 10
40.74596923732351
 20
93.87655421211957
 30
0.0
 10
40.77715463989942
 20
93.85789507485016
 30
0.0
 10
40.81015976795506
 20
93.83814714267305
 30
0.0
 10
40.84167746128857
 20
93.82068845617805
 30
0.0
 10
40.8718110662275
 20
93.80488908400186
 30
0.0
 10
40.90603839187772
 20
93.78694333016193
 30
0.0
 10
40.93848002130314
 20
93.77113835817274
 30
0.0
 10
40.96981131562826
 20
93.75662809609341
 30
0.0
 10
41.0085883271292
 20
93.73866954660952
 30
0.0
 10
41.04566456674809
 20
93.7226941877945
 30
0.0
 10
41.08230830689397
 20
93.70765846921925
 30
0.0
 10
41.13365884920438
 20
93.6865882318529
 30
0.0
 10
41.18416006230157
 20
93.66736323119866
 30
0.0
 10
41.23615662280567
 20
93.64857406005558
 30
0.0
 10
41.30296100828258
 20
93.62443402041326
 30
0.0
 10
41.37223372145019
 20
93.60101339222399
 30
0.0
 10
41.445474446695
 20
93.57740043452833
 30
0.0
 10
41.51018406006503
 20
93.55653792452587
 30
0.0
 10
41.57799113069886
 20
93.53552528080031
 30
0.0
 10
41.64955512369389
 20
93.51399550842289
 30
0.0
 10
41.71776735353015
 20
93.49347410205263
 30
0.0
 10
41.78939282932436
 20
93.47248287301612
 30
0.0
 10
41.86442019069357
 20
93.45096141571099
 30
0.0
 10
41.94335815877182
 20
93.42831820823646
 30
0.0
 10
42.02606188341493
 20
93.40508805845032
 30
0.0
 10
42.11237352753949
 20
93.38125760781992
 30
0.0
 10
42.19650443765536
 20
93.35802925293987
 30
0.0
 10
42.2840632563589
 20
93.33423054818655
 30
0.0
 10
42.37480604465697
 20
93.30988950528632
 30
0.0
 10
42.4640750862221
 20
93.28594378341518
 30
0.0
 10
42.55642551599311
 20
93.26147319649117
 30
0.0
 10
42.65157708718907
 20
93.23652111851099
 30
0.0
 10
42.74531544303211
 20
93.21193963514367
 30
0.0
 10
42.84177235167163
 20
93.18689085696373
 30
0.0
 10
42.94066291423442
 20
93.1614244611765
 30
0.0
 10
43.03791518194569
 20
93.13637996070489
 30
0.0
 10
43.13752113606
 20
93.11093156513769
 30
0.0
 10
43.23908884297146
 20
93.08515453189165
 30
0.0
 10
43.33867070730644
 20
93.05988148885736
 30
0.0
 10
43.44013836234697
 20
93.03429253350164
 30
0.0
 10
43.54321885759372
 20
93.00841417559046
 30
0.0
 10
43.64657761250164
 20
92.98246596059249
 30
0.0
 10
43.75155792690077
 20
92.9562267784803
 30
0.0
 10
43.8570952702694
 20
92.92998145452857
 30
0.0
 10
43.963204435425
 20
92.9035939283235
 30
0.0
 10
44.06987668208458
 20
92.87720019354325
 30
0.0
 10
44.1790313133376
 20
92.85030095672452
 30
0.0
 10
44.28912760089959
 20
92.82316966528966
 30
0.0
 10
44.40174928792119
 20
92.79552411245543
 30
0.0
 10
44.50757337313154
 20
92.76978304510629
 30
0.0
 10
44.55061244246679
 20
92.7593140523415
 30
0.0
 10
44.5925271335974
 20
92.74916007684756
 30
0.0
 10
44.64170285394427
 20
92.73725075899957
 30
0.0
  0
LINE
  5
4E
330
2E
100
AcDbEntity
  8
MEGA_001062
  6
CONTINUOUS
 62
     7
 48
25.4
100
AcDbLine
 10
80.0014749902
 20
94.9253877412
 30
0.0
 11
80.0410526153
 21
100.7663625654
 31
0.0
  0
LINE
  5
4F
330
2E
100
AcDbEntity
  8
MEGA_001062
  6
CONTINUOUS
 62
     7
 48
25.4
100
AcDbLine
 10
40.0419733423
 20
101.0377616183
 30
0.0
 11
40.0023957171
 21
95.196786794
 31
0.0
  0
ARC
  5
50
330
2E
100
AcDbEntity
  8
MEGA_001062
  6
CONTINUOUS
 62
     7
 48
25.4
100
AcDbCircle
 10
-296.2751598666
 20
-1422.0692534947
 30
0.0
 40
1569.9259580393
100
AcDbArc
 50
76.3053176165
 51
76.502879947
  0
ARC
  5
51
330
2E
100
AcDbEntity
  8
MEGA_001062
  6
CONTINUOUS
 62
     7
 48
25.4
100
AcDbCircle
 10
381.6096178705
 20
-1362.732156416
 30
0.0
 40
1504.3732947651
100
AcDbArc
 50
102.7346142492
 51
102.9407853718
  0
SPLINE
  5
52
330
2E
100
AcDbEntity
  8
MEGA_001062
  6
CONTINUOUS
 62
     7
 48
25.4
100
AcDbSpline
210
0.0
220
0.0
230
1.0
 70
     8
 71
     3
 72
    86
 73
    82
 74
     0
 42
0.0000000001
 43
0.0000000001
 40
0.0
 40
0.0
 40
0.0
 40
0.0
 40
0.0231752161862631
 40
0.0231752161862631
 40
0.0231752161862631
 40
0.0516165021649353
 40
0.0516165021649353
 40
0.0516165021649353
 40
0.0791289497625676
 40
0.0791289497625676
 40
0.0791289497625676
 40
0.105742806560169
 40
0.105742806560169
 40
0.105742806560169
 40
0.1314464618738235
 40
0.1314464618738235
 40
0.1314464618738235
 40
0.1561715691842384
 40
0.1561715691842384
 40
0.1561715691842384
 40
0.1797959938526128
 40
0.1797959938526128
 40
0.1797959938526128
 40
0.2022575174608745
 40
0.2022575174608745
 40
0.2022575174608745
 40
0.2238496121452639
 40
0.2238496121452639
 40
0.2238496121452639
 40
0.245461420742589
 40
0.245461420742589
 40
0.245461420742589
 40
0.2682142764012031
 40
0.2682142764012031
 40
0.2682142764012031
 40
0.2938463693545834
 40
0.2938463693545834
 40
0.2938463693545834
 40
0.3252756015804195
 40
0.3252756015804195
 40
0.3252756015804195
 40
0.368528917438816
 40
0.368528917438816
 40
0.368528917438816
 40
0.4287493143630934
 40
0.4287493143630934
 40
0.4287493143630934
 40
0.4816055640062977
 40
0.4816055640062977
 40
0.4816055640062977
 40
0.5359013988721599
 40
0.5359013988721599
 40
0.5359013988721599
 40
0.5879372693523602
 40
0.5879372693523602
 40
0.5879372693523602
 40
0.6383962074331284
 40
0.6383962074331284
 40
0.6383962074331284
 40
0.6882079985061771
 40
0.6882079985061771
 40
0.6882079985061771
 40
0.7375420358080745
 40
0.7375420358080745
 40
0.7375420358080745
 40
0.78638510766774
 40
0.78638510766774
 40
0.78638510766774
 40
0.8346363813337607
 40
0.8346363813337607
 40
0.8346363813337607
 40
0.8824655796079846
 40
0.8824655796079846
 40
0.8824655796079846
 40
0.9304523675593642
 40
0.9304523675593642
 40
0.9304523675593642
 40
0.9786007765049605
 40
0.9786007765049605
 40
0.9786007765049605
 40
1.0
 40
1.0
 40
1.0
 40
1.0
 10
80.0385538746113
 20
100.7661795098026
 30
0.0
 10
80.03838356718707
 20
100.8252392529547
 30
0.0
 10
80.03784785420922
 20
100.8752402892545
 30
0.0
 10
80.03330214191057
 20
100.9270990107982
 30
0.0
 10
80.02772351418932
 20
100.9907415122557
 30
0.0
 10
80.01610546735138
 20
101.05718185453
 30
0.0
 10
80.00082311157068
 20
101.1216529178487
 30
0.0
 10
79.98603984850374
 20
101.1840184786904
 30
0.0
 10
79.96782770706047
 20
101.2445412860599
 30
0.0
 10
79.94583176094503
 20
101.3037623000258
 30
0.0
 10
79.92455422982145
 20
101.3610490819272
 30
0.0
 10
79.899736025171
 20
101.4171177181154
 30
0.0
 10
79.87182171352309
 20
101.4712280307637
 30
0.0
 10
79.84486207928546
 20
101.5234877553051
 30
0.0
 10
79.81501449214208
 20
101.5739208161809
 30
0.0
 10
79.78264066902618
 20
101.6221749273297
 30
0.0
 10
79.75149932975667
 20
101.668591985984
 30
0.0
 10
79.71802044264651
 20
101.7129928437432
 30
0.0
 10
79.68274795886873
 20
101.7549784159102
 30
0.0
 10
79.64904569317528
 20
101.7950949247838
 30
0.0
 10
79.61370596672832
 20
101.8330064031525
 30
0.0
 10
79.57743563389579
 20
101.868384826983
 30
0.0
 10
79.54295069093384
 20
101.902021764739
 30
0.0
 10
79.50762450398983
 20
101.9333688870374
 30
0.0
 10
79.47231160507462
 20
101.9621982008288
 30
0.0
 10
79.4383655794062
 20
101.9899116045999
 30
0.0
 10
79.40443183298346
 20
102.0152983435431
 30
0.0
 10
79.37132506305194
 20
102.0383451911065
 30
0.0
 10
79.33818806613276
 20
102.0614130807943
 30
0.0
 10
79.30587955647856
 20
102.0821368044385
 30
0.0
 10
79.2748933351013
 20
102.1008111376681
 30
0.0
 10
79.24227112214638
 20
102.12047142693
 30
0.0
 10
79.21111451016846
 20
102.1378602080449
 30
0.0
 10
79.18137586141033
 20
102.1535738995585
 30
0.0
 10
79.14787396517745
 20
102.1712760644016
 30
0.0
 10
79.11617160801909
 20
102.1868523707254
 30
0.0
 10
79.08565028255052
 20
102.2011197106494
 30
0.0
 10
79.04822603367093
 20
102.2186138552177
 30
0.0
 10
79.01257744947071
 20
102.234139987054
 30
0.0
 10
78.97749961796622
 20
102.248706145542
 30
0.0
 10
78.92922505259379
 20
102.2687522812349
 30
0.0
 10
78.88203147115932
 20
102.2869802638503
 30
0.0
 10
78.83388163596311
 20
102.3046913722265
 30
0.0
 10
78.7668439504167
 20
102.3293500592016
 30
0.0
 10
78.69795264118289
 20
102.3530068255868
 30
0.0
 10
78.62463993788271
 20
102.3769723772488
 30
0.0
 10
78.56029239542917
 20
102.3980072632041
 30
0.0
 10
78.49253869578234
 20
102.4192800314147
 30
0.0
 10
78.42096116356224
 20
102.4410211659539
 30
0.0
 10
78.34743415595648
 20
102.4633544389104
 30
0.0
 10
78.26987218858015
 20
102.486181938342
 30
0.0
 10
78.18816058910245
 20
102.5096649338857
 30
0.0
 10
78.10985008485004
 20
102.5321704928778
 30
0.0
 10
78.02772820093649
 20
102.555278115978
 30
0.0
 10
77.94195201697798
 20
102.578992425559
 30
0.0
 10
77.85877525611618
 20
102.6019880796671
 30
0.0
 10
77.77216232425543
 20
102.6255542064964
 30
0.0
 10
77.68238085702245
 20
102.6496596730348
 30
0.0
 10
77.59375085690468
 20
102.6734559816493
 30
0.0
 10
77.50203307456377
 20
102.6977778843855
 30
0.0
 10
77.40753278197441
 20
102.7225759456423
 30
0.0
 10
77.31393885854358
 20
102.7471361642713
 30
0.0
 10
77.21761554400322
 20
102.7721634513803
 30
0.0
 10
77.11888302675499
 20
102.7976035042643
 30
0.0
 10
77.02113308171542
 20
102.8227903812985
 30
0.0
 10
76.92102164745876
 20
102.8483818494131
 30
0.0
 10
76.81893990340653
 20
102.8742981594559
 30
0.0
 10
76.7180950142333
 20
102.8999004592433
 30
0.0
 10
76.61532727181314
 20
102.9258197768711
 30
0.0
 10
76.51090459431808
 20
102.9520306011421
 30
0.0
 10
76.40739534851434
 20
102.9780121476535
 30
0.0
 10
76.30225999391281
 20
103.0042801232366
 30
0.0
 10
76.19652622394953
 20
103.0305687932055
 30
0.0
 10
76.090444077863
 20
103.0569440802026
 30
0.0
 10
75.98375956654955
 20
103.0833401981798
 30
0.0
 10
75.87460460278855
 20
103.1102375164548
 30
0.0
 10
75.76508200171486
 20
103.1372254257341
 30
0.0
 10
75.65307227904837
 20
103.1647179171131
 30
0.0
 10
75.54763751256245
 20
103.1903748660925
 30
0.0
 10
75.50077776825128
 20
103.2017779175627
 30
0.0
 10
75.45521677229624
 20
103.2128183951071
 30
0.0
 10
75.40171653779626
 20
103.2257784163944
 30
0.0
  0
SPLINE
  5
53
330
2E
100
AcDbEntity
  8
MEGA_001062
  6
CONTINUOUS
 62
     7
 48
25.4
100
AcDbSpline
210
0.0
220
0.0
230
1.0
 70
     8
 71
     3
 72
    83
 73
    79
 74
     0
 42
0.0000000001
 43
0.0000000001
 40
0.0
 40
0.0
 40
0.0
 40
0.0
 40
0.0285893727158452
 40
0.0285893727158452
 40
0.0285893727158452
 40
0.0767832108972138
 40
0.0767832108972138
 40
0.0767832108972138
 40
0.1247782074164413
 40
0.1247782074164413
 40
0.1247782074164413
 40
0.1725715842836929
 40
0.1725715842836929
 40
0.1725715842836929
 40
0.2205924535610035
 40
0.2205924535610035
 40
0.2205924535610035
 40
0.2691906679082345
 40
0.2691906679082345
 40
0.2691906679082345
 40
0.3182448414972759
 40
0.3182448414972759
 40
0.3182448414972759
 40
0.3676485962806779
 40
0.3676485962806779
 40
0.3676485962806779
 40
0.4173530817804189
 40
0.4173530817804189
 40
0.4173530817804189
 40
0.4674377910047498
 40
0.4674377910047498
 40
0.4674377910047498
 40
0.518315544896211
 40
0.518315544896211
 40
0.518315544896211
 40
0.5713555531075971
 40
0.5713555531075971
 40
0.5713555531075971
 40
0.6276582415619882
 40
0.6276582415619882
 40
0.6276582415619882
 40
0.6842996866927281
 40
0.6842996866927281
 40
0.6842996866927281
 40
0.7217253945906339
 40
0.7217253945906339
 40
0.7217253945906339
 40
0.7467884520756044
 40
0.7467884520756044
 40
0.7467884520756044
 40
0.7705097654001232
 40
0.7705097654001232
 40
0.7705097654001232
 40
0.7939869070837764
 40
0.7939869070837764
 40
0.7939869070837764
 40
0.8181559558571587
 40
0.8181559558571587
 40
0.8181559558571587
 40
0.8438508684188691
 40
0.8438508684188691
 40
0.8438508684188691
 40
0.8708901569322747
 40
0.8708901569322747
 40
0.8708901569322747
 40
0.8988038047292911
 40
0.8988038047292911
 40
0.8988038047292911
 40
0.9272600978488682
 40
0.9272600978488682
 40
0.9272600978488682
 40
0.956052869611408
 40
0.956052869611408
 40
0.956052869611408
 40
0.9850492287116318
 40
0.9850492287116318
 40
0.9850492287116318
 40
1.0
 40
1.0
 40
1.0
 40
1.0
 10
44.70657457011402
 20
103.4319977553148
 30
0.0
 10
44.63492772471854
 20
103.4155984755451
 30
0.0
 10
44.57410383720939
 20
103.4016722909878
 30
0.0
 10
44.511193452162
 20
103.3871999169124
 30
0.0
 10
44.40514380402749
 20
103.3628034650833
 30
0.0
 10
44.29316501659364
 20
103.336854922405
 30
0.0
 10
44.18359702608353
 20
103.3113909768814
 30
0.0
 10
44.0744810992017
 20
103.2860320923666
 30
0.0
 10
43.96775611699768
 20
103.2611538144831
 30
0.0
 10
43.86178117718875
 20
103.2363243748728
 30
0.0
 10
43.75625142192055
 20
103.2115992399471
 30
0.0
 10
43.65146542065639
 20
103.1869225338323
 30
0.0
 10
43.54836980019778
 20
103.1625009561063
 30
0.0
 10
43.4447834533519
 20
103.1379631337469
 30
0.0
 10
43.34290361774799
 20
103.1136828743355
 30
0.0
 10
43.24294334074875
 20
103.089689643698
 30
0.0
 10
43.14178126182502
 20
103.0654079473657
 30
0.0
 10
43.04258517589297
 20
103.0414202230729
 30
0.0
 10
42.94574801548341
 20
103.0177979251676
 30
0.0
 10
42.84800230732509
 20
102.9939539976163
 30
0.0
 10
42.75265999626271
 20
102.9704823856428
 30
0.0
 10
42.66005509393732
 20
102.9474391293121
 30
0.0
 10
42.56679024914445
 20
102.9242316568001
 30
0.0
 10
42.47630196802088
 20
102.9014586669795
 30
0.0
 10
42.38889899178679
 20
102.8791651269795
 30
0.0
 10
42.30096397583691
 20
102.8567358816615
 30
0.0
 10
42.2161519408579
 20
102.8347919409471
 30
0.0
 10
42.13479245850338
 20
102.8133864958975
 30
0.0
 10
42.0528106016267
 20
102.7918173059069
 30
0.0
 10
41.97433432129937
 20
102.7707948817386
 30
0.0
 10
41.89932385314943
 20
102.7502401505817
 30
0.0
 10
41.82312566418278
 20
102.7293599544241
 30
0.0
 10
41.75050391214195
 20
102.7089623795024
 30
0.0
 10
41.68160427111494
 20
102.6890006903165
 30
0.0
 10
41.6097764633538
 20
102.668190649044
 30
0.0
 10
41.54199386144533
 20
102.6478543302165
 30
0.0
 10
41.47749358348563
 20
102.6276653029824
 30
0.0
 10
41.40902566318076
 20
102.606234376614
 30
0.0
 10
41.3442563017996
 20
102.584969420042
 30
0.0
 10
41.28133880758081
 20
102.5629705492505
 30
0.0
 10
41.21804275734968
 20
102.5408393177396
 30
0.0
 10
41.15662092559732
 20
102.51796531395
 30
0.0
 10
41.09227808367925
 20
102.4913392431841
 30
0.0
 10
41.04976369511822
 20
102.4737461266128
 30
0.0
 10
41.00597402973901
 20
102.4545149041249
 30
0.0
 10
40.95872278350633
 20
102.4315513431021
 30
0.0
 10
40.92707980954317
 20
102.4161732224921
 30
0.0
 10
40.8938844395153
 20
102.399121280614
 30
0.0
 10
40.85880355195999
 20
102.3795604396094
 30
0.0
 10
40.82560071045109
 20
102.3610467830598
 30
0.0
 10
40.79070882894728
 20
102.3402856634629
 30
0.0
 10
40.75456122780072
 20
102.3167682200996
 30
0.0
 10
40.71878570635164
 20
102.2934928498734
 30
0.0
 10
40.6817801833214
 20
102.2675176074181
 30
0.0
 10
40.64455022447746
 20
102.2387690079438
 30
0.0
 10
40.60622304209493
 20
102.2091731434973
 30
0.0
 10
40.56765800003041
 20
102.1766380430724
 30
0.0
 10
40.52995545376253
 20
102.1414134937146
 30
0.0
 10
40.48987263383899
 20
102.1039651140013
 30
0.0
 10
40.45076465126282
 20
102.0634769800375
 30
0.0
 10
40.41356041019449
 20
102.0203578668868
 30
0.0
 10
40.37440961698774
 20
101.9749827313176
 30
0.0
 10
40.33736698689524
 20
101.9266941049969
 30
0.0
 10
40.30314043977347
 20
101.8760043661671
 30
0.0
 10
40.26780712169476
 20
101.8236754923539
 30
0.0
 10
40.23547495647195
 20
101.7687877075502
 30
0.0
 10
40.20656367289546
 20
101.7117820062582
 30
0.0
 10
40.1770903498136
 20
101.6536681059451
 30
0.0
 10
40.151172206056
 20
101.593353143541
 30
0.0
 10
40.12942131563563
 20
101.531754873337
 30
0.0
 10
40.1074132339479
 20
101.4694282404372
 30
0.0
 10
40.08967153880359
 20
101.4057877716159
 30
0.0
 10
40.07540150931897
 20
101.340108917763
 30
0.0
 10
40.06103057960371
 20
101.2739656632226
 30
0.0
 10
40.05018058388136
 20
101.2057550957979
 30
0.0
 10
40.04681919116265
 20
101.1410893456401
 30
0.0
 10
40.04508602826539
 20
101.1077471305897
 30
0.0
 10
40.04534372694253
 20
101.075347313004
 30
0.0
 10
40.0458492952063
 20
101.0372723775408
 30
0.0
  0
ARC
  5
54
330
2E
100
AcDbEntity
  8
MEGA_001062
  6
CONTINUOUS
 62
     7
 48
25.4
100
AcDbCircle
 10
153.5185930186
 20
445.517911828
 30
0.0
 40
351.0616880255001
100
AcDbArc
 50
255.7066779552
 51
256.2608596496
  0
ARC
  5
55
330
2E
100
AcDbEntity
  8
MEGA_001062
  6
CONTINUOUS
 62
     7
 48
25.4
100
AcDbCircle
 10
-25.7862830702
 20
433.9752260263
 30
0.0
 40
337.9431874255
100
AcDbArc
 50
282.9578113121
 51
283.5089617449
  0
LINE
  5
56
330
2E
100
AcDbEntity
  8
MEGA_001062
  6
CONTINUOUS
 62
     7
 48
25.4
100
AcDbLine
 10
64.1128561322
 20
105.9979728258
 30
0.0
 11
60.0849831625
 21
106.9808123108
 31
0.0
  0
LINE
  5
57
330
2E
100
AcDbEntity
  8
MEGA_001062
  6
CONTINUOUS
 62
     7
 48
25.4
100
AcDbLine
 10
59.9584663889
 20
88.9823367512
 30
0.0
 11
55.7670173414
 21
90.0050903619
 31
0.0
  0
LINE
  5
58
330
2E
100
AcDbEntity
  8
MEGA_001062
  6
CONTINUOUS
 62
     7
 48
25.4
100
AcDbLine
 10
60.0804205203
 20
106.9808432266
 30
0.0
 11
56.0395988379
 21
106.0526760835
 31
0.0
  0
LINE
  5
59
330
2E
100
AcDbEntity
  8
MEGA_001062
  6
CONTINUOUS
 62
     7
 48
25.4
100
AcDbLine
 10
59.9630278122
 20
88.9823061328
 30
0.0
 11
64.16795021
 21
89.9481668206
 31
0.0
  0
ARC
  5
5A
330
2E
100
AcDbEntity
  8
MEGA_001062
  6
CONTINUOUS
 62
     7
 48
25.4
100
AcDbCircle
 10
55.4886465716
 20
88.7550511532
 30
0.0
 40
1.278814199599999
100
AcDbArc
 50
64.6305677762
 51
67.9639894717
  0
LINE
  5
5B
330
2E
100
AcDbEntity
  8
MEGA_001062
  6
CONTINUOUS
 62
     7
 48
25.4
100
AcDbLine
 10
59.9630278122
 20
88.9823061328
 30
0.0
 11
59.9584663889
 21
88.9823367512
 31
0.0
  0
LINE
  5
5C
330
2E
100
AcDbEntity
  8
MEGA_001062
  6
CONTINUOUS
 62
     7
 48
25.4
100
AcDbLine
 10
60.0849831625
 20
106.9808123108
 30
0.0
 11
60.0804205203
 21
106.9808432266
 31
0.0
  0
ARC
  5
5D
330
2E
100
AcDbEntity
  8
MEGA_001062
  6
CONTINUOUS
 62
     7
 48
25.4
100
AcDbCircle
 10
55.4114357452
 20
88.5478457947
 30
0.0
 40
1.5
100
AcDbArc
 50
63.9551170207
 51
76.2872465238
  0
ARC
  5
5E
330
2E
100
AcDbEntity
  8
MEGA_001062
  6
CONTINUOUS
 62
     7
 48
25.4
100
AcDbCircle
 10
64.5037518941
 20
88.4862375374
 30
0.0
 40
1.5
100
AcDbArc
 50
102.9363090476
 51
115.2684385507
  0
LINE
  5
5F
330
2E
100
AcDbEntity
  8
MEGA_001062
  6
CONTINUOUS
 62
     7
 48
25.4
100
AcDbLine
 10
75.3291209457
 20
92.529957911
 30
0.0
 11
75.3292088264
 21
92.5295733563
 31
0.0
  0
LINE
  5
60
330
2E
100
AcDbEntity
  8
MEGA_001062
  6
CONTINUOUS
 62
     7
 48
25.4
100
AcDbLine
 10
44.6418575295
 20
92.7378904983
 30
0.0
 11
44.6417644457
 21
92.7375071699
 31
0.0
  0
LINE
  5
61
330
2E
100
AcDbEntity
  8
MEGA_001062
  6
CONTINUOUS
 62
     7
 48
25.4
100
AcDbLine
 10
44.7143273867
 20
103.4331914485
 30
0.0
 11
44.714239506
 21
103.4335760031
 31
0.0
  0
LINE
  5
62
330
2E
100
AcDbEntity
  8
MEGA_001062
  6
CONTINUOUS
 62
     7
 48
25.4
100
AcDbLine
 10
75.401590803
 20
103.2252588611
 30
0.0
 11
75.4016838867
 21
103.2256421896
 31
0.0
  0
LINE
  5
63
330
2E
100
AcDbEntity
  8
MEGA_001062
  6
CONTINUOUS
 62
     7
 48
25.4
100
AcDbLine
 10
56.0395988379
 20
106.0526760835
 30
0.0
 11
54.4893404303
 21
105.6965854092
 31
0.0
  0
LINE
  5
64
330
2E
100
AcDbEntity
  8
MEGA_001062
  6
CONTINUOUS
 62
     7
 48
25.4
100
AcDbLine
 10
64.16795021
 20
89.9481668206
 30
0.0
 11
65.5582121019
 21
90.2675066751
 31
0.0
  0
LINE
  5
67
330
2E
100
AcDbEntity
  8
STANDARD
  6
CENTER2
 62
     7
 48
25.4
100
AcDbLine
 10
48.0217238099
 20
176.3198966441
 30
0.0
 11
72.0217241662
 21
176.3198966441
 31
0.0
  0
LINE
  5
68
330
2E
100
AcDbEntity
  8
STANDARD
  6
CENTER2
 62
     7
 48
25.4
100
AcDbLine
 10
60.0217241662
 20
270.3198966441
 30
0.0
 11
60.0217241662
 21
36.7078160017
 31
0.0
  0
LINE
  5
69
330
2E
100
AcDbEntity
  8
STANDARD
  6
CENTER2
 62
     7
 48
25.4
100
AcDbLine
 10
40.0221845297
 20
98.1172742061
 30
0.0
 11
80.0231027646
 21
98.1172742061
 31
0.0
  0
ENDBLK
  5
6B
330
2E
100
AcDbEntity
  8
0
100
AcDbBlockEnd
  0
BLOCK
  5
92
330
6C
100
AcDbEntity
  8
0
100
AcDbBlockBegin
  2
SE1
 70
     0
 71
     0
 10
0.0
 20
0.0
 30
0.0
  3
SE1
  1

  0
ARC
  5
6E
330
6C
100
AcDbEntity
  8
MEGA_001669
  6
CONTINUOUS
 62
     7
 48
25.4
100
AcDbCircle
 10
145.7972938314
 20
38.5148965577
 30
0.0
 40
1.25
100
AcDbArc
 50
280.0
 51
360.0
  0
ARC
  5
6F
330
6C
100
AcDbEntity
  8
MEGA_001669
  6
CONTINUOUS
 62
     7
 48
25.4
100
AcDbCircle
 10
145.7972938314
 20
268.1248967305
 30
0.0
 40
1.25
100
AcDbArc
 50
0.0
 51
80.0
  0
LINE
  5
70
330
6C
100
AcDbEntity
  8
MEGA_001669
  6
CONTINUOUS
 62
     7
 48
25.4
100
AcDbLine
 10
140.5472938314
 20
267.3198966441
 30
0.0
 11
140.5472938314
 21
270.3198966441
 31
0.0
  0
LINE
  5
71
330
6C
100
AcDbEntity
  8
MEGA_001669
  6
CONTINUOUS
 62
     7
 48
25.4
100
AcDbLine
 10
140.5472938314
 20
270.3198966441
 30
0.0
 11
146.0143540535
 21
269.3559064218
 31
0.0
  0
LINE
  5
72
330
6C
100
AcDbEntity
  8
MEGA_001669
  6
CONTINUOUS
 62
     7
 48
25.4
100
AcDbLine
 10
140.5472938314
 20
36.3198966441
 30
0.0
 11
140.5472938314
 21
39.3198966441
 31
0.0
  0
LINE
  5
73
330
6C
100
AcDbEntity
  8
MEGA_001669
  6
CONTINUOUS
 62
     7
 48
25.4
100
AcDbLine
 10
146.0143540535
 20
37.2838868664
 30
0.0
 11
140.5472938314
 21
36.3198966441
 31
0.0
  0
LINE
  5
74
330
6C
100
AcDbEntity
  8
MEGA_001669
  6
CONTINUOUS
 62
     7
 48
25.4
100
AcDbLine
 10
140.5472938314
 20
267.3198966441
 30
0.0
 11
140.5472938314
 21
39.3198966441
 31
0.0
  0
LINE
  5
75
330
6C
100
AcDbEntity
  8
MEGA_001669
  6
CONTINUOUS
 62
     7
 48
25.4
100
AcDbLine
 10
147.0472938314
 20
268.1248967305
 30
0.0
 11
147.0472938314
 21
267.3198966441
 31
0.0
  0
LINE
  5
76
330
6C
100
AcDbEntity
  8
MEGA_001669
  6
CONTINUOUS
 62
     7
 48
25.4
100
AcDbLine
 10
147.0472938314
 20
267.3198966441
 30
0.0
 11
147.0472938314
 21
39.3198966441
 31
0.0
  0
LINE
  5
77
330
6C
100
AcDbEntity
  8
MEGA_001669
  6
CONTINUOUS
 62
     7
 48
25.4
100
AcDbLine
 10
147.0472938314
 20
39.3198966441
 30
0.0
 11
147.0472938314
 21
38.5148965577
 31
0.0
  0
LINE
  5
78
330
6C
100
AcDbEntity
  8
MEGA_002298
  6
CONTINUOUS
 62
     7
 48
25.4
100
AcDbLine
 10
148.5472938314
 20
166.6721635873
 30
0.0
 11
148.5472938314
 21
185.9676297009
 31
0.0
  0
LINE
  5
79
330
6C
100
AcDbEntity
  8
MEGA_002298
  6
CONTINUOUS
 62
     7
 48
25.4
100
AcDbLine
 10
147.5830827575
 20
164.3198966441
 30
0.0
 11
147.5830827575
 21
188.3198966441
 31
0.0
  0
ARC
  5
7A
330
6C
100
AcDbEntity
  8
MEGA_002298
  6
CONTINUOUS
 62
     7
 48
25.4
100
AcDbCircle
 10
145.1959203916
 20
185.9676297009
 30
0.0
 40
3.3513734398
100
AcDbArc
 50
0.0
 51
44.5781508306
  0
LINE
  5
7B
330
6C
100
AcDbEntity
  8
MEGA_002298
  6
CONTINUOUS
 62
     7
 48
25.4
100
AcDbLine
 10
147.5830827575
 20
188.3198966441
 30
0.0
 11
147.0472938314
 21
188.3198966441
 31
0.0
  0
ARC
  5
7C
330
6C
100
AcDbEntity
  8
MEGA_002298
  6
CONTINUOUS
 62
     7
 48
25.4
100
AcDbCircle
 10
145.1959203916
 20
166.6721635873
 30
0.0
 40
3.3513734398
100
AcDbArc
 50
315.4218491694
 51
360.0
  0
LINE
  5
7D
330
6C
100
AcDbEntity
  8
MEGA_002298
  6
CONTINUOUS
 62
     7
 48
25.4
100
AcDbLine
 10
147.0472938314
 20
164.3198966441
 30
0.0
 11
147.5830827575
 21
164.3198966441
 31
0.0
  0
LINE
  5
7E
330
6C
100
AcDbEntity
  8
MEGA_001062
  6
CONTINUOUS
 62
     7
 48
25.4
100
AcDbLine
 10
173.876667293
 20
102.7604471124
 30
0.0
 11
156.0495727038
 21
106.980828582
 31
0.0
  0
LINE
  5
7F
330
6C
100
AcDbEntity
  8
MEGA_001062
  6
CONTINUOUS
 62
     7
 48
25.4
100
AcDbLine
 10
156.0472938314
 20
106.9815746797
 30
0.0
 11
147.0472938314
 21
106.9815746797
 31
0.0
  0
LINE
  5
80
330
6C
100
AcDbEntity
  8
MEGA_001062
  6
CONTINUOUS
 62
     7
 48
25.4
100
AcDbLine
 10
156.0495559483
 20
88.9823168108
 30
0.0
 11
173.876667293
 21
93.2027022471
 31
0.0
  0
ARC
  5
81
330
6C
100
AcDbEntity
  8
MEGA_001062
  6
CONTINUOUS
 62
     7
 48
25.4
100
AcDbCircle
 10
173.5444241399
 20
94.6667531825
 30
0.0
 40
1.50047783170001
100
AcDbArc
 50
282.7310881867
 51
0.0417410281
  0
ARC
  5
82
330
6C
100
AcDbEntity
  8
MEGA_001062
  6
CONTINUOUS
 62
     7
 48
25.4
100
AcDbCircle
 10
173.5465936624
 20
101.3002321554
 30
0.0
 40
1.496081438400012
100
AcDbArc
 50
359.7998373309
 51
77.2612477754
  0
LINE
  5
83
330
6C
100
AcDbEntity
  8
MEGA_001062
  6
CONTINUOUS
 62
     7
 48
25.4
100
AcDbLine
 10
175.0472938314
 20
94.667963267
 30
0.0
 11
175.0472938314
 21
101.2951860924
 31
0.0
  0
LINE
  5
84
330
6C
100
AcDbEntity
  8
MEGA_001062
  6
CONTINUOUS
 62
     7
 48
25.4
100
AcDbLine
 10
156.0472938314
 20
106.0526760835
 30
0.0
 11
156.0472938314
 21
106.9815746797
 31
0.0
  0
LINE
  5
85
330
6C
100
AcDbEntity
  8
MEGA_001062
  6
CONTINUOUS
 62
     7
 48
25.4
100
AcDbLine
 10
156.0472938314
 20
89.8955213497
 30
0.0
 11
156.0472938314
 21
88.9815746797
 31
0.0
  0
LINE
  5
86
330
6C
100
AcDbEntity
  8
MEGA_001062
  6
CONTINUOUS
 62
     7
 48
25.4
100
AcDbLine
 10
156.0472938314
 20
106.9808123108
 30
0.0
 11
156.0495731126
 21
106.980828485
 31
0.0
  0
LINE
  5
87
330
6C
100
AcDbEntity
  8
MEGA_001062
  6
CONTINUOUS
 62
     7
 48
25.4
100
AcDbLine
 10
156.0472938314
 20
88.9823061328
 30
0.0
 11
156.0495731126
 21
88.9823217291
 31
0.0
  0
LINE
  5
88
330
6C
100
AcDbEntity
  8
MEGA_001062
  6
CONTINUOUS
 62
     7
 48
25.4
100
AcDbLine
 10
156.0472938314
 20
101.97127379
 30
0.0
 11
156.0472938314
 21
94.1951466901
 31
0.0
  0
SPLINE
  5
89
330
6C
100
AcDbEntity
  8
MEGA_001062
  6
CONTINUOUS
 62
     7
 48
25.4
100
AcDbSpline
210
0.0
220
0.0
230
1.0
 70
     8
 71
     3
 72
     8
 73
     4
 74
     0
 42
0.0000000001
 43
0.0000000001
 40
0.0
 40
0.0
 40
0.0
 40
0.0
 40
1.0
 40
1.0
 40
1.0
 40
1.0
 10
173.8856559434092
 20
93.2048676934098
 30
0.0
 10
173.8860003620214
 20
93.2049414358995
 30
0.0
 10
173.8863326809469
 20
93.20501565882123
 30
0.0
 10
173.8866528947918
 20
93.20509036224092
 30
0.0
  0
LINE
  5
8A
330
6C
100
AcDbEntity
  8
MEGA_001062
  6
CONTINUOUS
 62
     7
 48
25.4
100
AcDbLine
 10
156.0472938314
 20
92.9214199665
 30
0.0
 11
156.0472938314
 21
94.1951466901
 31
0.0
  0
SPLINE
  5
8B
330
6C
100
AcDbEntity
  8
MEGA_001062
  6
CONTINUOUS
 62
     7
 48
25.4
100
AcDbSpline
210
0.0
220
0.0
230
1.0
 70
     8
 71
     3
 72
    11
 73
     7
 74
     0
 42
0.0000000001
 43
0.0000000001
 40
0.0
 40
0.0
 40
0.0
 40
0.0
 40
0.7240143540670931
 40
0.7240143540670931
 40
0.7240143540670931
 40
1.0
 40
1.0
 40
1.0
 40
1.0
 10
175.0472852180222
 20
101.2951334350531
 30
0.0
 10
175.0472893750683
 20
101.2951651919084
 30
0.0
 10
175.0472920256609
 20
101.2951968912176
 30
0.0
 10
175.0472931695737
 20
101.2952285329605
 30
0.0
 10
175.0472936056196
 20
101.2952405944159
 30
0.0
 10
175.0472938299695
 20
101.2952526476929
 30
0.0
 10
175.0472938426184
 20
101.2952646927913
 30
0.0
  0
SPLINE
  5
8C
330
6C
100
AcDbEntity
  8
MEGA_001062
  6
CONTINUOUS
 62
     7
 48
25.4
100
AcDbSpline
210
0.0
220
0.0
230
1.0
 70
     8
 71
     3
 72
     8
 73
     4
 74
     0
 42
0.0000000001
 43
0.0000000001
 40
0.0
 40
0.0
 40
0.0
 40
0.0
 40
1.0
 40
1.0
 40
1.0
 40
1.0
 10
175.0472938426184
 20
94.66788466664744
 30
0.0
 10
175.0472938889787
 20
94.66784051944828
 30
0.0
 10
175.0472910914771
 20
94.66779648211426
 30
0.0
 10
175.0472854498665
 20
94.66775255464762
 30
0.0
  0
LINE
  5
8D
330
6C
100
AcDbEntity
  8
MEGA_001062
  6
CONTINUOUS
 62
     7
 48
25.4
100
AcDbLine
 10
156.0472938314
 20
101.97127379
 30
0.0
 11
156.0472938314
 21
103.1736187102
 31
0.0
  0
LINE
  5
8E
330
6C
100
AcDbEntity
  8
MEGA_001062
  6
CONTINUOUS
 62
     7
 48
25.4
100
AcDbLine
 10
156.0472938314
 20
89.8955213497
 30
0.0
 11
156.0472938314
 21
90.0050903619
 31
0.0
  0
LINE
  5
8F
330
6C
100
AcDbEntity
  8
MEGA_001062
  6
CONTINUOUS
 62
     7
 48
25.4
100
AcDbLine
 10
147.0472938314
 20
88.9815746797
 30
0.0
 11
156.0472938314
 21
88.9815746797
 31
0.0
  0
LINE
  5
90
330
6C
100
AcDbEntity
  8
STANDARD
  6
CENTER2
 62
     7
 48
25.4
100
AcDbLine
 10
140.5672685038
 20
176.3394444816
 30
0.0
 11
148.5472938314
 21
176.3198966441
 31
0.0
  0
LINE
  5
91
330
6C
100
AcDbEntity
  8
STANDARD
  6
CENTER2
 62
     7
 48
25.4
100
AcDbLine
 10
175.0472938314
 20
97.9815746797
 30
0.0
 11
140.5472938314
 21
97.9815746797
 31
0.0
  0
ENDBLK
  5
93
330
6C
100
AcDbEntity
  8
0
100
AcDbBlockEnd
  0
BLOCK
  5
9D
330
94
100
AcDbEntity
  8
0
100
AcDbBlockBegin
  2
SE2
 70
     0
 71
     0
 10
0.0
 20
0.0
 30
0.0
  3
SE2
  1

  0
POLYLINE
  5
97
330
94
100
AcDbEntity
  8
DEFAULT
  6
CONTINUOUS
 62
     7
 48
25.4
100
AcDb2dPolyline
 66
     1
 10
0.0
 20
0.0
 30
0.0
 70
     1
  0
VERTEX
  5
DD
330
97
100
AcDbEntity
  8
DEFAULT
  6
CONTINUOUS
 62
     7
100
AcDbVertex
100
AcDb2dVertex
 10
150.0472938575
 20
287.3297616195
 30
0.0
  0
VERTEX
  5
DE
330
97
100
AcDbEntity
  8
DEFAULT
  6
CONTINUOUS
 62
     7
100
AcDbVertex
100
AcDb2dVertex
 10
147.0472938314
 20
286.8297616151
 30
0.0
  0
VERTEX
  5
DF
330
97
100
AcDbEntity
  8
DEFAULT
  6
CONTINUOUS
 62
     7
100
AcDbVertex
100
AcDb2dVertex
 10
150.0472938575
 20
286.3297616108
 30
0.0
  0
VERTEX
  5
E0
330
97
100
AcDbEntity
  8
DEFAULT
  6
CONTINUOUS
 62
     7
100
AcDbVertex
100
AcDb2dVertex
 10
150.0472938575
 20
287.3297616195
 30
0.0
  0
SEQEND
  5
DC
330
97
100
AcDbEntity
  8
DEFAULT
  6
CONTINUOUS
 62
     7
 48
25.4
  0
LINE
  5
98
330
94
100
AcDbEntity
  8
DEFAULT
  6
CONTINUOUS
 62
     7
 48
25.4
100
AcDbLine
 10
140.5472938314
 20
267.3198966441
 30
0.0
 11
140.5472938314
 21
288.3297616282
 31
0.0
  0
LINE
  5
99
330
94
100
AcDbEntity
  8
DEFAULT
  6
CONTINUOUS
 62
     7
 48
25.4
100
AcDbLine
 10
147.0472938314
 20
267.3198966441
 30
0.0
 11
147.0472938314
 21
288.3297616282
 31
0.0
  0
LINE
  5
9A
330
94
100
AcDbEntity
  8
DEFAULT
  6
CONTINUOUS
 62
     7
 48
25.4
100
AcDbLine
 10
134.5472937793
 20
286.8297616151
 30
0.0
 11
153.0472940177
 21
286.8297616151
 31
0.0
  0
TEXT
  5
9C
330
94
100
AcDbEntity
  8
DEFAULT
  6
CONTINUOUS
 62
     7
 48
25.4
100
AcDbText
 10
141.751839353
 20
287.5797616151
 30
0.0
 40
3.0
  1
6,5
  7
SEACAD_SEISO_TTF
 11
141.751839353
 21
290.5797616151
 31
0.0
100
AcDbText
 73
     3
  0
ENDBLK
  5
9E
330
94
100
AcDbEntity
  8
0
100
AcDbBlockEnd
  0
BLOCK
  5
A7
330
9F
100
AcDbEntity
  8
0
100
AcDbBlockBegin
  2
SE3
 70
     0
 71
     0
 10
0.0
 20
0.0
 30
0.0
  3
SE3
  1

  0
POLYLINE
  5
A1
330
9F
100
AcDbEntity
  8
DEFAULT
  6
CONTINUOUS
 62
     7
 48
25.4
100
AcDb2dPolyline
 66
     1
 10
0.0
 20
0.0
 30
0.0
 70
     1
  0
VERTEX
  5
E2
330
A1
100
AcDbEntity
  8
DEFAULT
  6
CONTINUOUS
 62
     7
100
AcDbVertex
100
AcDb2dVertex
 10
78.0217241402
 20
286.8661157142
 30
0.0
  0
VERTEX
  5
E3
330
A1
100
AcDbEntity
  8
DEFAULT
  6
CONTINUOUS
 62
     7
100
AcDbVertex
100
AcDb2dVertex
 10
81.0217241662
 20
286.3661157099
 30
0.0
  0
VERTEX
  5
E4
330
A1
100
AcDbEntity
  8
DEFAULT
  6
CONTINUOUS
 62
     7
100
AcDbVertex
100
AcDb2dVertex
 10
78.0217241402
 20
285.8661157055
 30
0.0
  0
VERTEX
  5
E5
330
A1
100
AcDbEntity
  8
DEFAULT
  6
CONTINUOUS
 62
     7
100
AcDbVertex
100
AcDb2dVertex
 10
78.0217241402
 20
286.8661157142
 30
0.0
  0
SEQEND
  5
E1
330
A1
100
AcDbEntity
  8
DEFAULT
  6
CONTINUOUS
 62
     7
 48
25.4
  0
POLYLINE
  5
A2
330
9F
100
AcDbEntity
  8
DEFAULT
  6
CONTINUOUS
 62
     7
 48
25.4
100
AcDb2dPolyline
 66
     1
 10
0.0
 20
0.0
 30
0.0
 70
     1
  0
VERTEX
  5
E7
330
A2
100
AcDbEntity
  8
DEFAULT
  6
CONTINUOUS
 62
     7
100
AcDbVertex
100
AcDb2dVertex
 10
42.0217241923
 20
286.8661157142
 30
0.0
  0
VERTEX
  5
E8
330
A2
100
AcDbEntity
  8
DEFAULT
  6
CONTINUOUS
 62
     7
100
AcDbVertex
100
AcDb2dVertex
 10
39.0217241662
 20
286.3661157099
 30
0.0
  0
VERTEX
  5
E9
330
A2
100
AcDbEntity
  8
DEFAULT
  6
CONTINUOUS
 62
     7
100
AcDbVertex
100
AcDb2dVertex
 10
42.0217241923
 20
285.8661157055
 30
0.0
  0
VERTEX
  5
EA
330
A2
100
AcDbEntity
  8
DEFAULT
  6
CONTINUOUS
 62
     7
100
AcDbVertex
100
AcDb2dVertex
 10
42.0217241923
 20
286.8661157142
 30
0.0
  0
SEQEND
  5
E6
330
A2
100
AcDbEntity
  8
DEFAULT
  6
CONTINUOUS
 62
     7
 48
25.4
  0
LINE
  5
A3
330
9F
100
AcDbEntity
  8
DEFAULT
  6
CONTINUOUS
 62
     7
 48
25.4
100
AcDbLine
 10
81.0217241662
 20
267.3198966441
 30
0.0
 11
81.0217241662
 21
287.8661157229
 31
0.0
  0
LINE
  5
A4
330
9F
100
AcDbEntity
  8
DEFAULT
  6
CONTINUOUS
 62
     7
 48
25.4
100
AcDbLine
 10
39.0217241662
 20
267.3198966441
 30
0.0
 11
39.0217241662
 21
287.8661157229
 31
0.0
  0
LINE
  5
A5
330
9F
100
AcDbEntity
  8
DEFAULT
  6
CONTINUOUS
 62
     7
 48
25.4
100
AcDbLine
 10
81.0217241662
 20
286.3661157099
 30
0.0
 11
39.0217247325
 21
286.3661157099
 31
0.0
  0
TEXT
  5
A6
330
9F
100
AcDbEntity
  8
DEFAULT
  6
CONTINUOUS
 62
     7
 48
25.4
100
AcDbText
 10
58.2149062675
 20
287.1161157099
 30
0.0
 40
3.0
  1
42
  7
SEACAD_SEISO_TTF
 11
58.2149062675
 21
290.1161157099
 31
0.0
100
AcDbText
 73
     3
  0
ENDBLK
  5
A8
330
9F
100
AcDbEntity
  8
0
100
AcDbBlockEnd
  0
BLOCK
  5
B1
330
A9
100
AcDbEntity
  8
0
100
AcDbBlockBegin
  2
SE4
 70
     0
 71
     0
 10
0.0
 20
0.0
 30
0.0
  3
SE4
  1

  0
POLYLINE
  5
AB
330
A9
100
AcDbEntity
  8
DEFAULT
  6
CONTINUOUS
 62
     7
 48
25.4
100
AcDb2dPolyline
 66
     1
 10
0.0
 20
0.0
 30
0.0
 70
     1
  0
VERTEX
  5
EC
330
AB
100
AcDbEntity
  8
DEFAULT
  6
CONTINUOUS
 62
     7
100
AcDbVertex
100
AcDb2dVertex
 10
11.821424124
 20
267.319896618
 30
0.0
  0
VERTEX
  5
ED
330
AB
100
AcDbEntity
  8
DEFAULT
  6
CONTINUOUS
 62
     7
100
AcDbVertex
100
AcDb2dVertex
 10
12.3214241284
 20
270.3198966441
 30
0.0
  0
VERTEX
  5
EE
330
AB
100
AcDbEntity
  8
DEFAULT
  6
CONTINUOUS
 62
     7
100
AcDbVertex
100
AcDb2dVertex
 10
12.8214241327
 20
267.319896618
 30
0.0
  0
VERTEX
  5
EF
330
AB
100
AcDbEntity
  8
DEFAULT
  6
CONTINUOUS
 62
     7
100
AcDbVertex
100
AcDb2dVertex
 10
11.821424124
 20
267.319896618
 30
0.0
  0
SEQEND
  5
EB
330
AB
100
AcDbEntity
  8
DEFAULT
  6
CONTINUOUS
 62
     7
 48
25.4
  0
POLYLINE
  5
AC
330
A9
100
AcDbEntity
  8
DEFAULT
  6
CONTINUOUS
 62
     7
 48
25.4
100
AcDb2dPolyline
 66
     1
 10
0.0
 20
0.0
 30
0.0
 70
     1
  0
VERTEX
  5
F1
330
AC
100
AcDbEntity
  8
DEFAULT
  6
CONTINUOUS
 62
     7
100
AcDbVertex
100
AcDb2dVertex
 10
11.821424124
 20
39.3198966702
 30
0.0
  0
VERTEX
  5
F2
330
AC
100
AcDbEntity
  8
DEFAULT
  6
CONTINUOUS
 62
     7
100
AcDbVertex
100
AcDb2dVertex
 10
12.3214241284
 20
36.3198966441
 30
0.0
  0
VERTEX
  5
F3
330
AC
100
AcDbEntity
  8
DEFAULT
  6
CONTINUOUS
 62
     7
100
AcDbVertex
100
AcDb2dVertex
 10
12.8214241327
 20
39.3198966702
 30
0.0
  0
VERTEX
  5
F4
330
AC
100
AcDbEntity
  8
DEFAULT
  6
CONTINUOUS
 62
     7
100
AcDbVertex
100
AcDb2dVertex
 10
11.821424124
 20
39.3198966702
 30
0.0
  0
SEQEND
  5
F0
330
AC
100
AcDbEntity
  8
DEFAULT
  6
CONTINUOUS
 62
     7
 48
25.4
  0
LINE
  5
AD
330
A9
100
AcDbEntity
  8
DEFAULT
  6
CONTINUOUS
 62
     7
 48
25.4
100
AcDbLine
 10
42.021725716
 20
270.3198966441
 30
0.0
 11
10.8214241153
 21
270.3198966441
 31
0.0
  0
LINE
  5
AE
330
A9
100
AcDbEntity
  8
DEFAULT
  6
CONTINUOUS
 62
     7
 48
25.4
100
AcDbLine
 10
49.5303019725
 20
36.3198966441
 30
0.0
 11
10.8214241153
 21
36.3198966441
 31
0.0
  0
LINE
  5
AF
330
A9
100
AcDbEntity
  8
DEFAULT
  6
CONTINUOUS
 62
     7
 48
25.4
100
AcDbLine
 10
12.3214241284
 20
270.3198966441
 30
0.0
 11
12.3214241284
 21
36.3198992667
 31
0.0
  0
TEXT
  5
B0
330
A9
100
AcDbEntity
  8
DEFAULT
  6
CONTINUOUS
 62
     7
 48
25.4
100
AcDbText
 10
11.5714241284
 20
150.7289888645
 30
0.0
 40
3.0
  1
234
 50
90.0
  7
SEACAD_SEISO_TTF
 11
8.5714241284
 21
150.7289888645
 31
0.0
100
AcDbText
 73
     3
  0
ENDBLK
  5
B2
330
A9
100
AcDbEntity
  8
0
100
AcDbBlockEnd
  0
BLOCK
  5
BB
330
B3
100
AcDbEntity
  8
0
100
AcDbBlockBegin
  2
SE5
 70
     0
 71
     0
 10
0.0
 20
0.0
 30
0.0
  3
SE5
  1

  0
POLYLINE
  5
B5
330
B3
100
AcDbEntity
  8
DEFAULT
  6
CONTINUOUS
 62
     7
 48
25.4
100
AcDb2dPolyline
 66
     1
 10
0.0
 20
0.0
 30
0.0
 70
     1
  0
VERTEX
  5
F6
330
B5
100
AcDbEntity
  8
DEFAULT
  6
CONTINUOUS
 62
     7
100
AcDbVertex
100
AcDb2dVertex
 10
23.8762328748
 20
267.319896618
 30
0.0
  0
VERTEX
  5
F7
330
B5
100
AcDbEntity
  8
DEFAULT
  6
CONTINUOUS
 62
     7
100
AcDbVertex
100
AcDb2dVertex
 10
24.3762328791
 20
270.3198966441
 30
0.0
  0
VERTEX
  5
F8
330
B5
100
AcDbEntity
  8
DEFAULT
  6
CONTINUOUS
 62
     7
100
AcDbVertex
100
AcDb2dVertex
 10
24.8762328835
 20
267.319896618
 30
0.0
  0
VERTEX
  5
F9
330
B5
100
AcDbEntity
  8
DEFAULT
  6
CONTINUOUS
 62
     7
100
AcDbVertex
100
AcDb2dVertex
 10
23.8762328748
 20
267.319896618
 30
0.0
  0
SEQEND
  5
F5
330
B5
100
AcDbEntity
  8
DEFAULT
  6
CONTINUOUS
 62
     7
 48
25.4
  0
POLYLINE
  5
B6
330
B3
100
AcDbEntity
  8
DEFAULT
  6
CONTINUOUS
 62
     7
 48
25.4
100
AcDb2dPolyline
 66
     1
 10
0.0
 20
0.0
 30
0.0
 70
     1
  0
VERTEX
  5
FB
330
B6
100
AcDbEntity
  8
DEFAULT
  6
CONTINUOUS
 62
     7
100
AcDbVertex
100
AcDb2dVertex
 10
23.8762328748
 20
179.3198966702
 30
0.0
  0
VERTEX
  5
FC
330
B6
100
AcDbEntity
  8
DEFAULT
  6
CONTINUOUS
 62
     7
100
AcDbVertex
100
AcDb2dVertex
 10
24.3762328791
 20
176.3198966441
 30
0.0
  0
VERTEX
  5
FD
330
B6
100
AcDbEntity
  8
DEFAULT
  6
CONTINUOUS
 62
     7
100
AcDbVertex
100
AcDb2dVertex
 10
24.8762328835
 20
179.3198966702
 30
0.0
  0
VERTEX
  5
FE
330
B6
100
AcDbEntity
  8
DEFAULT
  6
CONTINUOUS
 62
     7
100
AcDbVertex
100
AcDb2dVertex
 10
23.8762328748
 20
179.3198966702
 30
0.0
  0
SEQEND
  5
FA
330
B6
100
AcDbEntity
  8
DEFAULT
  6
CONTINUOUS
 62
     7
 48
25.4
  0
LINE
  5
B7
330
B3
100
AcDbEntity
  8
DEFAULT
  6
CONTINUOUS
 62
     7
 48
25.4
100
AcDbLine
 10
42.0217241662
 20
270.3198966441
 30
0.0
 11
22.8762328661
 21
270.3198966441
 31
0.0
  0
LINE
  5
B8
330
B3
100
AcDbEntity
  8
DEFAULT
  6
CONTINUOUS
 62
     7
 48
25.4
100
AcDbLine
 10
60.0217241662
 20
176.3198966441
 30
0.0
 11
22.8762328661
 21
176.3198966441
 31
0.0
  0
LINE
  5
B9
330
B3
100
AcDbEntity
  8
DEFAULT
  6
CONTINUOUS
 62
     7
 48
25.4
100
AcDbLine
 10
24.3762328791
 20
270.3198966441
 30
0.0
 11
24.3762328791
 21
176.3198998628
 31
0.0
  0
TEXT
  5
BA
330
B3
100
AcDbEntity
  8
DEFAULT
  6
CONTINUOUS
 62
     7
 48
25.4
100
AcDbText
 10
23.6262328791
 20
221.5130800716
 30
0.0
 40
3.0
  1
94
 50
90.0
  7
SEACAD_SEISO_TTF
 11
20.6262328791
 21
221.5130800716
 31
0.0
100
AcDbText
 73
     3
  0
ENDBLK
  5
BC
330
B3
100
AcDbEntity
  8
0
100
AcDbBlockEnd
  0
BLOCK
  5
C5
330
BD
100
AcDbEntity
  8
0
100
AcDbBlockBegin
  2
SE6
 70
     0
 71
     0
 10
0.0
 20
0.0
 30
0.0
  3
SE6
  1

  0
POLYLINE
  5
BF
330
BD
100
AcDbEntity
  8
DEFAULT
  6
CONTINUOUS
 62
     7
 48
25.4
100
AcDb2dPolyline
 66
     1
 10
0.0
 20
0.0
 30
0.0
 70
     1
  0
VERTEX
  5
100
330
BF
100
AcDbEntity
  8
DEFAULT
  6
CONTINUOUS
 62
     7
100
AcDbVertex
100
AcDb2dVertex
 10
23.876231787
 20
173.319896618
 30
0.0
  0
VERTEX
  5
101
330
BF
100
AcDbEntity
  8
DEFAULT
  6
CONTINUOUS
 62
     7
100
AcDbVertex
100
AcDb2dVertex
 10
24.3762317913
 20
176.3198966441
 30
0.0
  0
VERTEX
  5
102
330
BF
100
AcDbEntity
  8
DEFAULT
  6
CONTINUOUS
 62
     7
100
AcDbVertex
100
AcDb2dVertex
 10
24.8762317957
 20
173.319896618
 30
0.0
  0
VERTEX
  5
103
330
BF
100
AcDbEntity
  8
DEFAULT
  6
CONTINUOUS
 62
     7
100
AcDbVertex
100
AcDb2dVertex
 10
23.876231787
 20
173.319896618
 30
0.0
  0
SEQEND
  5
FF
330
BF
100
AcDbEntity
  8
DEFAULT
  6
CONTINUOUS
 62
     7
 48
25.4
  0
POLYLINE
  5
C0
330
BD
100
AcDbEntity
  8
DEFAULT
  6
CONTINUOUS
 62
     7
 48
25.4
100
AcDb2dPolyline
 66
     1
 10
0.0
 20
0.0
 30
0.0
 70
     1
  0
VERTEX
  5
105
330
C0
100
AcDbEntity
  8
DEFAULT
  6
CONTINUOUS
 62
     7
100
AcDbVertex
100
AcDb2dVertex
 10
23.876231787
 20
101.1172742322
 30
0.0
  0
VERTEX
  5
106
330
C0
100
AcDbEntity
  8
DEFAULT
  6
CONTINUOUS
 62
     7
100
AcDbVertex
100
AcDb2dVertex
 10
24.3762317913
 20
98.1172742061
 30
0.0
  0
VERTEX
  5
107
330
C0
100
AcDbEntity
  8
DEFAULT
  6
CONTINUOUS
 62
     7
100
AcDbVertex
100
AcDb2dVertex
 10
24.8762317957
 20
101.1172742322
 30
0.0
  0
VERTEX
  5
108
330
C0
100
AcDbEntity
  8
DEFAULT
  6
CONTINUOUS
 62
     7
100
AcDbVertex
100
AcDb2dVertex
 10
23.876231787
 20
101.1172742322
 30
0.0
  0
SEQEND
  5
104
330
C0
100
AcDbEntity
  8
DEFAULT
  6
CONTINUOUS
 62
     7
 48
25.4
  0
LINE
  5
C1
330
BD
100
AcDbEntity
  8
DEFAULT
  6
CONTINUOUS
 62
     7
 48
25.4
100
AcDbLine
 10
60.0217241662
 20
176.3198966441
 30
0.0
 11
22.8762317783
 21
176.3198966441
 31
0.0
  0
LINE
  5
C2
330
BD
100
AcDbEntity
  8
DEFAULT
  6
CONTINUOUS
 62
     7
 48
25.4
100
AcDbLine
 10
40.0221845297
 20
98.1172742061
 30
0.0
 11
22.8762317783
 21
98.1172742061
 31
0.0
  0
LINE
  5
C3
330
BD
100
AcDbEntity
  8
DEFAULT
  6
CONTINUOUS
 62
     7
 48
25.4
100
AcDbLine
 10
24.3762317913
 20
176.3198966441
 30
0.0
 11
24.3762317913
 21
98.1172764954
 31
0.0
  0
TEXT
  5
C4
330
BD
100
AcDbEntity
  8
DEFAULT
  6
CONTINUOUS
 62
     7
 48
25.4
100
AcDbText
 10
23.6262317913
 20
135.3094956607
 30
0.0
 40
3.0
  1
78
 50
90.0
  7
SEACAD_SEISO_TTF
 11
20.6262317913
 21
135.3094956607
 31
0.0
100
AcDbText
 73
     3
  0
ENDBLK
  5
C6
330
BD
100
AcDbEntity
  8
0
100
AcDbBlockEnd
  0
BLOCK
  5
D0
330
C7
100
AcDbEntity
  8
0
100
AcDbBlockBegin
  2
SE7
 70
     0
 71
     0
 10
0.0
 20
0.0
 30
0.0
  3
SE7
  1

  0
POLYLINE
  5
C9
330
C7
100
AcDbEntity
  8
DEFAULT
  6
CONTINUOUS
 62
     7
 48
25.4
100
AcDb2dPolyline
 66
     1
 10
0.0
 20
0.0
 30
0.0
 70
     1
  0
VERTEX
  5
10A
330
C9
100
AcDbEntity
  8
DEFAULT
  6
CONTINUOUS
 62
     7
100
AcDbVertex
100
AcDb2dVertex
 10
102.2102187734
 20
171.3198985143
 30
0.0
  0
VERTEX
  5
10B
330
C9
100
AcDbEntity
  8
DEFAULT
  6
CONTINUOUS
 62
     7
100
AcDbVertex
100
AcDb2dVertex
 10
101.7102189002
 20
168.3198984664
 30
0.0
  0
VERTEX
  5
10C
330
C9
100
AcDbEntity
  8
DEFAULT
  6
CONTINUOUS
 62
     7
100
AcDbVertex
100
AcDb2dVertex
 10
101.2102187647
 20
171.3198984706
 30
0.0
  0
VERTEX
  5
10D
330
C9
100
AcDbEntity
  8
DEFAULT
  6
CONTINUOUS
 62
     7
100
AcDbVertex
100
AcDb2dVertex
 10
102.2102187734
 20
171.3198985143
 30
0.0
  0
SEQEND
  5
109
330
C9
100
AcDbEntity
  8
DEFAULT
  6
CONTINUOUS
 62
     7
 48
25.4
  0
POLYLINE
  5
CA
330
C7
100
AcDbEntity
  8
DEFAULT
  6
CONTINUOUS
 62
     7
 48
25.4
100
AcDb2dPolyline
 66
     1
 10
0.0
 20
0.0
 30
0.0
 70
     1
  0
VERTEX
  5
10F
330
CA
100
AcDbEntity
  8
DEFAULT
  6
CONTINUOUS
 62
     7
100
AcDbVertex
100
AcDb2dVertex
 10
102.2102183363
 20
181.3198984621
 30
0.0
  0
VERTEX
  5
110
330
CA
100
AcDbEntity
  8
DEFAULT
  6
CONTINUOUS
 62
     7
100
AcDbVertex
100
AcDb2dVertex
 10
101.7102182008
 20
184.3198984664
 30
0.0
  0
VERTEX
  5
111
330
CA
100
AcDbEntity
  8
DEFAULT
  6
CONTINUOUS
 62
     7
100
AcDbVertex
100
AcDb2dVertex
 10
101.2102183276
 20
181.3198984184
 30
0.0
  0
VERTEX
  5
112
330
CA
100
AcDbEntity
  8
DEFAULT
  6
CONTINUOUS
 62
     7
100
AcDbVertex
100
AcDb2dVertex
 10
102.2102183363
 20
181.3198984621
 30
0.0
  0
SEQEND
  5
10E
330
CA
100
AcDbEntity
  8
DEFAULT
  6
CONTINUOUS
 62
     7
 48
25.4
  0
LINE
  5
CB
330
C7
100
AcDbEntity
  8
DEFAULT
  6
CONTINUOUS
 62
     7
 48
25.4
100
AcDbLine
 10
60.0217245159
 20
168.3198966441
 30
0.0
 11
103.2102189133
 21
168.3198985319
 31
0.0
  0
LINE
  5
CC
330
C7
100
AcDbEntity
  8
DEFAULT
  6
CONTINUOUS
 62
     7
 48
25.4
100
AcDbLine
 10
60.0217238165
 20
184.3198966441
 30
0.0
 11
103.2102182139
 21
184.3198985319
 31
0.0
  0
LINE
  5
CD
330
C7
100
AcDbEntity
  8
DEFAULT
  6
CONTINUOUS
 62
     7
 48
25.4
100
AcDbLine
 10
101.7102189002
 20
168.3198984664
 30
0.0
 11
101.7102182008
 21
184.3198992263
 31
0.0
  0
TEXT
  5
CE
330
C7
100
AcDbEntity
  8
DEFAULT
  6
CONTINUOUS
 62
     7
 48
25.4
100
AcDbText
 10
100.9602185505
 20
172.5221715736
 30
0.0
 40
3.0
  1
16
 50
90.0
  7
SEACAD_SEISO_TTF
 11
97.9602185505
 21
172.5221715736
 31
0.0
100
AcDbText
 73
     3
  0
TEXT
  5
CF
330
C7
100
AcDbEntity
  8
DEFAULT
  6
CONTINUOUS
 62
     7
 48
25.4
100
AcDbText
 10
100.9602185505
 20
175.8903533918
 30
0.0
 40
3.0
  1
/18
 50
90.0
  7
SEACAD_SEISO_TTF
 11
97.9602185505
 21
175.8903533918
 31
0.0
100
AcDbText
 73
     3
  0
ENDBLK
  5
D1
330
C7
100
AcDbEntity
  8
0
100
AcDbBlockEnd
  0
BLOCK
  5
DA
330
D2
100
AcDbEntity
  8
0
100
AcDbBlockBegin
  2
SE8
 70
     0
 71
     0
 10
0.0
 20
0.0
 30
0.0
  3
SE8
  1

  0
POLYLINE
  5
D4
330
D2
100
AcDbEntity
  8
DEFAULT
  6
CONTINUOUS
 62
     7
 48
25.4
100
AcDb2dPolyline
 66
     1
 10
0.0
 20
0.0
 30
0.0
 70
     1
  0
VERTEX
  5
114
330
D4
100
AcDbEntity
  8
DEFAULT
  6
CONTINUOUS
 62
     7
100
AcDbVertex
100
AcDb2dVertex
 10
150.0472938575
 20
17.9279042645
 30
0.0
  0
VERTEX
  5
115
330
D4
100
AcDbEntity
  8
DEFAULT
  6
CONTINUOUS
 62
     7
100
AcDbVertex
100
AcDb2dVertex
 10
147.0472938314
 20
18.4279042688
 30
0.0
  0
VERTEX
  5
116
330
D4
100
AcDbEntity
  8
DEFAULT
  6
CONTINUOUS
 62
     7
100
AcDbVertex
100
AcDb2dVertex
 10
150.0472938575
 20
18.9279042732
 30
0.0
  0
VERTEX
  5
117
330
D4
100
AcDbEntity
  8
DEFAULT
  6
CONTINUOUS
 62
     7
100
AcDbVertex
100
AcDb2dVertex
 10
150.0472938575
 20
17.9279042645
 30
0.0
  0
SEQEND
  5
113
330
D4
100
AcDbEntity
  8
DEFAULT
  6
CONTINUOUS
 62
     7
 48
25.4
  0
POLYLINE
  5
D5
330
D2
100
AcDbEntity
  8
DEFAULT
  6
CONTINUOUS
 62
     7
 48
25.4
100
AcDb2dPolyline
 66
     1
 10
0.0
 20
0.0
 30
0.0
 70
     1
  0
VERTEX
  5
119
330
D5
100
AcDbEntity
  8
DEFAULT
  6
CONTINUOUS
 62
     7
100
AcDbVertex
100
AcDb2dVertex
 10
172.0472938053
 20
17.9279042645
 30
0.0
  0
VERTEX
  5
11A
330
D5
100
AcDbEntity
  8
DEFAULT
  6
CONTINUOUS
 62
     7
100
AcDbVertex
100
AcDb2dVertex
 10
175.0472938314
 20
18.4279042688
 30
0.0
  0
VERTEX
  5
11B
330
D5
100
AcDbEntity
  8
DEFAULT
  6
CONTINUOUS
 62
     7
100
AcDbVertex
100
AcDb2dVertex
 10
172.0472938053
 20
18.9279042732
 30
0.0
  0
VERTEX
  5
11C
330
D5
100
AcDbEntity
  8
DEFAULT
  6
CONTINUOUS
 62
     7
100
AcDbVertex
100
AcDb2dVertex
 10
172.0472938053
 20
17.9279042645
 30
0.0
  0
SEQEND
  5
118
330
D5
100
AcDbEntity
  8
DEFAULT
  6
CONTINUOUS
 62
     7
 48
25.4
  0
LINE
  5
D6
330
D2
100
AcDbEntity
  8
DEFAULT
  6
CONTINUOUS
 62
     7
 48
25.4
100
AcDbLine
 10
147.0472938314
 20
39.3198966441
 30
0.0
 11
147.0472938314
 21
16.9279042558
 31
0.0
  0
LINE
  5
D7
330
D2
100
AcDbEntity
  8
DEFAULT
  6
CONTINUOUS
 62
     7
 48
25.4
100
AcDbLine
 10
175.0472938314
 20
94.667963267
 30
0.0
 11
175.0472938314
 21
16.9279042558
 31
0.0
  0
LINE
  5
D8
330
D2
100
AcDbEntity
  8
DEFAULT
  6
CONTINUOUS
 62
     7
 48
25.4
100
AcDbLine
 10
147.0472938314
 20
18.4279042688
 30
0.0
 11
175.0472946957
 21
18.4279042688
 31
0.0
  0
TEXT
  5
D9
330
D2
100
AcDbEntity
  8
DEFAULT
  6
CONTINUOUS
 62
     7
 48
25.4
100
AcDbText
 10
159.1722942636
 20
19.1779042688
 30
0.0
 40
3.0
  1
28
  7
SEACAD_SEISO_TTF
 11
159.1722942636
 21
22.1779042688
 31
0.0
100
AcDbText
 73
     3
  0
ENDBLK
  5
DB
330
D2
100
AcDbEntity
  8
0
100
AcDbBlockEnd
  0
ENDSEC
  0
SECTION
  2
ENTITIES
  0
INSERT
  5
2F
330
1F
100
AcDbEntity
  8
0
100
AcDbBlockReference
  2
SE
 10
0.0
 20
0.0
 30
0.0
  0
INSERT
  5
6D
330
1F
100
AcDbEntity
  8
0
100
AcDbBlockReference
  2
SE1
 10
0.0
 20
0.0
 30
0.0
  0
INSERT
  5
95
330
1F
100
AcDbEntity
  8
0
100
AcDbBlockReference
  2
SE2
 10
0.0
 20
0.0
 30
0.0
  0
INSERT
  5
A0
330
1F
100
AcDbEntity
  8
0
100
AcDbBlockReference
  2
SE3
 10
0.0
 20
0.0
 30
0.0
  0
INSERT
  5
AA
330
1F
100
AcDbEntity
  8
0
100
AcDbBlockReference
  2
SE4
 10
0.0
 20
0.0
 30
0.0
  0
INSERT
  5
B4
330
1F
100
AcDbEntity
  8
0
100
AcDbBlockReference
  2
SE5
 10
0.0
 20
0.0
 30
0.0
  0
INSERT
  5
BE
330
1F
100
AcDbEntity
  8
0
100
AcDbBlockReference
  2
SE6
 10
0.0
 20
0.0
 30
0.0
  0
INSERT
  5
C8
330
1F
100
AcDbEntity
  8
0
100
AcDbBlockReference
  2
SE7
 10
0.0
 20
0.0
 30
0.0
  0
INSERT
  5
D3
330
1F
100
AcDbEntity
  8
0
100
AcDbBlockReference
  2
SE8
 10
0.0
 20
0.0
 30
0.0
  0
ENDSEC
  0
SECTION
  2
OBJECTS
  0
DICTIONARY
  5
C
330
0
100
AcDbDictionary
  3
ACAD_GROUP
350
D
  3
ACAD_LAYOUT
350
1A
  3
ACAD_MLINESTYLE
350
17
  3
ACAD_PLOTSETTINGS
350
19
  3
ACAD_TABLESTYLE
350
2A
  3
ACDBVARIABLEDICTIONARY
350
2C
1001
ACAD
1000
TREAT_AS_HARD
1070
     0
  0
DICTIONARY
  5
11D
330
29
100
AcDbDictionary
  3
ACAD_XREC_ROUNDTRIP
360
11E
  0
DICTIONARY
  5
D
102
{ACAD_REACTORS
330
C
102
}
330
C
100
AcDbDictionary
1001
ACAD
1000
TREAT_AS_HARD
1070
     0
  0
DICTIONARY
  5
1A
102
{ACAD_REACTORS
330
C
102
}
330
C
100
AcDbDictionary
1001
ACAD
1000
TREAT_AS_HARD
1070
     0
  0
DICTIONARY
  5
17
102
{ACAD_REACTORS
330
C
102
}
330
C
100
AcDbDictionary
  3
STANDARD
350
18
1001
ACAD
1000
TREAT_AS_HARD
1070
     0
  0
DICTIONARY
  5
19
102
{ACAD_REACTORS
330
C
102
}
330
C
100
AcDbDictionary
1001
ACAD
1000
TREAT_AS_HARD
1070
     0
  0
DICTIONARY
  5
2A
102
{ACAD_REACTORS
330
C
102
}
330
C
100
AcDbDictionary
  3
STANDARD
350
2B
1001
ACAD
1000
TREAT_AS_HARD
1070
     0
  0
DICTIONARY
  5
2C
102
{ACAD_REACTORS
330
C
102
}
330
C
100
AcDbDictionary
  3
CTABLESTYLE
350
2D
1001
ACAD
1000
TREAT_AS_HARD
1070
     0
  0
XRECORD
  5
11E
102
{ACAD_REACTORS
330
11D
102
}
330
11D
100
AcDbXrecord
102
UCS
 74
     0
 71
     1
 10
0.0
 20
0.0
 30
0.0
 10
1.0
 20
0.0
 30
0.0
 10
0.0
 20
1.0
 30
0.0
146
0.0
 79
     0
102
VIEW
281
     0
  0
MLINESTYLE
  5
18
102
{ACAD_REACTORS
330
17
102
}
330
17
100
AcDbMlineStyle
  2
Standard
 70
     0
  3

 62
   256
 51
90.0
 52
90.0
 71
     2
 49
0.5
 62
   256
  6
BYLAYER
 49
-0.5
 62
   256
  6
BYLAYER
  0
TABLESTYLE
  5
2B
102
{ACAD_REACTORS
330
2A
102
}
330
2A
100
AcDbTableStyle
  3
Standard
 70
     0
 71
     0
 40
0.06
 41
0.06
280
     0
281
     0
  7
STANDARD
140
0.18
170
     2
 62
     0
 63
     7
283
     0
274
    -2
284
     1
 64
     0
275
    -2
285
     1
 65
     0
276
    -2
286
     1
 66
     0
277
    -2
287
     1
 67
     0
278
    -2
288
     1
 68
     0
279
    -2
289
     1
 69
     0
  7
STANDARD
140
0.25
170
     5
 62
     0
 63
     7
283
     0
274
    -2
284
     1
 64
     0
275
    -2
285
     1
 65
     0
276
    -2
286
     1
 66
     0
277
    -2
287
     1
 67
     0
278
    -2
288
     1
 68
     0
279
    -2
289
     1
 69
     0
  7
STANDARD
140
0.18
170
     5
 62
     0
 63
     7
283
     0
274
    -2
284
     1
 64
     0
275
    -2
285
     1
 65
     0
276
    -2
286
     1
 66
     0
277
    -2
287
     1
 67
     0
278
    -2
288
     1
 68
     0
279
    -2
289
     1
 69
     0
  0
DICTIONARYVAR
  5
2D
102
{ACAD_REACTORS
330
2C
102
}
330
2C
100
DictionaryVariables
280
     0
  1
Standard
  0
ENDSEC
  0
EOF
