  0
SECTION
  2
HEADER
  9
$ACADVER
  1
AC1012
  9
$DWGCODEPAGE
  3
ansi_1252
  9
$INSBASE
 10
0.0
 20
0.0
 30
0.0
  9
$EXTMIN
 10
0.0
 20
0.0
 30
0.0
  9
$EXTMAX
 10
210.0
 20
297.0
 30
0.0
  9
$LIMMIN
 10
0.0
 20
0.0
  9
$LIMMAX
 10
210.0
 20
297.0
  9
$ORTHOMODE
 70
     0
  9
$REGENMODE
 70
     1
  9
$FILLMODE
 70
     1
  9
$QTEXTMODE
 70
     0
  9
$MIRRTEXT
 70
     1
  9
$DRAGMODE
 70
     2
  9
$LTSCALE
 40
1.0
  9
$OSMODE
 70
    37
  9
$ATTMODE
 70
     1
  9
$TEXTSIZE
 40
0.2
  9
$TRACEWID
 40
0.05
  9
$TEXTSTYLE
  7
STANDARD
  9
$CLAYER
  8
0
  9
$CELTYPE
  6
BYLAYER
  9
$CECOLOR
 62
   256
  9
$CELTSCALE
 40
25.4
  9
$DELOBJ
 70
     1
  9
$DISPSILH
 70
     0
  9
$DIMSCALE
 40
1.0
  9
$DIMASZ
 40
0.18
  9
$DIMEXO
 40
0.0625
  9
$DIMDLI
 40
0.38
  9
$DIMRND
 40
0.0
  9
$DIMDLE
 40
0.0
  9
$DIMEXE
 40
0.18
  9
$DIMTP
 40
0.0
  9
$DIMTM
 40
0.0
  9
$DIMTXT
 40
0.18
  9
$DIMCEN
 40
0.09
  9
$DIMTSZ
 40
0.0
  9
$DIMTOL
 70
     0
  9
$DIMLIM
 70
     0
  9
$DIMTIH
 70
     1
  9
$DIMTOH
 70
     1
  9
$DIMSE1
 70
     0
  9
$DIMSE2
 70
     0
  9
$DIMTAD
 70
     0
  9
$DIMZIN
 70
     0
  9
$DIMBLK
  1

  9
$DIMASO
 70
     1
  9
$DIMSHO
 70
     1
  9
$DIMPOST
  1

  9
$DIMAPOST
  1

  9
$DIMALT
 70
     0
  9
$DIMALTD
 70
     2
  9
$DIMALTF
 40
25.4
  9
$DIMLFAC
 40
1.0
  9
$DIMTOFL
 70
     0
  9
$DIMTVP
 40
0.0
  9
$DIMTIX
 70
     0
  9
$DIMSOXD
 70
     0
  9
$DIMSAH
 70
     0
  9
$DIMBLK1
  1

  9
$DIMBLK2
  1

  9
$DIMSTYLE
  2
STANDARD
  9
$DIMCLRD
 70
     0
  9
$DIMCLRE
 70
     0
  9
$DIMCLRT
 70
     0
  9
$DIMTFAC
 40
1.0
  9
$DIMGAP
 40
0.09
  9
$DIMJUST
 70
     0
  9
$DIMSD1
 70
     0
  9
$DIMSD2
 70
     0
  9
$DIMTOLJ
 70
     1
  9
$DIMTZIN
 70
     0
  9
$DIMALTZ
 70
     0
  9
$DIMALTTZ
 70
     0
  9
$DIMFIT
 70
     3
  9
$DIMUPT
 70
     0
  9
$DIMUNIT
 70
     2
  9
$DIMDEC
 70
     4
  9
$DIMTDEC
 70
     4
  9
$DIMALTU
 70
     2
  9
$DIMALTTD
 70
     2
  9
$DIMTXSTY
  7
STANDARD
  9
$DIMAUNIT
 70
     0
  9
$LUNITS
 70
     2
  9
$LUPREC
 70
     4
  9
$SKETCHINC
 40
0.1
  9
$FILLETRAD
 40
0.5
  9
$AUNITS
 70
     0
  9
$AUPREC
 70
     0
  9
$MENU
  1
.
  9
$ELEVATION
 40
0.0
  9
$PELEVATION
 40
0.0
  9
$THICKNESS
 40
0.0
  9
$LIMCHECK
 70
     0
  9
$CHAMFERA
 40
0.5
  9
$CHAMFERB
 40
0.5
  9
$CHAMFERC
 40
1.0
  9
$CHAMFERD
 40
0.0
  9
$SKPOLY
 70
     0
  9
$TDCREATE
 40
2453762.543762222
  9
$TDUPDATE
 40
2453762.543762234
  9
$TDINDWG
 40
0.0000000116
  9
$TDUSRTIMER
 40
0.0000000116
  9
$USRTIMER
 70
     1
  9
$ANGBASE
 50
0.0
  9
$ANGDIR
 70
     0
  9
$PDMODE
 70
     0
  9
$PDSIZE
 40
0.0
  9
$PLINEWID
 40
0.0
  9
$COORDS
 70
     1
  9
$SPLFRAME
 70
     0
  9
$SPLINETYPE
 70
     6
  9
$SPLINESEGS
 70
     8
  9
$ATTDIA
 70
     0
  9
$ATTREQ
 70
     1
  9
$HANDLING
 70
     1
  9
$HANDSEED
  5
BD
  9
$SURFTAB1
 70
     6
  9
$SURFTAB2
 70
     6
  9
$SURFTYPE
 70
     6
  9
$SURFU
 70
     6
  9
$SURFV
 70
     6
  9
$UCSNAME
  2

  9
$UCSORG
 10
0.0
 20
0.0
 30
0.0
  9
$UCSXDIR
 10
1.0
 20
0.0
 30
0.0
  9
$UCSYDIR
 10
0.0
 20
1.0
 30
0.0
  9
$PUCSNAME
  2

  9
$PUCSORG
 10
0.0
 20
0.0
 30
0.0
  9
$PUCSXDIR
 10
1.0
 20
0.0
 30
0.0
  9
$PUCSYDIR
 10
0.0
 20
1.0
 30
0.0
  9
$USERI1
 70
     0
  9
$USERI2
 70
     0
  9
$USERI3
 70
     0
  9
$USERI4
 70
     0
  9
$USERI5
 70
     0
  9
$USERR1
 40
0.0
  9
$USERR2
 40
0.0
  9
$USERR3
 40
0.0
  9
$USERR4
 40
0.0
  9
$USERR5
 40
0.0
  9
$WORLDVIEW
 70
     1
  9
$SHADEDGE
 70
     3
  9
$SHADEDIF
 70
    70
  9
$TILEMODE
 70
     1
  9
$MAXACTVP
 70
    64
  9
$PINSBASE
 10
0.0
 20
0.0
 30
0.0
  9
$PLIMCHECK
 70
     0
  9
$PEXTMIN
 10
0.0
 20
0.0
 30
0.0
  9
$PEXTMAX
 10
210.0
 20
297.0
 30
0.0
  9
$PLIMMIN
 10
0.0
 20
0.0
  9
$PLIMMAX
 10
12.0
 20
9.0
  9
$UNITMODE
 70
     0
  9
$VISRETAIN
 70
     1
  9
$PLINEGEN
 70
     0
  9
$PSLTSCALE
 70
     1
  9
$TREEDEPTH
 70
  3020
  9
$PICKSTYLE
 70
     1
  9
$CMLSTYLE
  2
STANDARD
  9
$CMLJUST
 70
     0
  9
$CMLSCALE
 40
1.0
  9
$SAVEIMAGES
 70
     1
  0
ENDSEC
  0
SECTION
  2
CLASSES
  0
CLASS
  1
ACDBDICTIONARYWDFLT
  2
AcDbDictionaryWithDefault
  3
ObjectDBX Classes
 90
        0
280
     0
281
     0
  0
CLASS
  1
TABLESTYLE
  2
AcDbTableStyle
  3
ObjectDBX Classes
 90
     2047
280
     0
281
     0
  0
CLASS
  1
DICTIONARYVAR
  2
AcDbDictionaryVar
  3
ObjectDBX Classes
 90
        0
280
     0
281
     0
  0
CLASS
  1
XRECORD
  2
AcDbXrecord
  3
AutoCAD 2000
 90
    32768
280
     0
281
     0
  0
CLASS
  1
LWPOLYLINE
  2
AcDbPolyline
  3
AutoCAD 2000
 90
    32768
280
     0
281
     1
  0
CLASS
  1
HATCH
  2
AcDbHatch
  3
AutoCAD 2000
 90
    32768
280
     0
281
     1
  0
CLASS
  1
ACDBPLACEHOLDER
  2
AcDbPlaceHolder
  3
ObjectDBX Classes
 90
        0
280
     0
281
     0
  0
CLASS
  1
LAYOUT
  2
AcDbLayout
  3
ObjectDBX Classes
 90
        0
280
     0
281
     0
  0
ENDSEC
  0
SECTION
  2
TABLES
  0
TABLE
  2
VPORT
  5
8
330
0
100
AcDbSymbolTable
 70
     2
  0
VPORT
  5
29
102
{ACAD_XDICTIONARY
360
BB
102
}
330
8
100
AcDbSymbolTableRecord
100
AcDbViewportTableRecord
  2
*ACTIVE
 70
     0
 10
0.0
 20
0.0
 11
1.0
 21
1.0
 12
10.4299065421
 22
4.5
 13
0.0
 23
0.0
 14
0.5
 24
0.5
 15
0.5
 25
0.5
 16
0.0
 26
0.0
 36
1.0
 17
0.0
 27
0.0
 37
0.0
 40
9.0
 41
1.9729729729
 42
50.0
 43
0.0
 44
0.0
 50
0.0
 51
0.0
 71
     0
 72
   100
 73
     1
 74
     3
 75
     0
 76
     0
 77
     0
 78
     0
  0
ENDTAB
  0
TABLE
  2
LTYPE
  5
5
330
0
100
AcDbSymbolTable
 70
     2
  0
LTYPE
  5
14
330
5
100
AcDbSymbolTableRecord
100
AcDbLinetypeTableRecord
  2
BYBLOCK
 70
     0
  3

 72
    65
 73
     0
 40
0.0
  0
LTYPE
  5
15
330
5
100
AcDbSymbolTableRecord
100
AcDbLinetypeTableRecord
  2
BYLAYER
 70
     0
  3

 72
    65
 73
     0
 40
0.0
  0
LTYPE
  5
16
330
5
100
AcDbSymbolTableRecord
100
AcDbLinetypeTableRecord
  2
CONTINUOUS
 70
     0
  3
Solid line
 72
    65
 73
     0
 40
0.0
  0
LTYPE
  5
44
330
5
100
AcDbSymbolTableRecord
100
AcDbLinetypeTableRecord
  2
CENTER2
 70
     0
  3
___ _ ___ _ ___ _ ___ _ ___ _ ___ _ ___ _ ___ _
 72
    65
 73
     4
 40
1.125
 49
0.75
 74
     4
 75
     0
340
0
 46
0.0
 50
0.0
 44
0.0
 45
0.0
 49
-0.125
 74
     4
 75
     0
340
0
 46
0.0
 50
0.0
 44
0.0
 45
0.0
 49
0.125
 74
     4
 75
     0
340
0
 46
0.0
 50
0.0
 44
0.0
 45
0.0
 49
-0.125
 74
     4
 75
     0
340
0
 46
0.0
 50
0.0
 44
0.0
 45
0.0
  0
ENDTAB
  0
TABLE
  2
LAYER
  5
2
330
0
100
AcDbSymbolTable
 70
     4
  0
LAYER
  5
10
330
2
100
AcDbSymbolTableRecord
100
AcDbLayerTableRecord
  2
0
 70
     0
 62
     7
  6
CONTINUOUS
  0
LAYER
  5
30
330
2
100
AcDbSymbolTableRecord
100
AcDbLayerTableRecord
  2
MEGA_001669
 70
     0
 62
     7
  6
CONTINUOUS
  0
LAYER
  5
43
330
2
100
AcDbSymbolTableRecord
100
AcDbLayerTableRecord
  2
STANDARD
 70
     0
 62
     7
  6
CONTINUOUS
  0
LAYER
  5
5D
330
2
100
AcDbSymbolTableRecord
100
AcDbLayerTableRecord
  2
DEFAULT
 70
     0
 62
     7
  6
CONTINUOUS
  0
ENDTAB
  0
TABLE
  2
STYLE
  5
3
330
0
100
AcDbSymbolTable
 70
     2
  0
STYLE
  5
11
330
3
100
AcDbSymbolTableRecord
100
AcDbTextStyleTableRecord
  2
STANDARD
 70
     0
 40
0.0
 41
1.0
 50
0.0
 71
     0
 42
0.2
  3
txt
  4

  0
STYLE
  5
62
330
3
100
AcDbSymbolTableRecord
100
AcDbTextStyleTableRecord
  2
SEACAD_SEISO_TTF
 70
     0
 40
0.2
 41
1.0
 50
0.0
 71
     0
 42
0.2
  3
seiso.ttf
  4

  0
ENDTAB
  0
TABLE
  2
VIEW
  5
6
330
0
100
AcDbSymbolTable
 70
     0
  0
ENDTAB
  0
TABLE
  2
UCS
  5
7
330
0
100
AcDbSymbolTable
 70
     0
  0
ENDTAB
  0
TABLE
  2
APPID
  5
9
330
0
100
AcDbSymbolTable
 70
     1
  0
APPID
  5
12
330
9
100
AcDbSymbolTableRecord
100
AcDbRegAppTableRecord
  2
ACAD
 70
     0
  0
ENDTAB
  0
TABLE
  2
DIMSTYLE
  5
A
330
0
100
AcDbSymbolTable
 70
     1
  0
DIMSTYLE
105
27
330
A
100
AcDbSymbolTableRecord
100
AcDbDimStyleTableRecord
  2
STANDARD
 70
     0
  3

  4

  5

  6

  7

 40
1.0
 41
0.18
 42
0.0625
 43
0.38
 44
0.18
 45
0.0
 46
0.0
 47
0.0
 48
0.0
140
0.18
141
0.09
142
0.0
143
25.4
144
1.0
145
0.0
146
1.0
147
0.09
 71
     0
 72
     0
 73
     1
 74
     1
 75
     0
 76
     0
 77
     0
 78
     0
170
     0
171
     2
172
     0
173
     0
174
     0
175
     0
176
     0
177
     0
178
     0
270
     2
271
     4
272
     4
273
     2
274
     2
340
11
275
     0
280
     0
281
     0
282
     0
283
     1
284
     0
285
     0
286
     0
287
     3
288
     0
  0
ENDTAB
  0
TABLE
  2
BLOCK_RECORD
  5
1
330
0
100
AcDbSymbolTable
 70
     8
  0
BLOCK_RECORD
  5
1F
330
1
100
AcDbSymbolTableRecord
100
AcDbBlockTableRecord
  2
*MODEL_SPACE
  0
BLOCK_RECORD
  5
1B
330
1
100
AcDbSymbolTableRecord
100
AcDbBlockTableRecord
  2
*PAPER_SPACE
  0
BLOCK_RECORD
  5
2E
330
1
100
AcDbSymbolTableRecord
100
AcDbBlockTableRecord
  2
SE
  0
BLOCK_RECORD
  5
49
330
1
100
AcDbSymbolTableRecord
100
AcDbBlockTableRecord
  2
SE1
  0
BLOCK_RECORD
  5
5B
330
1
100
AcDbSymbolTableRecord
100
AcDbBlockTableRecord
  2
SE2
  0
BLOCK_RECORD
  5
66
330
1
100
AcDbSymbolTableRecord
100
AcDbBlockTableRecord
  2
SE3
  0
BLOCK_RECORD
  5
70
330
1
100
AcDbSymbolTableRecord
100
AcDbBlockTableRecord
  2
SE4
  0
BLOCK_RECORD
  5
7A
330
1
100
AcDbSymbolTableRecord
100
AcDbBlockTableRecord
  2
SE5
  0
BLOCK_RECORD
  5
84
330
1
100
AcDbSymbolTableRecord
100
AcDbBlockTableRecord
  2
SE6
  0
ENDTAB
  0
ENDSEC
  0
SECTION
  2
BLOCKS
  0
BLOCK
  5
20
330
1F
100
AcDbEntity
  8
0
100
AcDbBlockBegin
  2
*MODEL_SPACE
 70
     0
 71
     0
 10
0.0
 20
0.0
 30
0.0
  3
*MODEL_SPACE
  1

  0
ENDBLK
  5
21
330
1F
100
AcDbEntity
  8
0
100
AcDbBlockEnd
  0
BLOCK
  5
1C
330
1B
100
AcDbEntity
 67
     1
  8
0
100
AcDbBlockBegin
  2
*PAPER_SPACE
 70
     0
 71
     0
 10
0.0
 20
0.0
 30
0.0
  3
*PAPER_SPACE
  1

  0
ENDBLK
  5
1D
330
1B
100
AcDbEntity
 67
     1
  8
0
100
AcDbBlockEnd
  0
BLOCK
  5
47
330
2E
100
AcDbEntity
  8
0
100
AcDbBlockBegin
  2
SE
 70
     0
 71
     0
 10
0.0
 20
0.0
 30
0.0
  3
SE
  1

  0
LINE
  5
31
330
2E
100
AcDbEntity
  8
MEGA_001669
  6
CONTINUOUS
 62
     7
 48
25.4
100
AcDbLine
 10
62.6579929441
 20
261.9668523241
 30
0.0
 11
62.6579929441
 21
33.9668523241
 31
0.0
  0
LINE
  5
32
330
2E
100
AcDbEntity
  8
MEGA_001669
  6
CONTINUOUS
 62
     7
 48
25.4
100
AcDbLine
 10
65.6579929441
 20
30.9668523241
 30
0.0
 11
80.6751485567
 21
30.9668523241
 31
0.0
  0
LINE
  5
33
330
2E
100
AcDbEntity
  8
MEGA_001669
  6
CONTINUOUS
 62
     7
 48
25.4
100
AcDbLine
 10
101.6579929441
 20
264.9668523241
 30
0.0
 11
65.6579929441
 21
264.9668523241
 31
0.0
  0
LINE
  5
34
330
2E
100
AcDbEntity
  8
MEGA_001669
  6
CONTINUOUS
 62
     7
 48
25.4
100
AcDbLine
 10
104.6579929441
 20
33.9668523241
 30
0.0
 11
104.6579929441
 21
261.9668523241
 31
0.0
  0
CIRCLE
  5
35
330
2E
100
AcDbEntity
  8
MEGA_001669
  6
CONTINUOUS
 62
     7
 48
25.4
100
AcDbCircle
 10
83.6579929441
 20
170.9668523241
 30
0.0
 40
11.20000000000002
  0
LINE
  5
36
330
2E
100
AcDbEntity
  8
MEGA_001669
  6
CONTINUOUS
 62
     7
 48
25.4
100
AcDbLine
 10
85.7914606187
 20
31.3547716817
 30
0.0
 11
81.5245252694
 21
31.3547716817
 31
0.0
  0
LINE
  5
37
330
2E
100
AcDbEntity
  8
MEGA_001669
  6
CONTINUOUS
 62
     7
 48
25.4
100
AcDbLine
 10
86.0912778668
 20
31.3037197044
 30
0.0
 11
86.141141918
 21
31.0519389531
 31
0.0
  0
CIRCLE
  5
38
330
2E
100
AcDbEntity
  8
MEGA_001669
  6
CONTINUOUS
 62
     7
 48
25.4
100
AcDbCircle
 10
83.6579929441
 20
170.9668523241
 30
0.0
 40
11.70000000000001
  0
LINE
  5
39
330
2E
100
AcDbEntity
  8
MEGA_001669
  6
CONTINUOUS
 62
     7
 48
25.4
100
AcDbLine
 10
81.1748439702
 20
31.0519389531
 30
0.0
 11
81.2247080213
 21
31.3037197044
 31
0.0
  0
ARC
  5
3A
330
2E
100
AcDbEntity
  8
MEGA_001669
  6
CONTINUOUS
 62
     7
 48
25.4
100
AcDbCircle
 10
65.6579929441
 20
33.9668523241
 30
0.0
 40
3.0
100
AcDbArc
 50
180.0
 51
270.0
  0
LINE
  5
3B
330
2E
100
AcDbEntity
  8
MEGA_001669
  6
CONTINUOUS
 62
     7
 48
25.4
100
AcDbLine
 10
86.6408373315
 20
30.9668523241
 30
0.0
 11
101.6579929441
 21
30.9668523241
 31
0.0
  0
ARC
  5
3C
330
2E
100
AcDbEntity
  8
MEGA_001669
  6
CONTINUOUS
 62
     7
 48
25.4
100
AcDbCircle
 10
101.6579929441
 20
33.9668523241
 30
0.0
 40
3.0
100
AcDbArc
 50
270.0
 51
360.0
  0
ARC
  5
3D
330
2E
100
AcDbEntity
  8
MEGA_001669
  6
CONTINUOUS
 62
     7
 48
25.4
100
AcDbCircle
 10
65.6579929441
 20
261.9668523241
 30
0.0
 40
3.0
100
AcDbArc
 50
90.0
 51
180.0
  0
ARC
  5
3E
330
2E
100
AcDbEntity
  8
MEGA_001669
  6
CONTINUOUS
 62
     7
 48
25.4
100
AcDbCircle
 10
101.6579929441
 20
261.9668523241
 30
0.0
 40
3.0
100
AcDbArc
 50
0.0
 51
90.0
  0
ELLIPSE
  5
3F
330
2E
100
AcDbEntity
  8
MEGA_001669
  6
CONTINUOUS
 62
     7
 48
25.4
100
AcDbEllipse
 10
80.6751485567
 20
31.0550158145
 30
0.0
 11
0.5000000000000004
 21
0.0
 31
0.0
210
0.0
220
0.0
230
1.0
 40
0.1763269807
 41
4.71238898038469
 42
6.248278722139347
  0
ELLIPSE
  5
40
330
2E
100
AcDbEntity
  8
MEGA_001669
  6
CONTINUOUS
 62
     7
 48
25.4
100
AcDbEllipse
 10
86.6408373315
 20
31.0550158145
 30
0.0
 11
-0.5000000000000004
 21
0.0
 31
0.0
210
0.0
220
0.0
230
1.0
 40
0.1763269807
 41
0.0349065850394244
 42
1.570796326794897
  0
ELLIPSE
  5
41
330
2E
100
AcDbEntity
  8
MEGA_001669
  6
CONTINUOUS
 62
     7
 48
25.4
100
AcDbEllipse
 10
81.5245252694
 20
31.3018735875
 30
0.0
 11
-0.3000000000000004
 21
0.0
 31
0.0
210
0.0
220
0.0
230
1.0
 40
0.1763269807
 41
4.71238898038469
 42
6.248278722139331
  0
ELLIPSE
  5
42
330
2E
100
AcDbEntity
  8
MEGA_001669
  6
CONTINUOUS
 62
     7
 48
25.4
100
AcDbEllipse
 10
85.7914606187
 20
31.3018735875
 30
0.0
 11
0.3000000000000004
 21
0.0
 31
0.0
210
0.0
220
0.0
230
1.0
 40
0.1763269807
 41
0.0349065850402547
 42
1.570796326794897
  0
LINE
  5
45
330
2E
100
AcDbEntity
  8
STANDARD
  6
CENTER2
 62
     7
 48
25.4
100
AcDbLine
 10
83.6579929441
 20
269.7381178131
 30
0.0
 11
83.6579929441
 21
27.8192037084
 31
0.0
  0
LINE
  5
46
330
2E
100
AcDbEntity
  8
STANDARD
  6
CENTER2
 62
     7
 48
25.4
100
AcDbLine
 10
72.4579929441
 20
170.9668523241
 30
0.0
 11
94.8579929441
 21
170.9668523241
 31
0.0
  0
ENDBLK
  5
48
330
2E
100
AcDbEntity
  8
0
100
AcDbBlockEnd
  0
BLOCK
  5
59
330
49
100
AcDbEntity
  8
0
100
AcDbBlockBegin
  2
SE1
 70
     0
 71
     0
 10
0.0
 20
0.0
 30
0.0
  3
SE1
  1

  0
LINE
  5
4B
330
49
100
AcDbEntity
  8
MEGA_001669
  6
CONTINUOUS
 62
     7
 48
25.4
100
AcDbLine
 10
148.5030526664
 20
261.9668523241
 30
0.0
 11
148.5030526664
 21
33.9668523241
 31
0.0
  0
LINE
  5
4C
330
49
100
AcDbEntity
  8
MEGA_001669
  6
CONTINUOUS
 62
     7
 48
25.4
100
AcDbLine
 10
155.0030526664
 20
261.9668523241
 30
0.0
 11
155.0030526664
 21
33.9668523241
 31
0.0
  0
SPLINE
  5
4D
330
49
100
AcDbEntity
  8
MEGA_001669
  6
CENTER2
 62
     7
 48
25.4
100
AcDbSpline
210
0.0
220
0.0
230
1.0
 70
    24
 71
     3
 72
     8
 73
     4
 74
     0
 42
0.0000000001
 43
0.0000000001
 40
0.0
 40
0.0
 40
0.0
 40
0.0
 40
1.0
 40
1.0
 40
1.0
 40
1.0
 10
148.9156618224752
 20
150.0256995877793
 30
0.0
 10
148.9156543117357
 20
150.0257674573628
 30
0.0
 10
148.915646800393
 20
150.0258353270847
 30
0.0
 10
148.9156392884473
 20
150.0259031969439
 30
0.0
  0
SPLINE
  5
4E
330
49
100
AcDbEntity
  8
MEGA_001669
  6
CENTER2
 62
     7
 48
25.4
100
AcDbSpline
210
0.0
220
0.0
230
1.0
 70
    24
 71
     3
 72
     8
 73
     4
 74
     0
 42
0.0000000001
 43
0.0000000001
 40
0.0
 40
0.0
 40
0.0
 40
0.0
 40
1.0
 40
1.0
 40
1.0
 40
1.0
 10
148.9156618224751
 20
70.02569958777934
 30
0.0
 10
148.9156543117357
 20
70.02576745736273
 30
0.0
 10
148.915646800393
 20
70.02583532708465
 30
0.0
 10
148.9156392884473
 20
70.02590319694383
 30
0.0
  0
SPLINE
  5
4F
330
49
100
AcDbEntity
  8
MEGA_001669
  6
CENTER2
 62
     7
 48
25.4
100
AcDbSpline
210
0.0
220
0.0
230
1.0
 70
    24
 71
     3
 72
     8
 73
     4
 74
     0
 42
0.0000000001
 43
0.0000000001
 40
0.0
 40
0.0
 40
0.0
 40
0.0
 40
1.0
 40
1.0
 40
1.0
 40
1.0
 10
148.9156618224752
 20
230.0256995877793
 30
0.0
 10
148.9156543117357
 20
230.0257674573628
 30
0.0
 10
148.9156468003931
 20
230.0258353270847
 30
0.0
 10
148.9156392884473
 20
230.0259031969438
 30
0.0
  0
ARC
  5
50
330
49
100
AcDbEntity
  8
MEGA_001669
  6
CONTINUOUS
 62
     7
 48
25.4
100
AcDbCircle
 10
153.7530526664
 20
262.7718524106
 30
0.0
 40
1.25
100
AcDbArc
 50
0.0
 51
80.0
  0
ARC
  5
51
330
49
100
AcDbEntity
  8
MEGA_001669
  6
CONTINUOUS
 62
     7
 48
25.4
100
AcDbCircle
 10
153.7530526664
 20
33.1618522377
 30
0.0
 40
1.25
100
AcDbArc
 50
280.0
 51
360.0
  0
LINE
  5
52
330
49
100
AcDbEntity
  8
MEGA_001669
  6
CONTINUOUS
 62
     7
 48
25.4
100
AcDbLine
 10
148.5030526664
 20
261.9668523241
 30
0.0
 11
148.5030526664
 21
264.9668523241
 31
0.0
  0
LINE
  5
53
330
49
100
AcDbEntity
  8
MEGA_001669
  6
CONTINUOUS
 62
     7
 48
25.4
100
AcDbLine
 10
148.5030526664
 20
264.9668523241
 30
0.0
 11
153.9701128884
 21
264.0028621018
 31
0.0
  0
LINE
  5
54
330
49
100
AcDbEntity
  8
MEGA_001669
  6
CONTINUOUS
 62
     7
 48
25.4
100
AcDbLine
 10
148.5030526664
 20
30.9668523241
 30
0.0
 11
148.5030526664
 21
33.9668523241
 31
0.0
  0
LINE
  5
55
330
49
100
AcDbEntity
  8
MEGA_001669
  6
CONTINUOUS
 62
     7
 48
25.4
100
AcDbLine
 10
153.9701128884
 20
31.9308425465
 30
0.0
 11
148.5030526664
 21
30.9668523241
 31
0.0
  0
LINE
  5
56
330
49
100
AcDbEntity
  8
MEGA_001669
  6
CONTINUOUS
 62
     7
 48
25.4
100
AcDbLine
 10
155.0030526664
 20
262.7718524106
 30
0.0
 11
155.0030526664
 21
261.9668523241
 31
0.0
  0
LINE
  5
57
330
49
100
AcDbEntity
  8
MEGA_001669
  6
CONTINUOUS
 62
     7
 48
25.4
100
AcDbLine
 10
155.0030526664
 20
33.9668523241
 30
0.0
 11
155.0030526664
 21
33.1618522377
 31
0.0
  0
LINE
  5
58
330
49
100
AcDbEntity
  8
STANDARD
  6
CENTER2
 62
     7
 48
25.4
100
AcDbLine
 10
143.5026778002
 20
170.9668523241
 30
0.0
 11
159.700149428
 21
170.9668523241
 31
0.0
  0
ENDBLK
  5
5A
330
49
100
AcDbEntity
  8
0
100
AcDbBlockEnd
  0
BLOCK
  5
64
330
5B
100
AcDbEntity
  8
0
100
AcDbBlockBegin
  2
SE2
 70
     0
 71
     0
 10
0.0
 20
0.0
 30
0.0
  3
SE2
  1

  0
POLYLINE
  5
5E
330
5B
100
AcDbEntity
  8
DEFAULT
  6
CONTINUOUS
 62
     7
 48
25.4
100
AcDb2dPolyline
 66
     1
 10
0.0
 20
0.0
 30
0.0
 70
     1
  0
VERTEX
  5
8F
330
5E
100
AcDbEntity
  8
DEFAULT
  6
CONTINUOUS
 62
     7
100
AcDbVertex
100
AcDb2dVertex
 10
39.3894763818
 20
261.9668522981
 30
0.0
  0
VERTEX
  5
90
330
5E
100
AcDbEntity
  8
DEFAULT
  6
CONTINUOUS
 62
     7
100
AcDbVertex
100
AcDb2dVertex
 10
39.8894763862
 20
264.9668523241
 30
0.0
  0
VERTEX
  5
91
330
5E
100
AcDbEntity
  8
DEFAULT
  6
CONTINUOUS
 62
     7
100
AcDbVertex
100
AcDb2dVertex
 10
40.3894763905
 20
261.9668522981
 30
0.0
  0
VERTEX
  5
92
330
5E
100
AcDbEntity
  8
DEFAULT
  6
CONTINUOUS
 62
     7
100
AcDbVertex
100
AcDb2dVertex
 10
39.3894763818
 20
261.9668522981
 30
0.0
  0
SEQEND
  5
8E
330
5E
100
AcDbEntity
  8
DEFAULT
  6
CONTINUOUS
 62
     7
 48
25.4
  0
LINE
  5
5F
330
5B
100
AcDbEntity
  8
DEFAULT
  6
CONTINUOUS
 62
     7
 48
25.4
100
AcDbLine
 10
73.1665707504
 20
30.9668523241
 30
0.0
 11
38.3894763732
 21
30.9668523241
 31
0.0
  0
LINE
  5
60
330
5B
100
AcDbEntity
  8
DEFAULT
  6
CONTINUOUS
 62
     7
 48
25.4
100
AcDbLine
 10
65.6579929441
 20
264.9668523241
 30
0.0
 11
38.3894763732
 21
264.9668523241
 31
0.0
  0
LINE
  5
61
330
5B
100
AcDbEntity
  8
DEFAULT
  6
CONTINUOUS
 62
     7
 48
25.4
100
AcDbLine
 10
39.8894763862
 20
30.9668523241
 30
0.0
 11
39.8894763862
 21
264.9668497015
 31
0.0
  0
TEXT
  5
63
330
5B
100
AcDbEntity
  8
DEFAULT
  6
CONTINUOUS
 62
     7
 48
25.4
100
AcDbText
 10
39.1394763862
 20
145.3759419219
 30
0.0
 40
3.0
  1
234
 50
90.0
  7
SEACAD_SEISO_TTF
 11
36.1394763862
 21
145.3759419219
 31
0.0
100
AcDbText
 73
     3
  0
ENDBLK
  5
65
330
5B
100
AcDbEntity
  8
0
100
AcDbBlockEnd
  0
BLOCK
  5
6E
330
66
100
AcDbEntity
  8
0
100
AcDbBlockBegin
  2
SE3
 70
     0
 71
     0
 10
0.0
 20
0.0
 30
0.0
  3
SE3
  1

  0
POLYLINE
  5
68
330
66
100
AcDbEntity
  8
DEFAULT
  6
CONTINUOUS
 62
     7
 48
25.4
100
AcDb2dPolyline
 66
     1
 10
0.0
 20
0.0
 30
0.0
 70
     1
  0
VERTEX
  5
94
330
68
100
AcDbEntity
  8
DEFAULT
  6
CONTINUOUS
 62
     7
100
AcDbVertex
100
AcDb2dVertex
 10
48.1284825043
 20
173.9668523502
 30
0.0
  0
VERTEX
  5
95
330
68
100
AcDbEntity
  8
DEFAULT
  6
CONTINUOUS
 62
     7
100
AcDbVertex
100
AcDb2dVertex
 10
48.6284825086
 20
170.9668523241
 30
0.0
  0
VERTEX
  5
96
330
68
100
AcDbEntity
  8
DEFAULT
  6
CONTINUOUS
 62
     7
100
AcDbVertex
100
AcDb2dVertex
 10
49.1284825129
 20
173.9668523502
 30
0.0
  0
VERTEX
  5
97
330
68
100
AcDbEntity
  8
DEFAULT
  6
CONTINUOUS
 62
     7
100
AcDbVertex
100
AcDb2dVertex
 10
48.1284825043
 20
173.9668523502
 30
0.0
  0
SEQEND
  5
93
330
68
100
AcDbEntity
  8
DEFAULT
  6
CONTINUOUS
 62
     7
 48
25.4
  0
POLYLINE
  5
69
330
66
100
AcDbEntity
  8
DEFAULT
  6
CONTINUOUS
 62
     7
 48
25.4
100
AcDb2dPolyline
 66
     1
 10
0.0
 20
0.0
 30
0.0
 70
     1
  0
VERTEX
  5
99
330
69
100
AcDbEntity
  8
DEFAULT
  6
CONTINUOUS
 62
     7
100
AcDbVertex
100
AcDb2dVertex
 10
48.1284825043
 20
261.9668522981
 30
0.0
  0
VERTEX
  5
9A
330
69
100
AcDbEntity
  8
DEFAULT
  6
CONTINUOUS
 62
     7
100
AcDbVertex
100
AcDb2dVertex
 10
48.6284825086
 20
264.9668523241
 30
0.0
  0
VERTEX
  5
9B
330
69
100
AcDbEntity
  8
DEFAULT
  6
CONTINUOUS
 62
     7
100
AcDbVertex
100
AcDb2dVertex
 10
49.1284825129
 20
261.9668522981
 30
0.0
  0
VERTEX
  5
9C
330
69
100
AcDbEntity
  8
DEFAULT
  6
CONTINUOUS
 62
     7
100
AcDbVertex
100
AcDb2dVertex
 10
48.1284825043
 20
261.9668522981
 30
0.0
  0
SEQEND
  5
98
330
69
100
AcDbEntity
  8
DEFAULT
  6
CONTINUOUS
 62
     7
 48
25.4
  0
LINE
  5
6A
330
66
100
AcDbEntity
  8
DEFAULT
  6
CONTINUOUS
 62
     7
 48
25.4
100
AcDbLine
 10
72.4579929441
 20
170.9668523241
 30
0.0
 11
47.1284824956
 21
170.9668523241
 31
0.0
  0
LINE
  5
6B
330
66
100
AcDbEntity
  8
DEFAULT
  6
CONTINUOUS
 62
     7
 48
25.4
100
AcDbLine
 10
65.6579929441
 20
264.9668523241
 30
0.0
 11
47.1284824956
 21
264.9668523241
 31
0.0
  0
LINE
  5
6C
330
66
100
AcDbEntity
  8
DEFAULT
  6
CONTINUOUS
 62
     7
 48
25.4
100
AcDbLine
 10
48.6284825086
 20
170.9668523241
 30
0.0
 11
48.6284825086
 21
264.9668491055
 31
0.0
  0
TEXT
  5
6D
330
66
100
AcDbEntity
  8
DEFAULT
  6
CONTINUOUS
 62
     7
 48
25.4
100
AcDbText
 10
47.8784825086
 20
216.160032533
 30
0.0
 40
3.0
  1
94
 50
90.0
  7
SEACAD_SEISO_TTF
 11
44.8784825086
 21
216.160032533
 31
0.0
100
AcDbText
 73
     3
  0
ENDBLK
  5
6F
330
66
100
AcDbEntity
  8
0
100
AcDbBlockEnd
  0
BLOCK
  5
78
330
70
100
AcDbEntity
  8
0
100
AcDbBlockBegin
  2
SE4
 70
     0
 71
     0
 10
0.0
 20
0.0
 30
0.0
  3
SE4
  1

  0
POLYLINE
  5
72
330
70
100
AcDbEntity
  8
DEFAULT
  6
CONTINUOUS
 62
     7
 48
25.4
100
AcDb2dPolyline
 66
     1
 10
0.0
 20
0.0
 30
0.0
 70
     1
  0
VERTEX
  5
9E
330
72
100
AcDbEntity
  8
DEFAULT
  6
CONTINUOUS
 62
     7
100
AcDbVertex
100
AcDb2dVertex
 10
65.6579929701
 20
282.351095936
 30
0.0
  0
VERTEX
  5
9F
330
72
100
AcDbEntity
  8
DEFAULT
  6
CONTINUOUS
 62
     7
100
AcDbVertex
100
AcDb2dVertex
 10
62.6579929441
 20
281.8510959317
 30
0.0
  0
VERTEX
  5
A0
330
72
100
AcDbEntity
  8
DEFAULT
  6
CONTINUOUS
 62
     7
100
AcDbVertex
100
AcDb2dVertex
 10
65.6579929701
 20
281.3510959273
 30
0.0
  0
VERTEX
  5
A1
330
72
100
AcDbEntity
  8
DEFAULT
  6
CONTINUOUS
 62
     7
100
AcDbVertex
100
AcDb2dVertex
 10
65.6579929701
 20
282.351095936
 30
0.0
  0
SEQEND
  5
9D
330
72
100
AcDbEntity
  8
DEFAULT
  6
CONTINUOUS
 62
     7
 48
25.4
  0
POLYLINE
  5
73
330
70
100
AcDbEntity
  8
DEFAULT
  6
CONTINUOUS
 62
     7
 48
25.4
100
AcDb2dPolyline
 66
     1
 10
0.0
 20
0.0
 30
0.0
 70
     1
  0
VERTEX
  5
A3
330
73
100
AcDbEntity
  8
DEFAULT
  6
CONTINUOUS
 62
     7
100
AcDbVertex
100
AcDb2dVertex
 10
101.657992918
 20
282.351095936
 30
0.0
  0
VERTEX
  5
A4
330
73
100
AcDbEntity
  8
DEFAULT
  6
CONTINUOUS
 62
     7
100
AcDbVertex
100
AcDb2dVertex
 10
104.6579929441
 20
281.8510959317
 30
0.0
  0
VERTEX
  5
A5
330
73
100
AcDbEntity
  8
DEFAULT
  6
CONTINUOUS
 62
     7
100
AcDbVertex
100
AcDb2dVertex
 10
101.657992918
 20
281.3510959273
 30
0.0
  0
VERTEX
  5
A6
330
73
100
AcDbEntity
  8
DEFAULT
  6
CONTINUOUS
 62
     7
100
AcDbVertex
100
AcDb2dVertex
 10
101.657992918
 20
282.351095936
 30
0.0
  0
SEQEND
  5
A2
330
73
100
AcDbEntity
  8
DEFAULT
  6
CONTINUOUS
 62
     7
 48
25.4
  0
LINE
  5
74
330
70
100
AcDbEntity
  8
DEFAULT
  6
CONTINUOUS
 62
     7
 48
25.4
100
AcDbLine
 10
62.6579929441
 20
261.9668523241
 30
0.0
 11
62.6579929441
 21
283.3510959447
 31
0.0
  0
LINE
  5
75
330
70
100
AcDbEntity
  8
DEFAULT
  6
CONTINUOUS
 62
     7
 48
25.4
100
AcDbLine
 10
104.6579929441
 20
261.9668523241
 30
0.0
 11
104.6579929441
 21
283.3510959447
 31
0.0
  0
LINE
  5
76
330
70
100
AcDbEntity
  8
DEFAULT
  6
CONTINUOUS
 62
     7
 48
25.4
100
AcDbLine
 10
62.6579929441
 20
281.8510959317
 30
0.0
 11
104.6579923778
 21
281.8510959317
 31
0.0
  0
TEXT
  5
77
330
70
100
AcDbEntity
  8
DEFAULT
  6
CONTINUOUS
 62
     7
 48
25.4
100
AcDbText
 10
81.8511744791
 20
282.6010959317
 30
0.0
 40
3.0
  1
42
  7
SEACAD_SEISO_TTF
 11
81.8511744791
 21
285.6010959317
 31
0.0
100
AcDbText
 73
     3
  0
ENDBLK
  5
79
330
70
100
AcDbEntity
  8
0
100
AcDbBlockEnd
  0
BLOCK
  5
82
330
7A
100
AcDbEntity
  8
0
100
AcDbBlockBegin
  2
SE5
 70
     0
 71
     0
 10
0.0
 20
0.0
 30
0.0
  3
SE5
  1

  0
POLYLINE
  5
7C
330
7A
100
AcDbEntity
  8
DEFAULT
  6
CONTINUOUS
 62
     7
 48
25.4
100
AcDb2dPolyline
 66
     1
 10
0.0
 20
0.0
 30
0.0
 70
     1
  0
VERTEX
  5
A8
330
7C
100
AcDbEntity
  8
DEFAULT
  6
CONTINUOUS
 62
     7
100
AcDbVertex
100
AcDb2dVertex
 10
145.5030526403
 20
281.7128065589
 30
0.0
  0
VERTEX
  5
A9
330
7C
100
AcDbEntity
  8
DEFAULT
  6
CONTINUOUS
 62
     7
100
AcDbVertex
100
AcDb2dVertex
 10
148.5030526664
 20
281.2128065546
 30
0.0
  0
VERTEX
  5
AA
330
7C
100
AcDbEntity
  8
DEFAULT
  6
CONTINUOUS
 62
     7
100
AcDbVertex
100
AcDb2dVertex
 10
145.5030526403
 20
280.7128065502
 30
0.0
  0
VERTEX
  5
AB
330
7C
100
AcDbEntity
  8
DEFAULT
  6
CONTINUOUS
 62
     7
100
AcDbVertex
100
AcDb2dVertex
 10
145.5030526403
 20
281.7128065589
 30
0.0
  0
SEQEND
  5
A7
330
7C
100
AcDbEntity
  8
DEFAULT
  6
CONTINUOUS
 62
     7
 48
25.4
  0
POLYLINE
  5
7D
330
7A
100
AcDbEntity
  8
DEFAULT
  6
CONTINUOUS
 62
     7
 48
25.4
100
AcDb2dPolyline
 66
     1
 10
0.0
 20
0.0
 30
0.0
 70
     1
  0
VERTEX
  5
AD
330
7D
100
AcDbEntity
  8
DEFAULT
  6
CONTINUOUS
 62
     7
100
AcDbVertex
100
AcDb2dVertex
 10
158.0030526924
 20
281.7128065589
 30
0.0
  0
VERTEX
  5
AE
330
7D
100
AcDbEntity
  8
DEFAULT
  6
CONTINUOUS
 62
     7
100
AcDbVertex
100
AcDb2dVertex
 10
155.0030526664
 20
281.2128065546
 30
0.0
  0
VERTEX
  5
AF
330
7D
100
AcDbEntity
  8
DEFAULT
  6
CONTINUOUS
 62
     7
100
AcDbVertex
100
AcDb2dVertex
 10
158.0030526924
 20
280.7128065502
 30
0.0
  0
VERTEX
  5
B0
330
7D
100
AcDbEntity
  8
DEFAULT
  6
CONTINUOUS
 62
     7
100
AcDbVertex
100
AcDb2dVertex
 10
158.0030526924
 20
281.7128065589
 30
0.0
  0
SEQEND
  5
AC
330
7D
100
AcDbEntity
  8
DEFAULT
  6
CONTINUOUS
 62
     7
 48
25.4
  0
LINE
  5
7E
330
7A
100
AcDbEntity
  8
DEFAULT
  6
CONTINUOUS
 62
     7
 48
25.4
100
AcDbLine
 10
148.5030526664
 20
261.9668523241
 30
0.0
 11
148.5030526664
 21
282.7128065676
 31
0.0
  0
LINE
  5
7F
330
7A
100
AcDbEntity
  8
DEFAULT
  6
CONTINUOUS
 62
     7
 48
25.4
100
AcDbLine
 10
155.0030526664
 20
261.9668523241
 30
0.0
 11
155.0030526664
 21
282.7128065676
 31
0.0
  0
LINE
  5
80
330
7A
100
AcDbEntity
  8
DEFAULT
  6
CONTINUOUS
 62
     7
 48
25.4
100
AcDbLine
 10
142.5030526142
 20
281.2128065546
 30
0.0
 11
161.0030528526
 21
281.2128065546
 31
0.0
  0
TEXT
  5
81
330
7A
100
AcDbEntity
  8
DEFAULT
  6
CONTINUOUS
 62
     7
 48
25.4
100
AcDbText
 10
149.707598188
 20
281.9628065546
 30
0.0
 40
3.0
  1
6,5
  7
SEACAD_SEISO_TTF
 11
149.707598188
 21
284.9628065546
 31
0.0
100
AcDbText
 73
     3
  0
ENDBLK
  5
83
330
7A
100
AcDbEntity
  8
0
100
AcDbBlockEnd
  0
BLOCK
  5
8C
330
84
100
AcDbEntity
  8
0
100
AcDbBlockBegin
  2
SE6
 70
     0
 71
     0
 10
0.0
 20
0.0
 30
0.0
  3
SE6
  1

  0
POLYLINE
  5
86
330
84
100
AcDbEntity
  8
DEFAULT
  6
CONTINUOUS
 62
     7
 48
25.4
100
AcDb2dPolyline
 66
     1
 10
0.0
 20
0.0
 30
0.0
 70
     1
  0
VERTEX
  5
B2
330
86
100
AcDbEntity
  8
DEFAULT
  6
CONTINUOUS
 62
     7
100
AcDbVertex
100
AcDb2dVertex
 10
131.7403626046
 20
162.766854452
 30
0.0
  0
VERTEX
  5
B3
330
86
100
AcDbEntity
  8
DEFAULT
  6
CONTINUOUS
 62
     7
100
AcDbVertex
100
AcDb2dVertex
 10
131.2403627314
 20
159.766854404
 30
0.0
  0
VERTEX
  5
B4
330
86
100
AcDbEntity
  8
DEFAULT
  6
CONTINUOUS
 62
     7
100
AcDbVertex
100
AcDb2dVertex
 10
130.7403625959
 20
162.7668544083
 30
0.0
  0
VERTEX
  5
B5
330
86
100
AcDbEntity
  8
DEFAULT
  6
CONTINUOUS
 62
     7
100
AcDbVertex
100
AcDb2dVertex
 10
131.7403626046
 20
162.766854452
 30
0.0
  0
SEQEND
  5
B1
330
86
100
AcDbEntity
  8
DEFAULT
  6
CONTINUOUS
 62
     7
 48
25.4
  0
POLYLINE
  5
87
330
84
100
AcDbEntity
  8
DEFAULT
  6
CONTINUOUS
 62
     7
 48
25.4
100
AcDb2dPolyline
 66
     1
 10
0.0
 20
0.0
 30
0.0
 70
     1
  0
VERTEX
  5
B7
330
87
100
AcDbEntity
  8
DEFAULT
  6
CONTINUOUS
 62
     7
100
AcDbVertex
100
AcDb2dVertex
 10
131.7403618877
 20
179.1668543998
 30
0.0
  0
VERTEX
  5
B8
330
87
100
AcDbEntity
  8
DEFAULT
  6
CONTINUOUS
 62
     7
100
AcDbVertex
100
AcDb2dVertex
 10
131.2403617522
 20
182.166854404
 30
0.0
  0
VERTEX
  5
B9
330
87
100
AcDbEntity
  8
DEFAULT
  6
CONTINUOUS
 62
     7
100
AcDbVertex
100
AcDb2dVertex
 10
130.740361879
 20
179.1668543561
 30
0.0
  0
VERTEX
  5
BA
330
87
100
AcDbEntity
  8
DEFAULT
  6
CONTINUOUS
 62
     7
100
AcDbVertex
100
AcDb2dVertex
 10
131.7403618877
 20
179.1668543998
 30
0.0
  0
SEQEND
  5
B6
330
87
100
AcDbEntity
  8
DEFAULT
  6
CONTINUOUS
 62
     7
 48
25.4
  0
LINE
  5
88
330
84
100
AcDbEntity
  8
DEFAULT
  6
CONTINUOUS
 62
     7
 48
25.4
100
AcDbLine
 10
83.6579934336
 20
159.7668523241
 30
0.0
 11
132.7403627444
 21
159.7668544696
 31
0.0
  0
LINE
  5
89
330
84
100
AcDbEntity
  8
DEFAULT
  6
CONTINUOUS
 62
     7
 48
25.4
100
AcDbLine
 10
83.6579924545
 20
182.1668523241
 30
0.0
 11
132.7403617653
 21
182.1668544696
 31
0.0
  0
LINE
  5
8A
330
84
100
AcDbEntity
  8
DEFAULT
  6
CONTINUOUS
 62
     7
 48
25.4
100
AcDbLine
 10
131.2403627314
 20
159.766854404
 30
0.0
 11
131.2403617522
 21
182.1668536053
 31
0.0
  0
TEXT
  5
8B
330
84
100
AcDbEntity
  8
DEFAULT
  6
CONTINUOUS
 62
     7
 48
25.4
100
AcDbText
 10
130.4903622418
 20
167.169126732
 30
0.0
 40
3.0
  1
16/18
 50
90.0
  7
SEACAD_SEISO_TTF
 11
127.4903622418
 21
167.169126732
 31
0.0
100
AcDbText
 73
     3
  0
ENDBLK
  5
8D
330
84
100
AcDbEntity
  8
0
100
AcDbBlockEnd
  0
ENDSEC
  0
SECTION
  2
ENTITIES
  0
INSERT
  5
2F
330
1F
100
AcDbEntity
  8
0
100
AcDbBlockReference
  2
SE
 10
0.0
 20
0.0
 30
0.0
  0
INSERT
  5
4A
330
1F
100
AcDbEntity
  8
0
100
AcDbBlockReference
  2
SE1
 10
0.0
 20
0.0
 30
0.0
  0
INSERT
  5
5C
330
1F
100
AcDbEntity
  8
0
100
AcDbBlockReference
  2
SE2
 10
0.0
 20
0.0
 30
0.0
  0
INSERT
  5
67
330
1F
100
AcDbEntity
  8
0
100
AcDbBlockReference
  2
SE3
 10
0.0
 20
0.0
 30
0.0
  0
INSERT
  5
71
330
1F
100
AcDbEntity
  8
0
100
AcDbBlockReference
  2
SE4
 10
0.0
 20
0.0
 30
0.0
  0
INSERT
  5
7B
330
1F
100
AcDbEntity
  8
0
100
AcDbBlockReference
  2
SE5
 10
0.0
 20
0.0
 30
0.0
  0
INSERT
  5
85
330
1F
100
AcDbEntity
  8
0
100
AcDbBlockReference
  2
SE6
 10
0.0
 20
0.0
 30
0.0
  0
ENDSEC
  0
SECTION
  2
OBJECTS
  0
DICTIONARY
  5
C
330
0
100
AcDbDictionary
  3
ACAD_GROUP
350
D
  3
ACAD_LAYOUT
350
1A
  3
ACAD_MLINESTYLE
350
17
  3
ACAD_PLOTSETTINGS
350
19
  3
ACAD_TABLESTYLE
350
2A
  3
ACDBVARIABLEDICTIONARY
350
2C
1001
ACAD
1000
TREAT_AS_HARD
1070
     0
  0
DICTIONARY
  5
BB
330
29
100
AcDbDictionary
  3
ACAD_XREC_ROUNDTRIP
360
BC
  0
DICTIONARY
  5
D
102
{ACAD_REACTORS
330
C
102
}
330
C
100
AcDbDictionary
1001
ACAD
1000
TREAT_AS_HARD
1070
     0
  0
DICTIONARY
  5
1A
102
{ACAD_REACTORS
330
C
102
}
330
C
100
AcDbDictionary
1001
ACAD
1000
TREAT_AS_HARD
1070
     0
  0
DICTIONARY
  5
17
102
{ACAD_REACTORS
330
C
102
}
330
C
100
AcDbDictionary
  3
STANDARD
350
18
1001
ACAD
1000
TREAT_AS_HARD
1070
     0
  0
DICTIONARY
  5
19
102
{ACAD_REACTORS
330
C
102
}
330
C
100
AcDbDictionary
1001
ACAD
1000
TREAT_AS_HARD
1070
     0
  0
DICTIONARY
  5
2A
102
{ACAD_REACTORS
330
C
102
}
330
C
100
AcDbDictionary
  3
STANDARD
350
2B
1001
ACAD
1000
TREAT_AS_HARD
1070
     0
  0
DICTIONARY
  5
2C
102
{ACAD_REACTORS
330
C
102
}
330
C
100
AcDbDictionary
  3
CTABLESTYLE
350
2D
1001
ACAD
1000
TREAT_AS_HARD
1070
     0
  0
XRECORD
  5
BC
102
{ACAD_REACTORS
330
BB
102
}
330
BB
100
AcDbXrecord
102
UCS
 74
     0
 71
     1
 10
0.0
 20
0.0
 30
0.0
 10
1.0
 20
0.0
 30
0.0
 10
0.0
 20
1.0
 30
0.0
146
0.0
 79
     0
102
VIEW
281
     0
  0
MLINESTYLE
  5
18
102
{ACAD_REACTORS
330
17
102
}
330
17
100
AcDbMlineStyle
  2
Standard
 70
     0
  3

 62
   256
 51
90.0
 52
90.0
 71
     2
 49
0.5
 62
   256
  6
BYLAYER
 49
-0.5
 62
   256
  6
BYLAYER
  0
TABLESTYLE
  5
2B
102
{ACAD_REACTORS
330
2A
102
}
330
2A
100
AcDbTableStyle
  3
Standard
 70
     0
 71
     0
 40
0.06
 41
0.06
280
     0
281
     0
  7
STANDARD
140
0.18
170
     2
 62
     0
 63
     7
283
     0
274
    -2
284
     1
 64
     0
275
    -2
285
     1
 65
     0
276
    -2
286
     1
 66
     0
277
    -2
287
     1
 67
     0
278
    -2
288
     1
 68
     0
279
    -2
289
     1
 69
     0
  7
STANDARD
140
0.25
170
     5
 62
     0
 63
     7
283
     0
274
    -2
284
     1
 64
     0
275
    -2
285
     1
 65
     0
276
    -2
286
     1
 66
     0
277
    -2
287
     1
 67
     0
278
    -2
288
     1
 68
     0
279
    -2
289
     1
 69
     0
  7
STANDARD
140
0.18
170
     5
 62
     0
 63
     7
283
     0
274
    -2
284
     1
 64
     0
275
    -2
285
     1
 65
     0
276
    -2
286
     1
 66
     0
277
    -2
287
     1
 67
     0
278
    -2
288
     1
 68
     0
279
    -2
289
     1
 69
     0
  0
DICTIONARYVAR
  5
2D
102
{ACAD_REACTORS
330
2C
102
}
330
2C
100
DictionaryVariables
280
     0
  1
Standard
  0
ENDSEC
  0
EOF
