  0
SECTION
  2
HEADER
  9
$ACADVER
  1
AC1012
  9
$DWGCODEPAGE
  3
ansi_1252
  9
$INSBASE
 10
0.0
 20
0.0
 30
0.0
  9
$EXTMIN
 10
0.0
 20
0.0
 30
0.0
  9
$EXTMAX
 10
210.0
 20
297.0
 30
0.0
  9
$LIMMIN
 10
0.0
 20
0.0
  9
$LIMMAX
 10
210.0
 20
297.0
  9
$ORTHOMODE
 70
     0
  9
$REGENMODE
 70
     1
  9
$FILLMODE
 70
     1
  9
$QTEXTMODE
 70
     0
  9
$MIRRTEXT
 70
     1
  9
$DRAGMODE
 70
     2
  9
$LTSCALE
 40
1.0
  9
$OSMODE
 70
    37
  9
$ATTMODE
 70
     1
  9
$TEXTSIZE
 40
0.2
  9
$TRACEWID
 40
0.05
  9
$TEXTSTYLE
  7
STANDARD
  9
$CLAYER
  8
0
  9
$CELTYPE
  6
BYLAYER
  9
$CECOLOR
 62
   256
  9
$CELTSCALE
 40
25.4
  9
$DELOBJ
 70
     1
  9
$DISPSILH
 70
     0
  9
$DIMSCALE
 40
1.0
  9
$DIMASZ
 40
0.18
  9
$DIMEXO
 40
0.0625
  9
$DIMDLI
 40
0.38
  9
$DIMRND
 40
0.0
  9
$DIMDLE
 40
0.0
  9
$DIMEXE
 40
0.18
  9
$DIMTP
 40
0.0
  9
$DIMTM
 40
0.0
  9
$DIMTXT
 40
0.18
  9
$DIMCEN
 40
0.09
  9
$DIMTSZ
 40
0.0
  9
$DIMTOL
 70
     0
  9
$DIMLIM
 70
     0
  9
$DIMTIH
 70
     1
  9
$DIMTOH
 70
     1
  9
$DIMSE1
 70
     0
  9
$DIMSE2
 70
     0
  9
$DIMTAD
 70
     0
  9
$DIMZIN
 70
     0
  9
$DIMBLK
  1

  9
$DIMASO
 70
     1
  9
$DIMSHO
 70
     1
  9
$DIMPOST
  1

  9
$DIMAPOST
  1

  9
$DIMALT
 70
     0
  9
$DIMALTD
 70
     2
  9
$DIMALTF
 40
25.4
  9
$DIMLFAC
 40
1.0
  9
$DIMTOFL
 70
     0
  9
$DIMTVP
 40
0.0
  9
$DIMTIX
 70
     0
  9
$DIMSOXD
 70
     0
  9
$DIMSAH
 70
     0
  9
$DIMBLK1
  1

  9
$DIMBLK2
  1

  9
$DIMSTYLE
  2
STANDARD
  9
$DIMCLRD
 70
     0
  9
$DIMCLRE
 70
     0
  9
$DIMCLRT
 70
     0
  9
$DIMTFAC
 40
1.0
  9
$DIMGAP
 40
0.09
  9
$DIMJUST
 70
     0
  9
$DIMSD1
 70
     0
  9
$DIMSD2
 70
     0
  9
$DIMTOLJ
 70
     1
  9
$DIMTZIN
 70
     0
  9
$DIMALTZ
 70
     0
  9
$DIMALTTZ
 70
     0
  9
$DIMFIT
 70
     3
  9
$DIMUPT
 70
     0
  9
$DIMUNIT
 70
     2
  9
$DIMDEC
 70
     4
  9
$DIMTDEC
 70
     4
  9
$DIMALTU
 70
     2
  9
$DIMALTTD
 70
     2
  9
$DIMTXSTY
  7
STANDARD
  9
$DIMAUNIT
 70
     0
  9
$LUNITS
 70
     2
  9
$LUPREC
 70
     4
  9
$SKETCHINC
 40
0.1
  9
$FILLETRAD
 40
0.5
  9
$AUNITS
 70
     0
  9
$AUPREC
 70
     0
  9
$MENU
  1
.
  9
$ELEVATION
 40
0.0
  9
$PELEVATION
 40
0.0
  9
$THICKNESS
 40
0.0
  9
$LIMCHECK
 70
     0
  9
$CHAMFERA
 40
0.5
  9
$CHAMFERB
 40
0.5
  9
$CHAMFERC
 40
1.0
  9
$CHAMFERD
 40
0.0
  9
$SKPOLY
 70
     0
  9
$TDCREATE
 40
2453762.544739687
  9
$TDUPDATE
 40
2453762.544739699
  9
$TDINDWG
 40
0.0000000116
  9
$TDUSRTIMER
 40
0.0000000116
  9
$USRTIMER
 70
     1
  9
$ANGBASE
 50
0.0
  9
$ANGDIR
 70
     0
  9
$PDMODE
 70
     0
  9
$PDSIZE
 40
0.0
  9
$PLINEWID
 40
0.0
  9
$COORDS
 70
     1
  9
$SPLFRAME
 70
     0
  9
$SPLINETYPE
 70
     6
  9
$SPLINESEGS
 70
     8
  9
$ATTDIA
 70
     0
  9
$ATTREQ
 70
     1
  9
$HANDLING
 70
     1
  9
$HANDSEED
  5
E6
  9
$SURFTAB1
 70
     6
  9
$SURFTAB2
 70
     6
  9
$SURFTYPE
 70
     6
  9
$SURFU
 70
     6
  9
$SURFV
 70
     6
  9
$UCSNAME
  2

  9
$UCSORG
 10
0.0
 20
0.0
 30
0.0
  9
$UCSXDIR
 10
1.0
 20
0.0
 30
0.0
  9
$UCSYDIR
 10
0.0
 20
1.0
 30
0.0
  9
$PUCSNAME
  2

  9
$PUCSORG
 10
0.0
 20
0.0
 30
0.0
  9
$PUCSXDIR
 10
1.0
 20
0.0
 30
0.0
  9
$PUCSYDIR
 10
0.0
 20
1.0
 30
0.0
  9
$USERI1
 70
     0
  9
$USERI2
 70
     0
  9
$USERI3
 70
     0
  9
$USERI4
 70
     0
  9
$USERI5
 70
     0
  9
$USERR1
 40
0.0
  9
$USERR2
 40
0.0
  9
$USERR3
 40
0.0
  9
$USERR4
 40
0.0
  9
$USERR5
 40
0.0
  9
$WORLDVIEW
 70
     1
  9
$SHADEDGE
 70
     3
  9
$SHADEDIF
 70
    70
  9
$TILEMODE
 70
     1
  9
$MAXACTVP
 70
    64
  9
$PINSBASE
 10
0.0
 20
0.0
 30
0.0
  9
$PLIMCHECK
 70
     0
  9
$PEXTMIN
 10
0.0
 20
0.0
 30
0.0
  9
$PEXTMAX
 10
210.0
 20
297.0
 30
0.0
  9
$PLIMMIN
 10
0.0
 20
0.0
  9
$PLIMMAX
 10
12.0
 20
9.0
  9
$UNITMODE
 70
     0
  9
$VISRETAIN
 70
     1
  9
$PLINEGEN
 70
     0
  9
$PSLTSCALE
 70
     1
  9
$TREEDEPTH
 70
  3020
  9
$PICKSTYLE
 70
     1
  9
$CMLSTYLE
  2
STANDARD
  9
$CMLJUST
 70
     0
  9
$CMLSCALE
 40
1.0
  9
$SAVEIMAGES
 70
     1
  0
ENDSEC
  0
SECTION
  2
CLASSES
  0
CLASS
  1
ACDBDICTIONARYWDFLT
  2
AcDbDictionaryWithDefault
  3
ObjectDBX Classes
 90
        0
280
     0
281
     0
  0
CLASS
  1
TABLESTYLE
  2
AcDbTableStyle
  3
ObjectDBX Classes
 90
     2047
280
     0
281
     0
  0
CLASS
  1
DICTIONARYVAR
  2
AcDbDictionaryVar
  3
ObjectDBX Classes
 90
        0
280
     0
281
     0
  0
CLASS
  1
XRECORD
  2
AcDbXrecord
  3
AutoCAD 2000
 90
    32768
280
     0
281
     0
  0
CLASS
  1
LWPOLYLINE
  2
AcDbPolyline
  3
AutoCAD 2000
 90
    32768
280
     0
281
     1
  0
CLASS
  1
HATCH
  2
AcDbHatch
  3
AutoCAD 2000
 90
    32768
280
     0
281
     1
  0
CLASS
  1
ACDBPLACEHOLDER
  2
AcDbPlaceHolder
  3
ObjectDBX Classes
 90
        0
280
     0
281
     0
  0
CLASS
  1
LAYOUT
  2
AcDbLayout
  3
ObjectDBX Classes
 90
        0
280
     0
281
     0
  0
ENDSEC
  0
SECTION
  2
TABLES
  0
TABLE
  2
VPORT
  5
8
330
0
100
AcDbSymbolTable
 70
     2
  0
VPORT
  5
29
102
{ACAD_XDICTIONARY
360
E4
102
}
330
8
100
AcDbSymbolTableRecord
100
AcDbViewportTableRecord
  2
*ACTIVE
 70
     0
 10
0.0
 20
0.0
 11
1.0
 21
1.0
 12
10.4299065421
 22
4.5
 13
0.0
 23
0.0
 14
0.5
 24
0.5
 15
0.5
 25
0.5
 16
0.0
 26
0.0
 36
1.0
 17
0.0
 27
0.0
 37
0.0
 40
9.0
 41
1.9729729729
 42
50.0
 43
0.0
 44
0.0
 50
0.0
 51
0.0
 71
     0
 72
   100
 73
     1
 74
     3
 75
     0
 76
     0
 77
     0
 78
     0
  0
ENDTAB
  0
TABLE
  2
LTYPE
  5
5
330
0
100
AcDbSymbolTable
 70
     3
  0
LTYPE
  5
14
330
5
100
AcDbSymbolTableRecord
100
AcDbLinetypeTableRecord
  2
BYBLOCK
 70
     0
  3

 72
    65
 73
     0
 40
0.0
  0
LTYPE
  5
15
330
5
100
AcDbSymbolTableRecord
100
AcDbLinetypeTableRecord
  2
BYLAYER
 70
     0
  3

 72
    65
 73
     0
 40
0.0
  0
LTYPE
  5
16
330
5
100
AcDbSymbolTableRecord
100
AcDbLinetypeTableRecord
  2
CONTINUOUS
 70
     0
  3
Solid line
 72
    65
 73
     0
 40
0.0
  0
LTYPE
  5
32
330
5
100
AcDbSymbolTableRecord
100
AcDbLinetypeTableRecord
  2
HIDDEN2
 70
     0
  3
_ _ _ _ _ _ _ _ _ _ _ _ _ _ _ _ _ _ _ _ _ _ _ _
 72
    65
 73
     2
 40
0.1875
 49
0.125
 74
     4
 75
     0
340
0
 46
0.0
 50
0.0
 44
0.0
 45
0.0
 49
-0.0625
 74
     4
 75
     0
340
0
 46
0.0
 50
0.0
 44
0.0
 45
0.0
  0
LTYPE
  5
35
330
5
100
AcDbSymbolTableRecord
100
AcDbLinetypeTableRecord
  2
CENTER2
 70
     0
  3
___ _ ___ _ ___ _ ___ _ ___ _ ___ _ ___ _ ___ _
 72
    65
 73
     4
 40
1.125
 49
0.75
 74
     4
 75
     0
340
0
 46
0.0
 50
0.0
 44
0.0
 45
0.0
 49
-0.125
 74
     4
 75
     0
340
0
 46
0.0
 50
0.0
 44
0.0
 45
0.0
 49
0.125
 74
     4
 75
     0
340
0
 46
0.0
 50
0.0
 44
0.0
 45
0.0
 49
-0.125
 74
     4
 75
     0
340
0
 46
0.0
 50
0.0
 44
0.0
 45
0.0
  0
ENDTAB
  0
TABLE
  2
LAYER
  5
2
330
0
100
AcDbSymbolTable
 70
     4
  0
LAYER
  5
10
330
2
100
AcDbSymbolTableRecord
100
AcDbLayerTableRecord
  2
0
 70
     0
 62
     7
  6
CONTINUOUS
  0
LAYER
  5
30
330
2
100
AcDbSymbolTableRecord
100
AcDbLayerTableRecord
  2
MEGA_002139
 70
     0
 62
     7
  6
CONTINUOUS
  0
LAYER
  5
34
330
2
100
AcDbSymbolTableRecord
100
AcDbLayerTableRecord
  2
STANDARD
 70
     0
 62
     7
  6
CONTINUOUS
  0
LAYER
  5
6E
330
2
100
AcDbSymbolTableRecord
100
AcDbLayerTableRecord
  2
DEFAULT
 70
     0
 62
     7
  6
CONTINUOUS
  0
ENDTAB
  0
TABLE
  2
STYLE
  5
3
330
0
100
AcDbSymbolTable
 70
     3
  0
STYLE
  5
11
330
3
100
AcDbSymbolTableRecord
100
AcDbTextStyleTableRecord
  2
STANDARD
 70
     0
 40
0.0
 41
1.0
 50
0.0
 71
     0
 42
0.2
  3
txt
  4

  0
STYLE
  5
73
330
3
100
AcDbSymbolTableRecord
100
AcDbTextStyleTableRecord
  2
SEACAD_SEISO_TTF
 70
     0
 40
0.2
 41
1.0
 50
0.0
 71
     0
 42
0.2
  3
seiso.ttf
  4

  0
STYLE
  5
93
330
3
100
AcDbSymbolTableRecord
100
AcDbTextStyleTableRecord
  2
SEACAD_SEMECI1_TTF
 70
     0
 40
0.2
 41
1.0
 50
0.0
 71
     0
 42
0.2
  3
semeci1.ttf
  4

  0
ENDTAB
  0
TABLE
  2
VIEW
  5
6
330
0
100
AcDbSymbolTable
 70
     0
  0
ENDTAB
  0
TABLE
  2
UCS
  5
7
330
0
100
AcDbSymbolTable
 70
     0
  0
ENDTAB
  0
TABLE
  2
APPID
  5
9
330
0
100
AcDbSymbolTable
 70
     1
  0
APPID
  5
12
330
9
100
AcDbSymbolTableRecord
100
AcDbRegAppTableRecord
  2
ACAD
 70
     0
  0
ENDTAB
  0
TABLE
  2
DIMSTYLE
  5
A
330
0
100
AcDbSymbolTable
 70
     1
  0
DIMSTYLE
105
27
330
A
100
AcDbSymbolTableRecord
100
AcDbDimStyleTableRecord
  2
STANDARD
 70
     0
  3

  4

  5

  6

  7

 40
1.0
 41
0.18
 42
0.0625
 43
0.38
 44
0.18
 45
0.0
 46
0.0
 47
0.0
 48
0.0
140
0.18
141
0.09
142
0.0
143
25.4
144
1.0
145
0.0
146
1.0
147
0.09
 71
     0
 72
     0
 73
     1
 74
     1
 75
     0
 76
     0
 77
     0
 78
     0
170
     0
171
     2
172
     0
173
     0
174
     0
175
     0
176
     0
177
     0
178
     0
270
     2
271
     4
272
     4
273
     2
274
     2
340
11
275
     0
280
     0
281
     0
282
     0
283
     1
284
     0
285
     0
286
     0
287
     3
288
     0
  0
ENDTAB
  0
TABLE
  2
BLOCK_RECORD
  5
1
330
0
100
AcDbSymbolTable
 70
     9
  0
BLOCK_RECORD
  5
1F
330
1
100
AcDbSymbolTableRecord
100
AcDbBlockTableRecord
  2
*MODEL_SPACE
  0
BLOCK_RECORD
  5
1B
330
1
100
AcDbSymbolTableRecord
100
AcDbBlockTableRecord
  2
*PAPER_SPACE
  0
BLOCK_RECORD
  5
2E
330
1
100
AcDbSymbolTableRecord
100
AcDbBlockTableRecord
  2
SE
  0
BLOCK_RECORD
  5
3A
330
1
100
AcDbSymbolTableRecord
100
AcDbBlockTableRecord
  2
SE1
  0
BLOCK_RECORD
  5
6C
330
1
100
AcDbSymbolTableRecord
100
AcDbBlockTableRecord
  2
SE2
  0
BLOCK_RECORD
  5
77
330
1
100
AcDbSymbolTableRecord
100
AcDbBlockTableRecord
  2
SE3
  0
BLOCK_RECORD
  5
81
330
1
100
AcDbSymbolTableRecord
100
AcDbBlockTableRecord
  2
SE4
  0
BLOCK_RECORD
  5
8B
330
1
100
AcDbSymbolTableRecord
100
AcDbBlockTableRecord
  2
SE5
  0
BLOCK_RECORD
  5
97
330
1
100
AcDbSymbolTableRecord
100
AcDbBlockTableRecord
  2
SE6
  0
BLOCK_RECORD
  5
A2
330
1
100
AcDbSymbolTableRecord
100
AcDbBlockTableRecord
  2
SE7
  0
ENDTAB
  0
ENDSEC
  0
SECTION
  2
BLOCKS
  0
BLOCK
  5
20
330
1F
100
AcDbEntity
  8
0
100
AcDbBlockBegin
  2
*MODEL_SPACE
 70
     0
 71
     0
 10
0.0
 20
0.0
 30
0.0
  3
*MODEL_SPACE
  1

  0
ENDBLK
  5
21
330
1F
100
AcDbEntity
  8
0
100
AcDbBlockEnd
  0
BLOCK
  5
1C
330
1B
100
AcDbEntity
 67
     1
  8
0
100
AcDbBlockBegin
  2
*PAPER_SPACE
 70
     0
 71
     0
 10
0.0
 20
0.0
 30
0.0
  3
*PAPER_SPACE
  1

  0
ENDBLK
  5
1D
330
1B
100
AcDbEntity
 67
     1
  8
0
100
AcDbBlockEnd
  0
BLOCK
  5
38
330
2E
100
AcDbEntity
  8
0
100
AcDbBlockBegin
  2
SE
 70
     0
 71
     0
 10
0.0
 20
0.0
 30
0.0
  3
SE
  1

  0
CIRCLE
  5
31
330
2E
100
AcDbEntity
  8
MEGA_002139
  6
CONTINUOUS
 62
     7
 48
25.4
100
AcDbCircle
 10
65.1910772088
 20
175.8368253407
 30
0.0
 40
22.51314288780009
  0
CIRCLE
  5
33
330
2E
100
AcDbEntity
  8
MEGA_002139
  6
HIDDEN2
 62
     7
 48
25.4
100
AcDbCircle
 10
65.1910772088
 20
175.8368253407
 30
0.0
 40
10.0
  0
LINE
  5
36
330
2E
100
AcDbEntity
  8
STANDARD
  6
CENTER2
 62
     7
 48
25.4
100
AcDbLine
 10
42.7957615425
 20
175.8368253407
 30
0.0
 11
87.7042200966
 21
175.8368253407
 31
0.0
  0
LINE
  5
37
330
2E
100
AcDbEntity
  8
STANDARD
  6
CENTER2
 62
     7
 48
25.4
100
AcDbLine
 10
65.1910772088
 20
198.232141007
 30
0.0
 11
65.1910772088
 21
153.3236824529
 31
0.0
  0
ENDBLK
  5
39
330
2E
100
AcDbEntity
  8
0
100
AcDbBlockEnd
  0
BLOCK
  5
6A
330
3A
100
AcDbEntity
  8
0
100
AcDbBlockBegin
  2
SE1
 70
     0
 71
     0
 10
0.0
 20
0.0
 30
0.0
  3
SE1
  1

  0
LINE
  5
3C
330
3A
100
AcDbEntity
  8
MEGA_002139
  6
CONTINUOUS
 62
     7
 48
25.4
100
AcDbLine
 10
125.2826630418
 20
166.8368253407
 30
0.0
 11
133.7826630418
 21
166.8368253407
 31
0.0
  0
LINE
  5
3D
330
3A
100
AcDbEntity
  8
MEGA_002139
  6
CONTINUOUS
 62
     7
 48
25.4
100
AcDbLine
 10
125.2826630418
 20
184.8368253407
 30
0.0
 11
125.2826630418
 21
166.8368253407
 31
0.0
  0
LINE
  5
3E
330
3A
100
AcDbEntity
  8
MEGA_002139
  6
CONTINUOUS
 62
     7
 48
25.4
100
AcDbLine
 10
133.7826630418
 20
185.8368253407
 30
0.0
 11
133.7826630418
 21
165.8368253407
 31
0.0
  0
LINE
  5
3F
330
3A
100
AcDbEntity
  8
MEGA_002139
  6
CONTINUOUS
 62
     7
 48
25.4
100
AcDbLine
 10
174.7826630418
 20
197.232179084
 30
0.0
 11
174.7826630418
 21
154.4414715974
 31
0.0
  0
LINE
  5
40
330
3A
100
AcDbEntity
  8
MEGA_002139
  6
HIDDEN2
 62
     7
 48
25.4
100
AcDbLine
 10
143.2826630418
 20
180.8898253407
 30
0.0
 11
127.5826630418
 21
180.8898253407
 31
0.0
  0
LINE
  5
41
330
3A
100
AcDbEntity
  8
MEGA_002139
  6
CONTINUOUS
 62
     7
 48
25.4
100
AcDbLine
 10
158.7826630418
 20
186.709844578
 30
0.0
 11
133.7826630418
 21
185.8368253407
 31
0.0
  0
LINE
  5
42
330
3A
100
AcDbEntity
  8
MEGA_002139
  6
CONTINUOUS
 62
     7
 48
25.4
100
AcDbLine
 10
133.7826630418
 20
165.8368253407
 30
0.0
 11
158.7826630418
 21
164.9638061034
 31
0.0
  0
LINE
  5
43
330
3A
100
AcDbEntity
  8
MEGA_002139
  6
CONTINUOUS
 62
     7
 48
25.4
100
AcDbLine
 10
133.7826630418
 20
184.8368253407
 30
0.0
 11
125.2826630418
 21
184.8368253407
 31
0.0
  0
LINE
  5
44
330
3A
100
AcDbEntity
  8
MEGA_002139
  6
HIDDEN2
 62
     7
 48
25.4
100
AcDbLine
 10
127.5826630418
 20
178.9243500774
 30
0.0
 11
143.2826630418
 21
178.9243500774
 31
0.0
  0
ARC
  5
45
330
3A
100
AcDbEntity
  8
MEGA_002139
  6
HIDDEN2
 62
     7
 48
25.4
100
AcDbCircle
 10
113.6888403425
 20
170.3857971302
 30
0.0
 40
16.30782620809998
100
AcDbArc
 50
31.5731164023
 51
35.4181547085
  0
LINE
  5
46
330
3A
100
AcDbEntity
  8
MEGA_002139
  6
HIDDEN2
 62
     7
 48
25.4
100
AcDbLine
 10
167.2826630418
 20
171.8368253407
 30
0.0
 11
167.2826630418
 21
179.8368253407
 31
0.0
  0
LINE
  5
47
330
3A
100
AcDbEntity
  8
MEGA_002139
  6
HIDDEN2
 62
     7
 48
25.4
100
AcDbLine
 10
167.2826630418
 20
171.8368253407
 30
0.0
 11
126.9788087923
 21
171.8368253407
 31
0.0
  0
LINE
  5
48
330
3A
100
AcDbEntity
  8
MEGA_002139
  6
HIDDEN2
 62
     7
 48
25.4
100
AcDbLine
 10
143.2826630418
 20
172.7493006039
 30
0.0
 11
127.5826630418
 21
172.7493006039
 31
0.0
  0
LINE
  5
49
330
3A
100
AcDbEntity
  8
MEGA_002139
  6
HIDDEN2
 62
     7
 48
25.4
100
AcDbLine
 10
167.2826630418
 20
179.8368253407
 30
0.0
 11
126.9788087923
 21
179.8368253407
 31
0.0
  0
LINE
  5
4A
330
3A
100
AcDbEntity
  8
MEGA_002139
  6
HIDDEN2
 62
     7
 48
25.4
100
AcDbLine
 10
143.2826630418
 20
180.8898253407
 30
0.0
 11
143.2826630418
 21
179.8368253407
 31
0.0
  0
LINE
  5
4B
330
3A
100
AcDbEntity
  8
MEGA_002139
  6
HIDDEN2
 62
     7
 48
25.4
100
AcDbLine
 10
143.2826630418
 20
172.7493006039
 30
0.0
 11
143.2826630418
 21
178.9243500774
 31
0.0
  0
LINE
  5
4C
330
3A
100
AcDbEntity
  8
MEGA_002139
  6
HIDDEN2
 62
     7
 48
25.4
100
AcDbLine
 10
126.7826630418
 20
182.3368253407
 30
0.0
 11
126.7826630418
 21
169.3368253407
 31
0.0
  0
LINE
  5
4D
330
3A
100
AcDbEntity
  8
MEGA_002139
  6
HIDDEN2
 62
     7
 48
25.4
100
AcDbLine
 10
127.5826630418
 20
179.8368253407
 30
0.0
 11
127.5826630418
 21
180.8898253407
 31
0.0
  0
LINE
  5
4E
330
3A
100
AcDbEntity
  8
MEGA_002139
  6
HIDDEN2
 62
     7
 48
25.4
100
AcDbLine
 10
127.5826630418
 20
170.7838253407
 30
0.0
 11
127.5826630418
 21
171.8368253407
 31
0.0
  0
LINE
  5
4F
330
3A
100
AcDbEntity
  8
MEGA_002139
  6
HIDDEN2
 62
     7
 48
25.4
100
AcDbLine
 10
127.5826630418
 20
178.9243500774
 30
0.0
 11
127.5826630418
 21
172.7493006039
 31
0.0
  0
LINE
  5
50
330
3A
100
AcDbEntity
  8
MEGA_002139
  6
HIDDEN2
 62
     7
 48
25.4
100
AcDbLine
 10
143.2826630418
 20
171.8368253407
 30
0.0
 11
143.2826630418
 21
170.7838253407
 31
0.0
  0
LINE
  5
51
330
3A
100
AcDbEntity
  8
MEGA_002139
  6
HIDDEN2
 62
     7
 48
25.4
100
AcDbLine
 10
127.5826630418
 20
172.7493006039
 30
0.0
 11
127.5826630418
 21
178.9243500774
 31
0.0
  0
ARC
  5
52
330
3A
100
AcDbEntity
  8
MEGA_002139
  6
HIDDEN2
 62
     7
 48
25.4
100
AcDbCircle
 10
113.6888403426
 20
181.2878535511
 30
0.0
 40
16.30782620799999
100
AcDbArc
 50
324.5818452915
 51
328.4268835978
  0
ARC
  5
53
330
3A
100
AcDbEntity
  8
MEGA_002139
  6
HIDDEN2
 62
     7
 48
25.4
100
AcDbCircle
 10
113.6888403429
 20
170.3857971305
 30
0.0
 40
16.30782620759999
100
AcDbArc
 50
31.5731164022
 51
35.4181547085
  0
ARC
  5
54
330
3A
100
AcDbEntity
  8
MEGA_002139
  6
HIDDEN2
 62
     7
 48
25.4
100
AcDbCircle
 10
113.6888403426
 20
181.2878535511
 30
0.0
 40
16.30782620799999
100
AcDbArc
 50
324.5818452915
 51
328.4268835978
  0
LINE
  5
55
330
3A
100
AcDbEntity
  8
MEGA_002139
  6
HIDDEN2
 62
     7
 48
25.4
100
AcDbLine
 10
127.5826630418
 20
170.7838253407
 30
0.0
 11
143.2826630418
 21
170.7838253407
 31
0.0
  0
LINE
  5
56
330
3A
100
AcDbEntity
  8
MEGA_002139
  6
HIDDEN2
 62
     7
 48
25.4
100
AcDbLine
 10
126.7826630418
 20
169.9838253407
 30
0.0
 11
127.5826630418
 21
170.7838253407
 31
0.0
  0
LINE
  5
57
330
3A
100
AcDbEntity
  8
MEGA_002139
  6
HIDDEN2
 62
     7
 48
25.4
100
AcDbLine
 10
125.2826630418
 20
169.3368253407
 30
0.0
 11
126.7826630418
 21
169.3368253407
 31
0.0
  0
LINE
  5
58
330
3A
100
AcDbEntity
  8
MEGA_002139
  6
CONTINUOUS
 62
     7
 48
25.4
100
AcDbLine
 10
158.7826630418
 20
195.3368253407
 30
0.0
 11
158.7826630418
 21
156.3368253407
 31
0.0
  0
LINE
  5
59
330
3A
100
AcDbEntity
  8
MEGA_002139
  6
HIDDEN2
 62
     7
 48
25.4
100
AcDbLine
 10
127.5826630418
 20
180.8898253407
 30
0.0
 11
126.7826630418
 21
181.6898253407
 31
0.0
  0
LINE
  5
5A
330
3A
100
AcDbEntity
  8
MEGA_002139
  6
HIDDEN2
 62
     7
 48
25.4
100
AcDbLine
 10
126.7826630418
 20
182.3368253407
 30
0.0
 11
125.2826630418
 21
182.3368253407
 31
0.0
  0
ARC
  5
5B
330
3A
100
AcDbEntity
  8
MEGA_002139
  6
CONTINUOUS
 62
     7
 48
25.4
100
AcDbCircle
 10
173.7826630418
 20
197.232179084
 30
0.0
 40
1.0
100
AcDbArc
 50
0.0
 51
89.5
  0
LINE
  5
5C
330
3A
100
AcDbEntity
  8
MEGA_002139
  6
CONTINUOUS
 62
     7
 48
25.4
100
AcDbLine
 10
160.2962720989
 20
153.3237395683
 30
0.0
 11
173.7913895773
 21
153.4415096743
 31
0.0
  0
LINE
  5
5D
330
3A
100
AcDbEntity
  8
MEGA_002139
  6
CONTINUOUS
 62
     7
 48
25.4
100
AcDbLine
 10
158.783182384
 20
196.850482943
 30
0.0
 11
158.7826631007
 21
195.3371684837
 31
0.0
  0
ARC
  5
5E
330
3A
100
AcDbEntity
  8
MEGA_002139
  6
CONTINUOUS
 62
     7
 48
25.4
100
AcDbCircle
 10
160.2831822957
 20
196.8499682285
 30
0.0
 40
1.5
100
AcDbArc
 50
89.5
 51
179.9803393544
  0
ARC
  5
5F
330
3A
100
AcDbEntity
  8
MEGA_002139
  6
CONTINUOUS
 62
     7
 48
25.4
100
AcDbCircle
 10
173.7826630418
 20
154.4414715974
 30
0.0
 40
1.0
100
AcDbArc
 50
270.5
 51
360.0
  0
LINE
  5
60
330
3A
100
AcDbEntity
  8
MEGA_002139
  6
CONTINUOUS
 62
     7
 48
25.4
100
AcDbLine
 10
173.7913895773
 20
198.232141007
 30
0.0
 11
160.2962720989
 21
198.3499111131
 31
0.0
  0
LINE
  5
61
330
3A
100
AcDbEntity
  8
MEGA_002139
  6
CONTINUOUS
 62
     7
 48
25.4
100
AcDbLine
 10
158.7826631007
 20
156.3364821977
 30
0.0
 11
158.783182384
 21
154.8231677384
 31
0.0
  0
ARC
  5
62
330
3A
100
AcDbEntity
  8
MEGA_002139
  6
CONTINUOUS
 62
     7
 48
25.4
100
AcDbCircle
 10
160.2831822957
 20
154.8236824529
 30
0.0
 40
1.5
100
AcDbArc
 50
180.0196606456
 51
270.5
  0
LINE
  5
63
330
3A
100
AcDbEntity
  8
MEGA_002139
  6
HIDDEN2
 62
     7
 48
25.4
100
AcDbLine
 10
127.5826630418
 20
181.8368253407
 30
0.0
 11
143.2826630418
 21
181.8368253407
 31
0.0
  0
LINE
  5
64
330
3A
100
AcDbEntity
  8
MEGA_002139
  6
HIDDEN2
 62
     7
 48
25.4
100
AcDbLine
 10
143.2826630418
 20
181.8368253407
 30
0.0
 11
143.2826630418
 21
180.8898253407
 31
0.0
  0
LINE
  5
65
330
3A
100
AcDbEntity
  8
MEGA_002139
  6
HIDDEN2
 62
     7
 48
25.4
100
AcDbLine
 10
127.5826630418
 20
169.8368253407
 30
0.0
 11
143.2826630418
 21
169.8368253407
 31
0.0
  0
LINE
  5
66
330
3A
100
AcDbEntity
  8
MEGA_002139
  6
HIDDEN2
 62
     7
 48
25.4
100
AcDbLine
 10
143.2826630418
 20
169.8368253407
 30
0.0
 11
143.2826630418
 21
170.7838253407
 31
0.0
  0
LINE
  5
67
330
3A
100
AcDbEntity
  8
STANDARD
  6
CENTER2
 62
     7
 48
25.4
100
AcDbLine
 10
125.2826630418
 20
175.8368253407
 30
0.0
 11
174.7826630418
 21
175.8368253407
 31
0.0
  0
LINE
  5
68
330
3A
100
AcDbEntity
  8
STANDARD
  6
HIDDEN2
 62
     7
 48
25.4
100
AcDbLine
 10
143.2826630418
 20
171.8368253407
 30
0.0
 11
167.2826630418
 21
179.8368253407
 31
0.0
  0
LINE
  5
69
330
3A
100
AcDbEntity
  8
STANDARD
  6
HIDDEN2
 62
     7
 48
25.4
100
AcDbLine
 10
143.2826630418
 20
179.8368253407
 30
0.0
 11
167.2826630418
 21
171.8368253407
 31
0.0
  0
ENDBLK
  5
6B
330
3A
100
AcDbEntity
  8
0
100
AcDbBlockEnd
  0
BLOCK
  5
75
330
6C
100
AcDbEntity
  8
0
100
AcDbBlockBegin
  2
SE2
 70
     0
 71
     0
 10
0.0
 20
0.0
 30
0.0
  3
SE2
  1

  0
POLYLINE
  5
6F
330
6C
100
AcDbEntity
  8
DEFAULT
  6
CONTINUOUS
 62
     7
 48
25.4
100
AcDb2dPolyline
 66
     1
 10
0.0
 20
0.0
 30
0.0
 70
     1
  0
VERTEX
  5
AE
330
6F
100
AcDbEntity
  8
DEFAULT
  6
CONTINUOUS
 62
     7
100
AcDbVertex
100
AcDb2dVertex
 10
84.7042200705
 20
129.8003258658
 30
0.0
  0
VERTEX
  5
AF
330
6F
100
AcDbEntity
  8
DEFAULT
  6
CONTINUOUS
 62
     7
100
AcDbVertex
100
AcDb2dVertex
 10
87.7042200966
 20
130.3003258702
 30
0.0
  0
VERTEX
  5
B0
330
6F
100
AcDbEntity
  8
DEFAULT
  6
CONTINUOUS
 62
     7
100
AcDbVertex
100
AcDb2dVertex
 10
84.7042200705
 20
130.8003258745
 30
0.0
  0
VERTEX
  5
B1
330
6F
100
AcDbEntity
  8
DEFAULT
  6
CONTINUOUS
 62
     7
100
AcDbVertex
100
AcDb2dVertex
 10
84.7042200705
 20
129.8003258658
 30
0.0
  0
SEQEND
  5
AD
330
6F
100
AcDbEntity
  8
DEFAULT
  6
CONTINUOUS
 62
     7
 48
25.4
  0
LINE
  5
70
330
6C
100
AcDbEntity
  8
DEFAULT
  6
CONTINUOUS
 62
     7
 48
25.4
100
AcDbLine
 10
42.677934321
 20
175.8368253407
 30
0.0
 11
42.677934321
 21
128.8003258572
 31
0.0
  0
LINE
  5
71
330
6C
100
AcDbEntity
  8
DEFAULT
  6
CONTINUOUS
 62
     7
 48
25.4
100
AcDbLine
 10
87.7042200966
 20
175.8368253407
 30
0.0
 11
87.7042200966
 21
128.8003258572
 31
0.0
  0
LINE
  5
72
330
6C
100
AcDbEntity
  8
DEFAULT
  6
CONTINUOUS
 62
     7
 48
25.4
100
AcDbLine
 10
42.677934321
 20
130.3003258702
 30
0.0
 11
87.7042217575
 21
130.3003258702
 31
0.0
  0
TEXT
  5
74
330
6C
100
AcDbEntity
  8
DEFAULT
  6
CONTINUOUS
 62
     7
 48
25.4
100
AcDbText
 10
63.4524416756
 20
131.0503258702
 30
0.0
 40
3.0
  1
45
  7
SEACAD_SEISO_TTF
 11
63.4524416756
 21
134.0503258702
 31
0.0
100
AcDbText
 73
     3
  0
ENDBLK
  5
76
330
6C
100
AcDbEntity
  8
0
100
AcDbBlockEnd
  0
BLOCK
  5
7F
330
77
100
AcDbEntity
  8
0
100
AcDbBlockBegin
  2
SE3
 70
     0
 71
     0
 10
0.0
 20
0.0
 30
0.0
  3
SE3
  1

  0
POLYLINE
  5
79
330
77
100
AcDbEntity
  8
DEFAULT
  6
CONTINUOUS
 62
     7
 48
25.4
100
AcDb2dPolyline
 66
     1
 10
0.0
 20
0.0
 30
0.0
 70
     1
  0
VERTEX
  5
B3
330
79
100
AcDbEntity
  8
DEFAULT
  6
CONTINUOUS
 62
     7
100
AcDbVertex
100
AcDb2dVertex
 10
136.7826630679
 20
129.572574432
 30
0.0
  0
VERTEX
  5
B4
330
79
100
AcDbEntity
  8
DEFAULT
  6
CONTINUOUS
 62
     7
100
AcDbVertex
100
AcDb2dVertex
 10
133.7826630418
 20
130.0725744363
 30
0.0
  0
VERTEX
  5
B5
330
79
100
AcDbEntity
  8
DEFAULT
  6
CONTINUOUS
 62
     7
100
AcDbVertex
100
AcDb2dVertex
 10
136.7826630679
 20
130.5725744407
 30
0.0
  0
VERTEX
  5
B6
330
79
100
AcDbEntity
  8
DEFAULT
  6
CONTINUOUS
 62
     7
100
AcDbVertex
100
AcDb2dVertex
 10
136.7826630679
 20
129.572574432
 30
0.0
  0
SEQEND
  5
B2
330
79
100
AcDbEntity
  8
DEFAULT
  6
CONTINUOUS
 62
     7
 48
25.4
  0
POLYLINE
  5
7A
330
77
100
AcDbEntity
  8
DEFAULT
  6
CONTINUOUS
 62
     7
 48
25.4
100
AcDb2dPolyline
 66
     1
 10
0.0
 20
0.0
 30
0.0
 70
     1
  0
VERTEX
  5
B8
330
7A
100
AcDbEntity
  8
DEFAULT
  6
CONTINUOUS
 62
     7
100
AcDbVertex
100
AcDb2dVertex
 10
171.7826630157
 20
129.572574432
 30
0.0
  0
VERTEX
  5
B9
330
7A
100
AcDbEntity
  8
DEFAULT
  6
CONTINUOUS
 62
     7
100
AcDbVertex
100
AcDb2dVertex
 10
174.7826630418
 20
130.0725744363
 30
0.0
  0
VERTEX
  5
BA
330
7A
100
AcDbEntity
  8
DEFAULT
  6
CONTINUOUS
 62
     7
100
AcDbVertex
100
AcDb2dVertex
 10
171.7826630157
 20
130.5725744407
 30
0.0
  0
VERTEX
  5
BB
330
7A
100
AcDbEntity
  8
DEFAULT
  6
CONTINUOUS
 62
     7
100
AcDbVertex
100
AcDb2dVertex
 10
171.7826630157
 20
129.572574432
 30
0.0
  0
SEQEND
  5
B7
330
7A
100
AcDbEntity
  8
DEFAULT
  6
CONTINUOUS
 62
     7
 48
25.4
  0
LINE
  5
7B
330
77
100
AcDbEntity
  8
DEFAULT
  6
CONTINUOUS
 62
     7
 48
25.4
100
AcDbLine
 10
133.7826630418
 20
165.8368253407
 30
0.0
 11
133.7826630418
 21
128.5725744233
 31
0.0
  0
LINE
  5
7C
330
77
100
AcDbEntity
  8
DEFAULT
  6
CONTINUOUS
 62
     7
 48
25.4
100
AcDbLine
 10
174.7826630418
 20
154.4414715974
 30
0.0
 11
174.7826630418
 21
128.5725744233
 31
0.0
  0
LINE
  5
7D
330
77
100
AcDbEntity
  8
DEFAULT
  6
CONTINUOUS
 62
     7
 48
25.4
100
AcDbLine
 10
133.7826630418
 20
130.0725744364
 30
0.0
 11
174.7826641743
 21
130.0725744364
 31
0.0
  0
TEXT
  5
7E
330
77
100
AcDbEntity
  8
DEFAULT
  6
CONTINUOUS
 62
     7
 48
25.4
100
AcDbText
 10
152.7826636081
 20
130.8225744364
 30
0.0
 40
3.0
  1
41
  7
SEACAD_SEISO_TTF
 11
152.7826636081
 21
133.8225744364
 31
0.0
100
AcDbText
 73
     3
  0
ENDBLK
  5
80
330
77
100
AcDbEntity
  8
0
100
AcDbBlockEnd
  0
BLOCK
  5
89
330
81
100
AcDbEntity
  8
0
100
AcDbBlockBegin
  2
SE4
 70
     0
 71
     0
 10
0.0
 20
0.0
 30
0.0
  3
SE4
  1

  0
POLYLINE
  5
83
330
81
100
AcDbEntity
  8
DEFAULT
  6
CONTINUOUS
 62
     7
 48
25.4
100
AcDb2dPolyline
 66
     1
 10
0.0
 20
0.0
 30
0.0
 70
     1
  0
VERTEX
  5
BD
330
83
100
AcDbEntity
  8
DEFAULT
  6
CONTINUOUS
 62
     7
100
AcDbVertex
100
AcDb2dVertex
 10
136.7826630679
 20
129.572574432
 30
0.0
  0
VERTEX
  5
BE
330
83
100
AcDbEntity
  8
DEFAULT
  6
CONTINUOUS
 62
     7
100
AcDbVertex
100
AcDb2dVertex
 10
133.7826630418
 20
130.0725744363
 30
0.0
  0
VERTEX
  5
BF
330
83
100
AcDbEntity
  8
DEFAULT
  6
CONTINUOUS
 62
     7
100
AcDbVertex
100
AcDb2dVertex
 10
136.7826630679
 20
130.5725744407
 30
0.0
  0
VERTEX
  5
C0
330
83
100
AcDbEntity
  8
DEFAULT
  6
CONTINUOUS
 62
     7
100
AcDbVertex
100
AcDb2dVertex
 10
136.7826630679
 20
129.572574432
 30
0.0
  0
SEQEND
  5
BC
330
83
100
AcDbEntity
  8
DEFAULT
  6
CONTINUOUS
 62
     7
 48
25.4
  0
POLYLINE
  5
84
330
81
100
AcDbEntity
  8
DEFAULT
  6
CONTINUOUS
 62
     7
 48
25.4
100
AcDb2dPolyline
 66
     1
 10
0.0
 20
0.0
 30
0.0
 70
     1
  0
VERTEX
  5
C2
330
84
100
AcDbEntity
  8
DEFAULT
  6
CONTINUOUS
 62
     7
100
AcDbVertex
100
AcDb2dVertex
 10
122.2826630157
 20
129.572574432
 30
0.0
  0
VERTEX
  5
C3
330
84
100
AcDbEntity
  8
DEFAULT
  6
CONTINUOUS
 62
     7
100
AcDbVertex
100
AcDb2dVertex
 10
125.2826630418
 20
130.0725744363
 30
0.0
  0
VERTEX
  5
C4
330
84
100
AcDbEntity
  8
DEFAULT
  6
CONTINUOUS
 62
     7
100
AcDbVertex
100
AcDb2dVertex
 10
122.2826630157
 20
130.5725744407
 30
0.0
  0
VERTEX
  5
C5
330
84
100
AcDbEntity
  8
DEFAULT
  6
CONTINUOUS
 62
     7
100
AcDbVertex
100
AcDb2dVertex
 10
122.2826630157
 20
129.572574432
 30
0.0
  0
SEQEND
  5
C1
330
84
100
AcDbEntity
  8
DEFAULT
  6
CONTINUOUS
 62
     7
 48
25.4
  0
LINE
  5
85
330
81
100
AcDbEntity
  8
DEFAULT
  6
CONTINUOUS
 62
     7
 48
25.4
100
AcDbLine
 10
133.7826630418
 20
165.8368253407
 30
0.0
 11
133.7826630418
 21
128.5725744233
 31
0.0
  0
LINE
  5
86
330
81
100
AcDbEntity
  8
DEFAULT
  6
CONTINUOUS
 62
     7
 48
25.4
100
AcDbLine
 10
125.2826630418
 20
166.8368253407
 30
0.0
 11
125.2826630418
 21
128.5725744233
 31
0.0
  0
LINE
  5
87
330
81
100
AcDbEntity
  8
DEFAULT
  6
CONTINUOUS
 62
     7
 48
25.4
100
AcDbLine
 10
139.782663094
 20
130.0725744364
 30
0.0
 11
119.2826634591
 21
130.0725744364
 31
0.0
  0
TEXT
  5
88
330
81
100
AcDbEntity
  8
DEFAULT
  6
CONTINUOUS
 62
     7
 48
25.4
100
AcDbText
 10
127.4531173563
 20
130.8225744364
 30
0.0
 40
3.0
  1
8,5
  7
SEACAD_SEISO_TTF
 11
127.4531173563
 21
133.8225744364
 31
0.0
100
AcDbText
 73
     3
  0
ENDBLK
  5
8A
330
81
100
AcDbEntity
  8
0
100
AcDbBlockEnd
  0
BLOCK
  5
95
330
8B
100
AcDbEntity
  8
0
100
AcDbBlockBegin
  2
SE5
 70
     0
 71
     0
 10
0.0
 20
0.0
 30
0.0
  3
SE5
  1

  0
POLYLINE
  5
8D
330
8B
100
AcDbEntity
  8
DEFAULT
  6
CONTINUOUS
 62
     7
 48
25.4
100
AcDb2dPolyline
 66
     1
 10
0.0
 20
0.0
 30
0.0
 70
     1
  0
VERTEX
  5
C7
330
8D
100
AcDbEntity
  8
DEFAULT
  6
CONTINUOUS
 62
     7
100
AcDbVertex
100
AcDb2dVertex
 10
101.965847393
 20
169.8368253667
 30
0.0
  0
VERTEX
  5
C8
330
8D
100
AcDbEntity
  8
DEFAULT
  6
CONTINUOUS
 62
     7
100
AcDbVertex
100
AcDb2dVertex
 10
102.4658473973
 20
166.8368253406
 30
0.0
  0
VERTEX
  5
C9
330
8D
100
AcDbEntity
  8
DEFAULT
  6
CONTINUOUS
 62
     7
100
AcDbVertex
100
AcDb2dVertex
 10
102.9658474016
 20
169.8368253667
 30
0.0
  0
VERTEX
  5
CA
330
8D
100
AcDbEntity
  8
DEFAULT
  6
CONTINUOUS
 62
     7
100
AcDbVertex
100
AcDb2dVertex
 10
101.965847393
 20
169.8368253667
 30
0.0
  0
SEQEND
  5
C6
330
8D
100
AcDbEntity
  8
DEFAULT
  6
CONTINUOUS
 62
     7
 48
25.4
  0
POLYLINE
  5
8E
330
8B
100
AcDbEntity
  8
DEFAULT
  6
CONTINUOUS
 62
     7
 48
25.4
100
AcDb2dPolyline
 66
     1
 10
0.0
 20
0.0
 30
0.0
 70
     1
  0
VERTEX
  5
CC
330
8E
100
AcDbEntity
  8
DEFAULT
  6
CONTINUOUS
 62
     7
100
AcDbVertex
100
AcDb2dVertex
 10
101.965847393
 20
181.8368253146
 30
0.0
  0
VERTEX
  5
CD
330
8E
100
AcDbEntity
  8
DEFAULT
  6
CONTINUOUS
 62
     7
100
AcDbVertex
100
AcDb2dVertex
 10
102.4658473973
 20
184.8368253406
 30
0.0
  0
VERTEX
  5
CE
330
8E
100
AcDbEntity
  8
DEFAULT
  6
CONTINUOUS
 62
     7
100
AcDbVertex
100
AcDb2dVertex
 10
102.9658474016
 20
181.8368253146
 30
0.0
  0
VERTEX
  5
CF
330
8E
100
AcDbEntity
  8
DEFAULT
  6
CONTINUOUS
 62
     7
100
AcDbVertex
100
AcDb2dVertex
 10
101.965847393
 20
181.8368253146
 30
0.0
  0
SEQEND
  5
CB
330
8E
100
AcDbEntity
  8
DEFAULT
  6
CONTINUOUS
 62
     7
 48
25.4
  0
LINE
  5
8F
330
8B
100
AcDbEntity
  8
DEFAULT
  6
CONTINUOUS
 62
     7
 48
25.4
100
AcDbLine
 10
129.5326630418
 20
166.8368253407
 30
0.0
 11
100.9658473843
 21
166.8368253407
 31
0.0
  0
LINE
  5
90
330
8B
100
AcDbEntity
  8
DEFAULT
  6
CONTINUOUS
 62
     7
 48
25.4
100
AcDbLine
 10
129.5326630418
 20
184.8368253407
 30
0.0
 11
100.9658473843
 21
184.8368253407
 31
0.0
  0
LINE
  5
91
330
8B
100
AcDbEntity
  8
DEFAULT
  6
CONTINUOUS
 62
     7
 48
25.4
100
AcDbLine
 10
102.4658473973
 20
166.8368253407
 30
0.0
 11
102.4658473973
 21
184.8368245658
 31
0.0
  0
TEXT
  5
92
330
8B
100
AcDbEntity
  8
DEFAULT
  6
CONTINUOUS
 62
     7
 48
25.4
100
AcDbText
 10
101.7158473973
 20
176.0889488119
 30
0.0
 40
3.0
  1
18
 50
90.0
  7
SEACAD_SEISO_TTF
 11
98.7158473973
 21
176.0889488119
 31
0.0
100
AcDbText
 73
     3
  0
TEXT
  5
94
330
8B
100
AcDbEntity
  8
DEFAULT
  6
CONTINUOUS
 62
     7
 48
25.4
100
AcDbText
 10
101.7158473973
 20
172.4483374582
 30
0.0
 40
3.0
  1
O
 50
90.0
  7
SEACAD_SEMECI1_TTF
 11
98.7158473973
 21
172.4483374582
 31
0.0
100
AcDbText
 73
     3
  0
ENDBLK
  5
96
330
8B
100
AcDbEntity
  8
0
100
AcDbBlockEnd
  0
BLOCK
  5
A0
330
97
100
AcDbEntity
  8
0
100
AcDbBlockBegin
  2
SE6
 70
     0
 71
     0
 10
0.0
 20
0.0
 30
0.0
  3
SE6
  1

  0
POLYLINE
  5
99
330
97
100
AcDbEntity
  8
DEFAULT
  6
CONTINUOUS
 62
     7
 48
25.4
100
AcDb2dPolyline
 66
     1
 10
0.0
 20
0.0
 30
0.0
 70
     1
  0
VERTEX
  5
D1
330
99
100
AcDbEntity
  8
DEFAULT
  6
CONTINUOUS
 62
     7
100
AcDbVertex
100
AcDb2dVertex
 10
108.61192741
 20
178.8368253146
 30
0.0
  0
VERTEX
  5
D2
330
99
100
AcDbEntity
  8
DEFAULT
  6
CONTINUOUS
 62
     7
100
AcDbVertex
100
AcDb2dVertex
 10
109.1119274144
 20
181.8368253406
 30
0.0
  0
VERTEX
  5
D3
330
99
100
AcDbEntity
  8
DEFAULT
  6
CONTINUOUS
 62
     7
100
AcDbVertex
100
AcDb2dVertex
 10
109.6119274187
 20
178.8368253146
 30
0.0
  0
VERTEX
  5
D4
330
99
100
AcDbEntity
  8
DEFAULT
  6
CONTINUOUS
 62
     7
100
AcDbVertex
100
AcDb2dVertex
 10
108.61192741
 20
178.8368253146
 30
0.0
  0
SEQEND
  5
D0
330
99
100
AcDbEntity
  8
DEFAULT
  6
CONTINUOUS
 62
     7
 48
25.4
  0
POLYLINE
  5
9A
330
97
100
AcDbEntity
  8
DEFAULT
  6
CONTINUOUS
 62
     7
 48
25.4
100
AcDb2dPolyline
 66
     1
 10
0.0
 20
0.0
 30
0.0
 70
     1
  0
VERTEX
  5
D6
330
9A
100
AcDbEntity
  8
DEFAULT
  6
CONTINUOUS
 62
     7
100
AcDbVertex
100
AcDb2dVertex
 10
108.61192741
 20
172.8368253667
 30
0.0
  0
VERTEX
  5
D7
330
9A
100
AcDbEntity
  8
DEFAULT
  6
CONTINUOUS
 62
     7
100
AcDbVertex
100
AcDb2dVertex
 10
109.1119274144
 20
169.8368253406
 30
0.0
  0
VERTEX
  5
D8
330
9A
100
AcDbEntity
  8
DEFAULT
  6
CONTINUOUS
 62
     7
100
AcDbVertex
100
AcDb2dVertex
 10
109.6119274187
 20
172.8368253667
 30
0.0
  0
VERTEX
  5
D9
330
9A
100
AcDbEntity
  8
DEFAULT
  6
CONTINUOUS
 62
     7
100
AcDbVertex
100
AcDb2dVertex
 10
108.61192741
 20
172.8368253667
 30
0.0
  0
SEQEND
  5
D5
330
9A
100
AcDbEntity
  8
DEFAULT
  6
CONTINUOUS
 62
     7
 48
25.4
  0
LINE
  5
9B
330
97
100
AcDbEntity
  8
DEFAULT
  6
CONTINUOUS
 62
     7
 48
25.4
100
AcDbLine
 10
127.5826636349
 20
181.8368253407
 30
0.0
 11
107.6119274014
 21
181.8368253407
 31
0.0
  0
LINE
  5
9C
330
97
100
AcDbEntity
  8
DEFAULT
  6
CONTINUOUS
 62
     7
 48
25.4
100
AcDbLine
 10
127.5826636349
 20
169.8368253407
 30
0.0
 11
107.6119274014
 21
169.8368253407
 31
0.0
  0
LINE
  5
9D
330
97
100
AcDbEntity
  8
DEFAULT
  6
CONTINUOUS
 62
     7
 48
25.4
100
AcDbLine
 10
109.1119274144
 20
181.8368253407
 30
0.0
 11
109.1119274144
 21
169.8368252364
 31
0.0
  0
TEXT
  5
9E
330
97
100
AcDbEntity
  8
DEFAULT
  6
CONTINUOUS
 62
     7
 48
25.4
100
AcDbText
 10
108.3619274144
 20
176.2254616522
 30
0.0
 40
3.0
  1
12
 50
90.0
  7
SEACAD_SEISO_TTF
 11
105.3619274144
 21
176.2254616522
 31
0.0
100
AcDbText
 73
     3
  0
TEXT
  5
9F
330
97
100
AcDbEntity
  8
DEFAULT
  6
CONTINUOUS
 62
     7
 48
25.4
100
AcDbText
 10
108.3619274144
 20
172.3800071067
 30
0.0
 40
3.0
  1
M 
 50
90.0
  7
SEACAD_SEISO_TTF
 11
105.3619274144
 21
172.3800071067
 31
0.0
100
AcDbText
 73
     3
  0
ENDBLK
  5
A1
330
97
100
AcDbEntity
  8
0
100
AcDbBlockEnd
  0
BLOCK
  5
AB
330
A2
100
AcDbEntity
  8
0
100
AcDbBlockBegin
  2
SE7
 70
     0
 71
     0
 10
0.0
 20
0.0
 30
0.0
  3
SE7
  1

  0
POLYLINE
  5
A4
330
A2
100
AcDbEntity
  8
DEFAULT
  6
CONTINUOUS
 62
     7
 48
25.4
100
AcDb2dPolyline
 66
     1
 10
0.0
 20
0.0
 30
0.0
 70
     1
  0
VERTEX
  5
DB
330
A4
100
AcDbEntity
  8
DEFAULT
  6
CONTINUOUS
 62
     7
100
AcDbVertex
100
AcDb2dVertex
 10
115.7623425326
 20
182.8368253667
 30
0.0
  0
VERTEX
  5
DC
330
A4
100
AcDbEntity
  8
DEFAULT
  6
CONTINUOUS
 62
     7
100
AcDbVertex
100
AcDb2dVertex
 10
116.2623425369
 20
179.8368253406
 30
0.0
  0
VERTEX
  5
DD
330
A4
100
AcDbEntity
  8
DEFAULT
  6
CONTINUOUS
 62
     7
100
AcDbVertex
100
AcDb2dVertex
 10
116.7623425412
 20
182.8368253667
 30
0.0
  0
VERTEX
  5
DE
330
A4
100
AcDbEntity
  8
DEFAULT
  6
CONTINUOUS
 62
     7
100
AcDbVertex
100
AcDb2dVertex
 10
115.7623425326
 20
182.8368253667
 30
0.0
  0
SEQEND
  5
DA
330
A4
100
AcDbEntity
  8
DEFAULT
  6
CONTINUOUS
 62
     7
 48
25.4
  0
POLYLINE
  5
A5
330
A2
100
AcDbEntity
  8
DEFAULT
  6
CONTINUOUS
 62
     7
 48
25.4
100
AcDb2dPolyline
 66
     1
 10
0.0
 20
0.0
 30
0.0
 70
     1
  0
VERTEX
  5
E0
330
A5
100
AcDbEntity
  8
DEFAULT
  6
CONTINUOUS
 62
     7
100
AcDbVertex
100
AcDb2dVertex
 10
115.7623425326
 20
168.8368253146
 30
0.0
  0
VERTEX
  5
E1
330
A5
100
AcDbEntity
  8
DEFAULT
  6
CONTINUOUS
 62
     7
100
AcDbVertex
100
AcDb2dVertex
 10
116.2623425369
 20
171.8368253406
 30
0.0
  0
VERTEX
  5
E2
330
A5
100
AcDbEntity
  8
DEFAULT
  6
CONTINUOUS
 62
     7
100
AcDbVertex
100
AcDb2dVertex
 10
116.7623425412
 20
168.8368253146
 30
0.0
  0
VERTEX
  5
E3
330
A5
100
AcDbEntity
  8
DEFAULT
  6
CONTINUOUS
 62
     7
100
AcDbVertex
100
AcDb2dVertex
 10
115.7623425326
 20
168.8368253146
 30
0.0
  0
SEQEND
  5
DF
330
A5
100
AcDbEntity
  8
DEFAULT
  6
CONTINUOUS
 62
     7
 48
25.4
  0
LINE
  5
A6
330
A2
100
AcDbEntity
  8
DEFAULT
  6
CONTINUOUS
 62
     7
 48
25.4
100
AcDbLine
 10
126.9788106327
 20
179.8368253407
 30
0.0
 11
114.7623425239
 21
179.8368253407
 31
0.0
  0
LINE
  5
A7
330
A2
100
AcDbEntity
  8
DEFAULT
  6
CONTINUOUS
 62
     7
 48
25.4
100
AcDbLine
 10
147.1307359171
 20
171.8368253407
 30
0.0
 11
114.7623425239
 21
171.8368253407
 31
0.0
  0
LINE
  5
A8
330
A2
100
AcDbEntity
  8
DEFAULT
  6
CONTINUOUS
 62
     7
 48
25.4
100
AcDbLine
 10
116.2623425369
 20
185.8368253928
 30
0.0
 11
116.2623425369
 21
165.8368249085
 31
0.0
  0
TEXT
  5
A9
330
A2
100
AcDbEntity
  8
DEFAULT
  6
CONTINUOUS
 62
     7
 48
25.4
100
AcDbText
 10
115.5123425369
 20
176.7353364647
 30
0.0
 40
3.0
  1
8
 50
90.0
  7
SEACAD_SEISO_TTF
 11
112.5123425369
 21
176.7353364647
 31
0.0
100
AcDbText
 73
     3
  0
TEXT
  5
AA
330
A2
100
AcDbEntity
  8
DEFAULT
  6
CONTINUOUS
 62
     7
 48
25.4
100
AcDbText
 10
115.5123425369
 20
173.0292229276
 30
0.0
 40
3.0
  1
q
 50
90.0
  7
SEACAD_SEMECI1_TTF
 11
112.5123425369
 21
173.0292229276
 31
0.0
100
AcDbText
 73
     3
  0
ENDBLK
  5
AC
330
A2
100
AcDbEntity
  8
0
100
AcDbBlockEnd
  0
ENDSEC
  0
SECTION
  2
ENTITIES
  0
INSERT
  5
2F
330
1F
100
AcDbEntity
  8
0
100
AcDbBlockReference
  2
SE
 10
0.0
 20
0.0
 30
0.0
  0
INSERT
  5
3B
330
1F
100
AcDbEntity
  8
0
100
AcDbBlockReference
  2
SE1
 10
0.0
 20
0.0
 30
0.0
  0
INSERT
  5
6D
330
1F
100
AcDbEntity
  8
0
100
AcDbBlockReference
  2
SE2
 10
0.0
 20
0.0
 30
0.0
  0
INSERT
  5
78
330
1F
100
AcDbEntity
  8
0
100
AcDbBlockReference
  2
SE3
 10
0.0
 20
0.0
 30
0.0
  0
INSERT
  5
82
330
1F
100
AcDbEntity
  8
0
100
AcDbBlockReference
  2
SE4
 10
0.0
 20
0.0
 30
0.0
  0
INSERT
  5
8C
330
1F
100
AcDbEntity
  8
0
100
AcDbBlockReference
  2
SE5
 10
0.0
 20
0.0
 30
0.0
  0
INSERT
  5
98
330
1F
100
AcDbEntity
  8
0
100
AcDbBlockReference
  2
SE6
 10
0.0
 20
0.0
 30
0.0
  0
INSERT
  5
A3
330
1F
100
AcDbEntity
  8
0
100
AcDbBlockReference
  2
SE7
 10
0.0
 20
0.0
 30
0.0
  0
ENDSEC
  0
SECTION
  2
OBJECTS
  0
DICTIONARY
  5
C
330
0
100
AcDbDictionary
  3
ACAD_GROUP
350
D
  3
ACAD_LAYOUT
350
1A
  3
ACAD_MLINESTYLE
350
17
  3
ACAD_PLOTSETTINGS
350
19
  3
ACAD_TABLESTYLE
350
2A
  3
ACDBVARIABLEDICTIONARY
350
2C
1001
ACAD
1000
TREAT_AS_HARD
1070
     0
  0
DICTIONARY
  5
E4
330
29
100
AcDbDictionary
  3
ACAD_XREC_ROUNDTRIP
360
E5
  0
DICTIONARY
  5
D
102
{ACAD_REACTORS
330
C
102
}
330
C
100
AcDbDictionary
1001
ACAD
1000
TREAT_AS_HARD
1070
     0
  0
DICTIONARY
  5
1A
102
{ACAD_REACTORS
330
C
102
}
330
C
100
AcDbDictionary
1001
ACAD
1000
TREAT_AS_HARD
1070
     0
  0
DICTIONARY
  5
17
102
{ACAD_REACTORS
330
C
102
}
330
C
100
AcDbDictionary
  3
STANDARD
350
18
1001
ACAD
1000
TREAT_AS_HARD
1070
     0
  0
DICTIONARY
  5
19
102
{ACAD_REACTORS
330
C
102
}
330
C
100
AcDbDictionary
1001
ACAD
1000
TREAT_AS_HARD
1070
     0
  0
DICTIONARY
  5
2A
102
{ACAD_REACTORS
330
C
102
}
330
C
100
AcDbDictionary
  3
STANDARD
350
2B
1001
ACAD
1000
TREAT_AS_HARD
1070
     0
  0
DICTIONARY
  5
2C
102
{ACAD_REACTORS
330
C
102
}
330
C
100
AcDbDictionary
  3
CTABLESTYLE
350
2D
1001
ACAD
1000
TREAT_AS_HARD
1070
     0
  0
XRECORD
  5
E5
102
{ACAD_REACTORS
330
E4
102
}
330
E4
100
AcDbXrecord
102
UCS
 74
     0
 71
     1
 10
0.0
 20
0.0
 30
0.0
 10
1.0
 20
0.0
 30
0.0
 10
0.0
 20
1.0
 30
0.0
146
0.0
 79
     0
102
VIEW
281
     0
  0
MLINESTYLE
  5
18
102
{ACAD_REACTORS
330
17
102
}
330
17
100
AcDbMlineStyle
  2
Standard
 70
     0
  3

 62
   256
 51
90.0
 52
90.0
 71
     2
 49
0.5
 62
   256
  6
BYLAYER
 49
-0.5
 62
   256
  6
BYLAYER
  0
TABLESTYLE
  5
2B
102
{ACAD_REACTORS
330
2A
102
}
330
2A
100
AcDbTableStyle
  3
Standard
 70
     0
 71
     0
 40
0.06
 41
0.06
280
     0
281
     0
  7
STANDARD
140
0.18
170
     2
 62
     0
 63
     7
283
     0
274
    -2
284
     1
 64
     0
275
    -2
285
     1
 65
     0
276
    -2
286
     1
 66
     0
277
    -2
287
     1
 67
     0
278
    -2
288
     1
 68
     0
279
    -2
289
     1
 69
     0
  7
STANDARD
140
0.25
170
     5
 62
     0
 63
     7
283
     0
274
    -2
284
     1
 64
     0
275
    -2
285
     1
 65
     0
276
    -2
286
     1
 66
     0
277
    -2
287
     1
 67
     0
278
    -2
288
     1
 68
     0
279
    -2
289
     1
 69
     0
  7
STANDARD
140
0.18
170
     5
 62
     0
 63
     7
283
     0
274
    -2
284
     1
 64
     0
275
    -2
285
     1
 65
     0
276
    -2
286
     1
 66
     0
277
    -2
287
     1
 67
     0
278
    -2
288
     1
 68
     0
279
    -2
289
     1
 69
     0
  0
DICTIONARYVAR
  5
2D
102
{ACAD_REACTORS
330
2C
102
}
330
2C
100
DictionaryVariables
280
     0
  1
Standard
  0
ENDSEC
  0
EOF
