  0
SECTION
  2
HEADER
  9
$ACADVER
  1
AC1012
  9
$DWGCODEPAGE
  3
ansi_1252
  9
$INSBASE
 10
0.0
 20
0.0
 30
0.0
  9
$EXTMIN
 10
0.0
 20
0.0
 30
0.0
  9
$EXTMAX
 10
210.0
 20
297.0
 30
0.0
  9
$LIMMIN
 10
0.0
 20
0.0
  9
$LIMMAX
 10
210.0
 20
297.0
  9
$ORTHOMODE
 70
     0
  9
$REGENMODE
 70
     1
  9
$FILLMODE
 70
     1
  9
$QTEXTMODE
 70
     0
  9
$MIRRTEXT
 70
     1
  9
$DRAGMODE
 70
     2
  9
$LTSCALE
 40
1.0
  9
$OSMODE
 70
    37
  9
$ATTMODE
 70
     1
  9
$TEXTSIZE
 40
0.2
  9
$TRACEWID
 40
0.05
  9
$TEXTSTYLE
  7
STANDARD
  9
$CLAYER
  8
0
  9
$CELTYPE
  6
BYLAYER
  9
$CECOLOR
 62
   256
  9
$CELTSCALE
 40
25.4
  9
$DELOBJ
 70
     1
  9
$DISPSILH
 70
     0
  9
$DIMSCALE
 40
1.0
  9
$DIMASZ
 40
0.18
  9
$DIMEXO
 40
0.0625
  9
$DIMDLI
 40
0.38
  9
$DIMRND
 40
0.0
  9
$DIMDLE
 40
0.0
  9
$DIMEXE
 40
0.18
  9
$DIMTP
 40
0.0
  9
$DIMTM
 40
0.0
  9
$DIMTXT
 40
0.18
  9
$DIMCEN
 40
0.09
  9
$DIMTSZ
 40
0.0
  9
$DIMTOL
 70
     0
  9
$DIMLIM
 70
     0
  9
$DIMTIH
 70
     1
  9
$DIMTOH
 70
     1
  9
$DIMSE1
 70
     0
  9
$DIMSE2
 70
     0
  9
$DIMTAD
 70
     0
  9
$DIMZIN
 70
     0
  9
$DIMBLK
  1

  9
$DIMASO
 70
     1
  9
$DIMSHO
 70
     1
  9
$DIMPOST
  1

  9
$DIMAPOST
  1

  9
$DIMALT
 70
     0
  9
$DIMALTD
 70
     2
  9
$DIMALTF
 40
25.4
  9
$DIMLFAC
 40
1.0
  9
$DIMTOFL
 70
     0
  9
$DIMTVP
 40
0.0
  9
$DIMTIX
 70
     0
  9
$DIMSOXD
 70
     0
  9
$DIMSAH
 70
     0
  9
$DIMBLK1
  1

  9
$DIMBLK2
  1

  9
$DIMSTYLE
  2
STANDARD
  9
$DIMCLRD
 70
     0
  9
$DIMCLRE
 70
     0
  9
$DIMCLRT
 70
     0
  9
$DIMTFAC
 40
1.0
  9
$DIMGAP
 40
0.09
  9
$DIMJUST
 70
     0
  9
$DIMSD1
 70
     0
  9
$DIMSD2
 70
     0
  9
$DIMTOLJ
 70
     1
  9
$DIMTZIN
 70
     0
  9
$DIMALTZ
 70
     0
  9
$DIMALTTZ
 70
     0
  9
$DIMFIT
 70
     3
  9
$DIMUPT
 70
     0
  9
$DIMUNIT
 70
     2
  9
$DIMDEC
 70
     4
  9
$DIMTDEC
 70
     4
  9
$DIMALTU
 70
     2
  9
$DIMALTTD
 70
     2
  9
$DIMTXSTY
  7
STANDARD
  9
$DIMAUNIT
 70
     0
  9
$LUNITS
 70
     2
  9
$LUPREC
 70
     4
  9
$SKETCHINC
 40
0.1
  9
$FILLETRAD
 40
0.5
  9
$AUNITS
 70
     0
  9
$AUPREC
 70
     0
  9
$MENU
  1
.
  9
$ELEVATION
 40
0.0
  9
$PELEVATION
 40
0.0
  9
$THICKNESS
 40
0.0
  9
$LIMCHECK
 70
     0
  9
$CHAMFERA
 40
0.5
  9
$CHAMFERB
 40
0.5
  9
$CHAMFERC
 40
1.0
  9
$CHAMFERD
 40
0.0
  9
$SKPOLY
 70
     0
  9
$TDCREATE
 40
2453762.544687604
  9
$TDUPDATE
 40
2453762.544687616
  9
$TDINDWG
 40
0.0000000116
  9
$TDUSRTIMER
 40
0.0000000116
  9
$USRTIMER
 70
     1
  9
$ANGBASE
 50
0.0
  9
$ANGDIR
 70
     0
  9
$PDMODE
 70
     0
  9
$PDSIZE
 40
0.0
  9
$PLINEWID
 40
0.0
  9
$COORDS
 70
     1
  9
$SPLFRAME
 70
     0
  9
$SPLINETYPE
 70
     6
  9
$SPLINESEGS
 70
     8
  9
$ATTDIA
 70
     0
  9
$ATTREQ
 70
     1
  9
$HANDLING
 70
     1
  9
$HANDSEED
  5
DC
  9
$SURFTAB1
 70
     6
  9
$SURFTAB2
 70
     6
  9
$SURFTYPE
 70
     6
  9
$SURFU
 70
     6
  9
$SURFV
 70
     6
  9
$UCSNAME
  2

  9
$UCSORG
 10
0.0
 20
0.0
 30
0.0
  9
$UCSXDIR
 10
1.0
 20
0.0
 30
0.0
  9
$UCSYDIR
 10
0.0
 20
1.0
 30
0.0
  9
$PUCSNAME
  2

  9
$PUCSORG
 10
0.0
 20
0.0
 30
0.0
  9
$PUCSXDIR
 10
1.0
 20
0.0
 30
0.0
  9
$PUCSYDIR
 10
0.0
 20
1.0
 30
0.0
  9
$USERI1
 70
     0
  9
$USERI2
 70
     0
  9
$USERI3
 70
     0
  9
$USERI4
 70
     0
  9
$USERI5
 70
     0
  9
$USERR1
 40
0.0
  9
$USERR2
 40
0.0
  9
$USERR3
 40
0.0
  9
$USERR4
 40
0.0
  9
$USERR5
 40
0.0
  9
$WORLDVIEW
 70
     1
  9
$SHADEDGE
 70
     3
  9
$SHADEDIF
 70
    70
  9
$TILEMODE
 70
     1
  9
$MAXACTVP
 70
    64
  9
$PINSBASE
 10
0.0
 20
0.0
 30
0.0
  9
$PLIMCHECK
 70
     0
  9
$PEXTMIN
 10
0.0
 20
0.0
 30
0.0
  9
$PEXTMAX
 10
210.0
 20
297.0
 30
0.0
  9
$PLIMMIN
 10
0.0
 20
0.0
  9
$PLIMMAX
 10
12.0
 20
9.0
  9
$UNITMODE
 70
     0
  9
$VISRETAIN
 70
     1
  9
$PLINEGEN
 70
     0
  9
$PSLTSCALE
 70
     1
  9
$TREEDEPTH
 70
  3020
  9
$PICKSTYLE
 70
     1
  9
$CMLSTYLE
  2
STANDARD
  9
$CMLJUST
 70
     0
  9
$CMLSCALE
 40
1.0
  9
$SAVEIMAGES
 70
     1
  0
ENDSEC
  0
SECTION
  2
CLASSES
  0
CLASS
  1
ACDBDICTIONARYWDFLT
  2
AcDbDictionaryWithDefault
  3
ObjectDBX Classes
 90
        0
280
     0
281
     0
  0
CLASS
  1
TABLESTYLE
  2
AcDbTableStyle
  3
ObjectDBX Classes
 90
     2047
280
     0
281
     0
  0
CLASS
  1
DICTIONARYVAR
  2
AcDbDictionaryVar
  3
ObjectDBX Classes
 90
        0
280
     0
281
     0
  0
CLASS
  1
XRECORD
  2
AcDbXrecord
  3
AutoCAD 2000
 90
    32768
280
     0
281
     0
  0
CLASS
  1
LWPOLYLINE
  2
AcDbPolyline
  3
AutoCAD 2000
 90
    32768
280
     0
281
     1
  0
CLASS
  1
HATCH
  2
AcDbHatch
  3
AutoCAD 2000
 90
    32768
280
     0
281
     1
  0
CLASS
  1
ACDBPLACEHOLDER
  2
AcDbPlaceHolder
  3
ObjectDBX Classes
 90
        0
280
     0
281
     0
  0
CLASS
  1
LAYOUT
  2
AcDbLayout
  3
ObjectDBX Classes
 90
        0
280
     0
281
     0
  0
ENDSEC
  0
SECTION
  2
TABLES
  0
TABLE
  2
VPORT
  5
8
330
0
100
AcDbSymbolTable
 70
     2
  0
VPORT
  5
29
102
{ACAD_XDICTIONARY
360
DA
102
}
330
8
100
AcDbSymbolTableRecord
100
AcDbViewportTableRecord
  2
*ACTIVE
 70
     0
 10
0.0
 20
0.0
 11
1.0
 21
1.0
 12
10.4299065421
 22
4.5
 13
0.0
 23
0.0
 14
0.5
 24
0.5
 15
0.5
 25
0.5
 16
0.0
 26
0.0
 36
1.0
 17
0.0
 27
0.0
 37
0.0
 40
9.0
 41
1.9729729729
 42
50.0
 43
0.0
 44
0.0
 50
0.0
 51
0.0
 71
     0
 72
   100
 73
     1
 74
     3
 75
     0
 76
     0
 77
     0
 78
     0
  0
ENDTAB
  0
TABLE
  2
LTYPE
  5
5
330
0
100
AcDbSymbolTable
 70
     3
  0
LTYPE
  5
14
330
5
100
AcDbSymbolTableRecord
100
AcDbLinetypeTableRecord
  2
BYBLOCK
 70
     0
  3

 72
    65
 73
     0
 40
0.0
  0
LTYPE
  5
15
330
5
100
AcDbSymbolTableRecord
100
AcDbLinetypeTableRecord
  2
BYLAYER
 70
     0
  3

 72
    65
 73
     0
 40
0.0
  0
LTYPE
  5
16
330
5
100
AcDbSymbolTableRecord
100
AcDbLinetypeTableRecord
  2
CONTINUOUS
 70
     0
  3
Solid line
 72
    65
 73
     0
 40
0.0
  0
LTYPE
  5
31
330
5
100
AcDbSymbolTableRecord
100
AcDbLinetypeTableRecord
  2
HIDDEN2
 70
     0
  3
_ _ _ _ _ _ _ _ _ _ _ _ _ _ _ _ _ _ _ _ _ _ _ _
 72
    65
 73
     2
 40
0.1875
 49
0.125
 74
     4
 75
     0
340
0
 46
0.0
 50
0.0
 44
0.0
 45
0.0
 49
-0.0625
 74
     4
 75
     0
340
0
 46
0.0
 50
0.0
 44
0.0
 45
0.0
  0
LTYPE
  5
53
330
5
100
AcDbSymbolTableRecord
100
AcDbLinetypeTableRecord
  2
CENTER2
 70
     0
  3
___ _ ___ _ ___ _ ___ _ ___ _ ___ _ ___ _ ___ _
 72
    65
 73
     4
 40
1.125
 49
0.75
 74
     4
 75
     0
340
0
 46
0.0
 50
0.0
 44
0.0
 45
0.0
 49
-0.125
 74
     4
 75
     0
340
0
 46
0.0
 50
0.0
 44
0.0
 45
0.0
 49
0.125
 74
     4
 75
     0
340
0
 46
0.0
 50
0.0
 44
0.0
 45
0.0
 49
-0.125
 74
     4
 75
     0
340
0
 46
0.0
 50
0.0
 44
0.0
 45
0.0
  0
ENDTAB
  0
TABLE
  2
LAYER
  5
2
330
0
100
AcDbSymbolTable
 70
     4
  0
LAYER
  5
10
330
2
100
AcDbSymbolTableRecord
100
AcDbLayerTableRecord
  2
0
 70
     0
 62
     7
  6
CONTINUOUS
  0
LAYER
  5
30
330
2
100
AcDbSymbolTableRecord
100
AcDbLayerTableRecord
  2
MEGA_002132
 70
     0
 62
     7
  6
CONTINUOUS
  0
LAYER
  5
52
330
2
100
AcDbSymbolTableRecord
100
AcDbLayerTableRecord
  2
STANDARD
 70
     0
 62
     7
  6
CONTINUOUS
  0
LAYER
  5
63
330
2
100
AcDbSymbolTableRecord
100
AcDbLayerTableRecord
  2
DEFAULT
 70
     0
 62
     7
  6
CONTINUOUS
  0
ENDTAB
  0
TABLE
  2
STYLE
  5
3
330
0
100
AcDbSymbolTable
 70
     3
  0
STYLE
  5
11
330
3
100
AcDbSymbolTableRecord
100
AcDbTextStyleTableRecord
  2
STANDARD
 70
     0
 40
0.0
 41
1.0
 50
0.0
 71
     0
 42
0.2
  3
txt
  4

  0
STYLE
  5
68
330
3
100
AcDbSymbolTableRecord
100
AcDbTextStyleTableRecord
  2
SEACAD_SEISO_TTF
 70
     0
 40
0.2
 41
1.0
 50
0.0
 71
     0
 42
0.2
  3
seiso.ttf
  4

  0
STYLE
  5
74
330
3
100
AcDbSymbolTableRecord
100
AcDbTextStyleTableRecord
  2
SEACAD_SEMECI1_TTF
 70
     0
 40
0.2
 41
1.0
 50
0.0
 71
     0
 42
0.2
  3
semeci1.ttf
  4

  0
ENDTAB
  0
TABLE
  2
VIEW
  5
6
330
0
100
AcDbSymbolTable
 70
     0
  0
ENDTAB
  0
TABLE
  2
UCS
  5
7
330
0
100
AcDbSymbolTable
 70
     0
  0
ENDTAB
  0
TABLE
  2
APPID
  5
9
330
0
100
AcDbSymbolTable
 70
     1
  0
APPID
  5
12
330
9
100
AcDbSymbolTableRecord
100
AcDbRegAppTableRecord
  2
ACAD
 70
     0
  0
ENDTAB
  0
TABLE
  2
DIMSTYLE
  5
A
330
0
100
AcDbSymbolTable
 70
     1
  0
DIMSTYLE
105
27
330
A
100
AcDbSymbolTableRecord
100
AcDbDimStyleTableRecord
  2
STANDARD
 70
     0
  3

  4

  5

  6

  7

 40
1.0
 41
0.18
 42
0.0625
 43
0.38
 44
0.18
 45
0.0
 46
0.0
 47
0.0
 48
0.0
140
0.18
141
0.09
142
0.0
143
25.4
144
1.0
145
0.0
146
1.0
147
0.09
 71
     0
 72
     0
 73
     1
 74
     1
 75
     0
 76
     0
 77
     0
 78
     0
170
     0
171
     2
172
     0
173
     0
174
     0
175
     0
176
     0
177
     0
178
     0
270
     2
271
     4
272
     4
273
     2
274
     2
340
11
275
     0
280
     0
281
     0
282
     0
283
     1
284
     0
285
     0
286
     0
287
     3
288
     0
  0
ENDTAB
  0
TABLE
  2
BLOCK_RECORD
  5
1
330
0
100
AcDbSymbolTable
 70
     9
  0
BLOCK_RECORD
  5
1F
330
1
100
AcDbSymbolTableRecord
100
AcDbBlockTableRecord
  2
*MODEL_SPACE
  0
BLOCK_RECORD
  5
1B
330
1
100
AcDbSymbolTableRecord
100
AcDbBlockTableRecord
  2
*PAPER_SPACE
  0
BLOCK_RECORD
  5
2E
330
1
100
AcDbSymbolTableRecord
100
AcDbBlockTableRecord
  2
SE
  0
BLOCK_RECORD
  5
59
330
1
100
AcDbSymbolTableRecord
100
AcDbBlockTableRecord
  2
SE1
  0
BLOCK_RECORD
  5
61
330
1
100
AcDbSymbolTableRecord
100
AcDbBlockTableRecord
  2
SE2
  0
BLOCK_RECORD
  5
6C
330
1
100
AcDbSymbolTableRecord
100
AcDbBlockTableRecord
  2
SE3
  0
BLOCK_RECORD
  5
79
330
1
100
AcDbSymbolTableRecord
100
AcDbBlockTableRecord
  2
SE4
  0
BLOCK_RECORD
  5
84
330
1
100
AcDbSymbolTableRecord
100
AcDbBlockTableRecord
  2
SE5
  0
BLOCK_RECORD
  5
8F
330
1
100
AcDbSymbolTableRecord
100
AcDbBlockTableRecord
  2
SE6
  0
BLOCK_RECORD
  5
99
330
1
100
AcDbSymbolTableRecord
100
AcDbBlockTableRecord
  2
SE7
  0
ENDTAB
  0
ENDSEC
  0
SECTION
  2
BLOCKS
  0
BLOCK
  5
20
330
1F
100
AcDbEntity
  8
0
100
AcDbBlockBegin
  2
*MODEL_SPACE
 70
     0
 71
     0
 10
0.0
 20
0.0
 30
0.0
  3
*MODEL_SPACE
  1

  0
ENDBLK
  5
21
330
1F
100
AcDbEntity
  8
0
100
AcDbBlockEnd
  0
BLOCK
  5
1C
330
1B
100
AcDbEntity
 67
     1
  8
0
100
AcDbBlockBegin
  2
*PAPER_SPACE
 70
     0
 71
     0
 10
0.0
 20
0.0
 30
0.0
  3
*PAPER_SPACE
  1

  0
ENDBLK
  5
1D
330
1B
100
AcDbEntity
 67
     1
  8
0
100
AcDbBlockEnd
  0
BLOCK
  5
57
330
2E
100
AcDbEntity
  8
0
100
AcDbBlockBegin
  2
SE
 70
     0
 71
     0
 10
0.0
 20
0.0
 30
0.0
  3
SE
  1

  0
LINE
  5
32
330
2E
100
AcDbEntity
  8
MEGA_002132
  6
HIDDEN2
 62
     7
 48
25.4
100
AcDbLine
 10
155.5563803607
 20
176.3927042725
 30
0.0
 11
135.0563803607
 21
176.3927042725
 31
0.0
  0
LINE
  5
33
330
2E
100
AcDbEntity
  8
MEGA_002132
  6
HIDDEN2
 62
     7
 48
25.4
100
AcDbLine
 10
135.0563803607
 20
166.2867042725
 30
0.0
 11
155.5563803607
 21
166.2867042725
 31
0.0
  0
LINE
  5
34
330
2E
100
AcDbEntity
  8
MEGA_002132
  6
HIDDEN2
 62
     7
 48
25.4
100
AcDbLine
 10
133.5563803607
 20
164.8397042725
 30
0.0
 11
135.0563803607
 21
164.8397042725
 31
0.0
  0
LINE
  5
35
330
2E
100
AcDbEntity
  8
MEGA_002132
  6
CONTINUOUS
 62
     7
 48
25.4
100
AcDbLine
 10
167.0563803607
 20
182.2127235098
 30
0.0
 11
142.0563803607
 21
181.3397042725
 31
0.0
  0
LINE
  5
36
330
2E
100
AcDbEntity
  8
MEGA_002132
  6
CONTINUOUS
 62
     7
 48
25.4
100
AcDbLine
 10
142.0563803607
 20
179.3397042725
 30
0.0
 11
133.5563803607
 21
179.3397042725
 31
0.0
  0
ARC
  5
37
330
2E
100
AcDbEntity
  8
MEGA_002132
  6
CONTINUOUS
 62
     7
 48
25.4
100
AcDbCircle
 10
170.0563803611
 20
190.8397043114
 30
0.0
 40
2.999999961100002
100
AcDbArc
 50
89.5
 51
179.9934471949
  0
ARC
  5
38
330
2E
100
AcDbEntity
  8
MEGA_002132
  6
CONTINUOUS
 62
     7
 48
25.4
100
AcDbCircle
 10
177.0563803607
 20
187.7785019628
 30
0.0
 40
6.0
100
AcDbArc
 50
0.0
 51
89.5
  0
LINE
  5
39
330
2E
100
AcDbEntity
  8
MEGA_002132
  6
CONTINUOUS
 62
     7
 48
25.4
100
AcDbLine
 10
170.0825599672
 20
148.8398185033
 30
0.0
 11
177.1087395737
 21
148.9011350438
 31
0.0
  0
LINE
  5
3A
330
2E
100
AcDbEntity
  8
MEGA_002132
  6
CONTINUOUS
 62
     7
 48
25.4
100
AcDbLine
 10
167.0563803607
 20
190.8397042725
 30
0.0
 11
167.0563803607
 21
151.8397042725
 31
0.0
  0
LINE
  5
3B
330
2E
100
AcDbEntity
  8
MEGA_002132
  6
HIDDEN2
 62
     7
 48
25.4
100
AcDbLine
 10
135.0563803607
 20
177.8397042725
 30
0.0
 11
133.5563803607
 21
177.8397042725
 31
0.0
  0
LINE
  5
3C
330
2E
100
AcDbEntity
  8
MEGA_002132
  6
CONTINUOUS
 62
     7
 48
25.4
100
AcDbLine
 10
142.0563803607
 20
161.3397042725
 30
0.0
 11
167.0563803607
 21
160.4666850352
 31
0.0
  0
LINE
  5
3D
330
2E
100
AcDbEntity
  8
MEGA_002132
  6
HIDDEN2
 62
     7
 48
25.4
100
AcDbLine
 10
135.0563803607
 20
177.8397042725
 30
0.0
 11
135.0563803607
 21
164.8397042725
 31
0.0
  0
LINE
  5
3E
330
2E
100
AcDbEntity
  8
MEGA_002132
  6
CONTINUOUS
 62
     7
 48
25.4
100
AcDbLine
 10
133.5563803607
 20
163.3397042725
 30
0.0
 11
142.0563803607
 21
163.3397042725
 31
0.0
  0
ARC
  5
3F
330
2E
100
AcDbEntity
  8
MEGA_002132
  6
CONTINUOUS
 62
     7
 48
25.4
100
AcDbCircle
 10
170.0563803611
 20
151.8397042336
 30
0.0
 40
2.999999961100002
100
AcDbArc
 50
180.0065528051
 51
270.5
  0
LINE
  5
40
330
2E
100
AcDbEntity
  8
MEGA_002132
  6
HIDDEN2
 62
     7
 48
25.4
100
AcDbLine
 10
175.5563803607
 20
167.0897042725
 30
0.0
 11
175.5563803607
 21
175.5897042725
 31
0.0
  0
LINE
  5
41
330
2E
100
AcDbEntity
  8
MEGA_002132
  6
HIDDEN2
 62
     7
 48
25.4
100
AcDbLine
 10
175.5563803607
 20
167.0897042725
 30
0.0
 11
135.0563803607
 21
167.0897042725
 31
0.0
  0
LINE
  5
42
330
2E
100
AcDbEntity
  8
MEGA_002132
  6
HIDDEN2
 62
     7
 48
25.4
100
AcDbLine
 10
175.5563803607
 20
175.5897042725
 30
0.0
 11
135.0563803607
 21
175.5897042725
 31
0.0
  0
LINE
  5
43
330
2E
100
AcDbEntity
  8
MEGA_002132
  6
HIDDEN2
 62
     7
 48
25.4
100
AcDbLine
 10
155.5563803607
 20
168.6065176708
 30
0.0
 11
135.0563803607
 21
168.6065176708
 31
0.0
  0
LINE
  5
44
330
2E
100
AcDbEntity
  8
MEGA_002132
  6
HIDDEN2
 62
     7
 48
25.4
100
AcDbLine
 10
135.0563803607
 20
174.0728908743
 30
0.0
 11
155.5563803607
 21
174.0728908743
 31
0.0
  0
LINE
  5
45
330
2E
100
AcDbEntity
  8
MEGA_002132
  6
HIDDEN2
 62
     7
 48
25.4
100
AcDbLine
 10
155.5563803607
 20
176.3927042725
 30
0.0
 11
155.5563803607
 21
175.5897042725
 31
0.0
  0
LINE
  5
46
330
2E
100
AcDbEntity
  8
MEGA_002132
  6
HIDDEN2
 62
     7
 48
25.4
100
AcDbLine
 10
155.5563803607
 20
167.0897042725
 30
0.0
 11
155.5563803607
 21
166.2867042725
 31
0.0
  0
ARC
  5
47
330
2E
100
AcDbEntity
  8
MEGA_002132
  6
CONTINUOUS
 62
     7
 48
25.4
100
AcDbCircle
 10
177.0563803607
 20
154.9009065822
 30
0.0
 40
6.0
100
AcDbArc
 50
270.5
 51
360.0
  0
LINE
  5
48
330
2E
100
AcDbEntity
  8
MEGA_002132
  6
CONTINUOUS
 62
     7
 48
25.4
100
AcDbLine
 10
177.1087395737
 20
193.7782735012
 30
0.0
 11
170.0825599672
 21
193.8395900417
 31
0.0
  0
LINE
  5
49
330
2E
100
AcDbEntity
  8
MEGA_002132
  6
HIDDEN2
 62
     7
 48
25.4
100
AcDbLine
 10
155.5563803607
 20
168.6065176708
 30
0.0
 11
155.5563803607
 21
174.0728908743
 31
0.0
  0
LINE
  5
4A
330
2E
100
AcDbEntity
  8
MEGA_002132
  6
CONTINUOUS
 62
     7
 48
25.4
100
AcDbLine
 10
133.5563803607
 20
179.3397042725
 30
0.0
 11
133.5563803607
 21
163.3397042725
 31
0.0
  0
LINE
  5
4B
330
2E
100
AcDbEntity
  8
MEGA_002132
  6
CONTINUOUS
 62
     7
 48
25.4
100
AcDbLine
 10
142.0563803607
 20
181.3397042725
 30
0.0
 11
142.0563803607
 21
161.3397042725
 31
0.0
  0
LINE
  5
4C
330
2E
100
AcDbEntity
  8
MEGA_002132
  6
CONTINUOUS
 62
     7
 48
25.4
100
AcDbLine
 10
183.0563803607
 20
187.7785019628
 30
0.0
 11
183.0563803607
 21
154.9009065822
 31
0.0
  0
LINE
  5
4D
330
2E
100
AcDbEntity
  8
MEGA_002132
  6
HIDDEN2
 62
     7
 48
25.4
100
AcDbLine
 10
135.0563803607
 20
165.3397042725
 30
0.0
 11
151.5563803607
 21
165.3397042725
 31
0.0
  0
LINE
  5
4E
330
2E
100
AcDbEntity
  8
MEGA_002132
  6
HIDDEN2
 62
     7
 48
25.4
100
AcDbLine
 10
151.5563803607
 20
167.0897042725
 30
0.0
 11
151.5563803607
 21
165.3397042725
 31
0.0
  0
LINE
  5
4F
330
2E
100
AcDbEntity
  8
MEGA_002132
  6
HIDDEN2
 62
     7
 48
25.4
100
AcDbLine
 10
151.5563803607
 20
174.0728908743
 30
0.0
 11
151.5563803607
 21
168.6065176708
 31
0.0
  0
LINE
  5
50
330
2E
100
AcDbEntity
  8
MEGA_002132
  6
HIDDEN2
 62
     7
 48
25.4
100
AcDbLine
 10
135.0563803607
 20
177.3397042725
 30
0.0
 11
151.5563803607
 21
177.3397042725
 31
0.0
  0
LINE
  5
51
330
2E
100
AcDbEntity
  8
MEGA_002132
  6
HIDDEN2
 62
     7
 48
25.4
100
AcDbLine
 10
151.5563803607
 20
177.3397042725
 30
0.0
 11
151.5563803607
 21
175.5897042725
 31
0.0
  0
LINE
  5
54
330
2E
100
AcDbEntity
  8
STANDARD
  6
CENTER2
 62
     7
 48
25.4
100
AcDbLine
 10
133.5563803607
 20
171.3397042725
 30
0.0
 11
183.0563803607
 21
171.3397042725
 31
0.0
  0
LINE
  5
55
330
2E
100
AcDbEntity
  8
STANDARD
  6
HIDDEN2
 62
     7
 48
25.4
100
AcDbLine
 10
155.3063803607
 20
167.0897042725
 30
0.0
 11
175.5563803607
 21
175.5897042725
 31
0.0
  0
LINE
  5
56
330
2E
100
AcDbEntity
  8
STANDARD
  6
HIDDEN2
 62
     7
 48
25.4
100
AcDbLine
 10
155.3063803607
 20
175.5897042725
 30
0.0
 11
175.5563803607
 21
167.0897042725
 31
0.0
  0
ENDBLK
  5
58
330
2E
100
AcDbEntity
  8
0
100
AcDbBlockEnd
  0
BLOCK
  5
5F
330
59
100
AcDbEntity
  8
0
100
AcDbBlockBegin
  2
SE1
 70
     0
 71
     0
 10
0.0
 20
0.0
 30
0.0
  3
SE1
  1

  0
CIRCLE
  5
5B
330
59
100
AcDbEntity
  8
MEGA_002132
  6
CONTINUOUS
 62
     7
 48
25.4
100
AcDbCircle
 10
58.6367091292
 20
171.3397042725
 30
0.0
 40
22.50000000000001
  0
CIRCLE
  5
5C
330
59
100
AcDbEntity
  8
MEGA_002132
  6
HIDDEN2
 62
     7
 48
25.4
100
AcDbCircle
 10
58.6367091292
 20
171.3397042725
 30
0.0
 40
10.0
  0
LINE
  5
5D
330
59
100
AcDbEntity
  8
STANDARD
  6
CENTER2
 62
     7
 48
25.4
100
AcDbLine
 10
36.1981399005
 20
171.3397042725
 30
0.0
 11
81.1367091292
 21
171.3397042725
 31
0.0
  0
LINE
  5
5E
330
59
100
AcDbEntity
  8
STANDARD
  6
CENTER2
 62
     7
 48
25.4
100
AcDbLine
 10
58.6367091292
 20
193.7782735012
 30
0.0
 11
58.6367091292
 21
148.8397042725
 31
0.0
  0
ENDBLK
  5
60
330
59
100
AcDbEntity
  8
0
100
AcDbBlockEnd
  0
BLOCK
  5
6A
330
61
100
AcDbEntity
  8
0
100
AcDbBlockBegin
  2
SE2
 70
     0
 71
     0
 10
0.0
 20
0.0
 30
0.0
  3
SE2
  1

  0
POLYLINE
  5
64
330
61
100
AcDbEntity
  8
DEFAULT
  6
CONTINUOUS
 62
     7
 48
25.4
100
AcDb2dPolyline
 66
     1
 10
0.0
 20
0.0
 30
0.0
 70
     1
  0
VERTEX
  5
A4
330
64
100
AcDbEntity
  8
DEFAULT
  6
CONTINUOUS
 62
     7
100
AcDbVertex
100
AcDb2dVertex
 10
78.1367091031
 20
135.1543326606
 30
0.0
  0
VERTEX
  5
A5
330
64
100
AcDbEntity
  8
DEFAULT
  6
CONTINUOUS
 62
     7
100
AcDbVertex
100
AcDb2dVertex
 10
81.1367091292
 20
135.654332665
 30
0.0
  0
VERTEX
  5
A6
330
64
100
AcDbEntity
  8
DEFAULT
  6
CONTINUOUS
 62
     7
100
AcDbVertex
100
AcDb2dVertex
 10
78.1367091031
 20
136.1543326693
 30
0.0
  0
VERTEX
  5
A7
330
64
100
AcDbEntity
  8
DEFAULT
  6
CONTINUOUS
 62
     7
100
AcDbVertex
100
AcDb2dVertex
 10
78.1367091031
 20
135.1543326606
 30
0.0
  0
SEQEND
  5
A3
330
64
100
AcDbEntity
  8
DEFAULT
  6
CONTINUOUS
 62
     7
 48
25.4
  0
LINE
  5
65
330
61
100
AcDbEntity
  8
DEFAULT
  6
CONTINUOUS
 62
     7
 48
25.4
100
AcDbLine
 10
36.1367091292
 20
171.3397042725
 30
0.0
 11
36.1367091292
 21
134.1543326519
 31
0.0
  0
LINE
  5
66
330
61
100
AcDbEntity
  8
DEFAULT
  6
CONTINUOUS
 62
     7
 48
25.4
100
AcDbLine
 10
81.1367091292
 20
171.3397042725
 30
0.0
 11
81.1367091292
 21
134.1543326519
 31
0.0
  0
LINE
  5
67
330
61
100
AcDbEntity
  8
DEFAULT
  6
CONTINUOUS
 62
     7
 48
25.4
100
AcDbLine
 10
36.1367091292
 20
135.654332665
 30
0.0
 11
81.1367109174
 21
135.654332665
 31
0.0
  0
TEXT
  5
69
330
61
100
AcDbEntity
  8
DEFAULT
  6
CONTINUOUS
 62
     7
 48
25.4
100
AcDbText
 10
56.8980736597
 20
136.404332665
 30
0.0
 40
3.0
  1
45
  7
SEACAD_SEISO_TTF
 11
56.8980736597
 21
139.404332665
 31
0.0
100
AcDbText
 73
     3
  0
ENDBLK
  5
6B
330
61
100
AcDbEntity
  8
0
100
AcDbBlockEnd
  0
BLOCK
  5
77
330
6C
100
AcDbEntity
  8
0
100
AcDbBlockBegin
  2
SE3
 70
     0
 71
     0
 10
0.0
 20
0.0
 30
0.0
  3
SE3
  1

  0
POLYLINE
  5
6E
330
6C
100
AcDbEntity
  8
DEFAULT
  6
CONTINUOUS
 62
     7
 48
25.4
100
AcDb2dPolyline
 66
     1
 10
0.0
 20
0.0
 30
0.0
 70
     1
  0
VERTEX
  5
A9
330
6E
100
AcDbEntity
  8
DEFAULT
  6
CONTINUOUS
 62
     7
100
AcDbVertex
100
AcDb2dVertex
 10
104.3794521044
 20
176.3397042464
 30
0.0
  0
VERTEX
  5
AA
330
6E
100
AcDbEntity
  8
DEFAULT
  6
CONTINUOUS
 62
     7
100
AcDbVertex
100
AcDb2dVertex
 10
104.8794521087
 20
179.3397042725
 30
0.0
  0
VERTEX
  5
AB
330
6E
100
AcDbEntity
  8
DEFAULT
  6
CONTINUOUS
 62
     7
100
AcDbVertex
100
AcDb2dVertex
 10
105.3794521131
 20
176.3397042464
 30
0.0
  0
VERTEX
  5
AC
330
6E
100
AcDbEntity
  8
DEFAULT
  6
CONTINUOUS
 62
     7
100
AcDbVertex
100
AcDb2dVertex
 10
104.3794521044
 20
176.3397042464
 30
0.0
  0
SEQEND
  5
A8
330
6E
100
AcDbEntity
  8
DEFAULT
  6
CONTINUOUS
 62
     7
 48
25.4
  0
POLYLINE
  5
6F
330
6C
100
AcDbEntity
  8
DEFAULT
  6
CONTINUOUS
 62
     7
 48
25.4
100
AcDb2dPolyline
 66
     1
 10
0.0
 20
0.0
 30
0.0
 70
     1
  0
VERTEX
  5
AE
330
6F
100
AcDbEntity
  8
DEFAULT
  6
CONTINUOUS
 62
     7
100
AcDbVertex
100
AcDb2dVertex
 10
104.3794521044
 20
166.3397042986
 30
0.0
  0
VERTEX
  5
AF
330
6F
100
AcDbEntity
  8
DEFAULT
  6
CONTINUOUS
 62
     7
100
AcDbVertex
100
AcDb2dVertex
 10
104.8794521087
 20
163.3397042725
 30
0.0
  0
VERTEX
  5
B0
330
6F
100
AcDbEntity
  8
DEFAULT
  6
CONTINUOUS
 62
     7
100
AcDbVertex
100
AcDb2dVertex
 10
105.3794521131
 20
166.3397042986
 30
0.0
  0
VERTEX
  5
B1
330
6F
100
AcDbEntity
  8
DEFAULT
  6
CONTINUOUS
 62
     7
100
AcDbVertex
100
AcDb2dVertex
 10
104.3794521044
 20
166.3397042986
 30
0.0
  0
SEQEND
  5
AD
330
6F
100
AcDbEntity
  8
DEFAULT
  6
CONTINUOUS
 62
     7
 48
25.4
  0
LINE
  5
70
330
6C
100
AcDbEntity
  8
DEFAULT
  6
CONTINUOUS
 62
     7
 48
25.4
100
AcDbLine
 10
137.8063803607
 20
179.3397042725
 30
0.0
 11
103.3794520957
 21
179.3397042725
 31
0.0
  0
LINE
  5
71
330
6C
100
AcDbEntity
  8
DEFAULT
  6
CONTINUOUS
 62
     7
 48
25.4
100
AcDbLine
 10
133.5563798988
 20
163.3397042725
 30
0.0
 11
103.3794520957
 21
163.3397042725
 31
0.0
  0
LINE
  5
72
330
6C
100
AcDbEntity
  8
DEFAULT
  6
CONTINUOUS
 62
     7
 48
25.4
100
AcDbLine
 10
104.8794521087
 20
179.3397042725
 30
0.0
 11
104.8794521087
 21
163.3397035126
 31
0.0
  0
TEXT
  5
73
330
6C
100
AcDbEntity
  8
DEFAULT
  6
CONTINUOUS
 62
     7
 48
25.4
100
AcDbText
 10
104.1294521087
 20
169.3622822967
 30
0.0
 40
3.0
  1
16
 50
90.0
  7
SEACAD_SEISO_TTF
 11
101.1294521087
 21
169.3622822967
 31
0.0
100
AcDbText
 73
     3
  0
TEXT
  5
75
330
6C
100
AcDbEntity
  8
DEFAULT
  6
CONTINUOUS
 62
     7
 48
25.4
100
AcDbText
 10
104.1294521087
 20
165.7216709429
 30
0.0
 40
3.0
  1
O
 50
90.0
  7
SEACAD_SEMECI1_TTF
 11
101.1294521087
 21
165.7216709429
 31
0.0
100
AcDbText
 73
     3
  0
TEXT
  5
76
330
6C
100
AcDbEntity
  8
DEFAULT
  6
CONTINUOUS
 62
     7
 48
25.4
100
AcDbText
 10
104.1294521087
 20
172.7304641148
 30
0.0
 40
3.0
  1
/18
 50
90.0
  7
SEACAD_SEISO_TTF
 11
101.1294521087
 21
172.7304641148
 31
0.0
100
AcDbText
 73
     3
  0
ENDBLK
  5
78
330
6C
100
AcDbEntity
  8
0
100
AcDbBlockEnd
  0
BLOCK
  5
82
330
79
100
AcDbEntity
  8
0
100
AcDbBlockBegin
  2
SE4
 70
     0
 71
     0
 10
0.0
 20
0.0
 30
0.0
  3
SE4
  1

  0
POLYLINE
  5
7B
330
79
100
AcDbEntity
  8
DEFAULT
  6
CONTINUOUS
 62
     7
 48
25.4
100
AcDb2dPolyline
 66
     1
 10
0.0
 20
0.0
 30
0.0
 70
     1
  0
VERTEX
  5
B3
330
7B
100
AcDbEntity
  8
DEFAULT
  6
CONTINUOUS
 62
     7
100
AcDbVertex
100
AcDb2dVertex
 10
111.281601126
 20
174.3397042464
 30
0.0
  0
VERTEX
  5
B4
330
7B
100
AcDbEntity
  8
DEFAULT
  6
CONTINUOUS
 62
     7
100
AcDbVertex
100
AcDb2dVertex
 10
111.7816011304
 20
177.3397042725
 30
0.0
  0
VERTEX
  5
B5
330
7B
100
AcDbEntity
  8
DEFAULT
  6
CONTINUOUS
 62
     7
100
AcDbVertex
100
AcDb2dVertex
 10
112.2816011347
 20
174.3397042464
 30
0.0
  0
VERTEX
  5
B6
330
7B
100
AcDbEntity
  8
DEFAULT
  6
CONTINUOUS
 62
     7
100
AcDbVertex
100
AcDb2dVertex
 10
111.281601126
 20
174.3397042464
 30
0.0
  0
SEQEND
  5
B2
330
7B
100
AcDbEntity
  8
DEFAULT
  6
CONTINUOUS
 62
     7
 48
25.4
  0
POLYLINE
  5
7C
330
79
100
AcDbEntity
  8
DEFAULT
  6
CONTINUOUS
 62
     7
 48
25.4
100
AcDb2dPolyline
 66
     1
 10
0.0
 20
0.0
 30
0.0
 70
     1
  0
VERTEX
  5
B8
330
7C
100
AcDbEntity
  8
DEFAULT
  6
CONTINUOUS
 62
     7
100
AcDbVertex
100
AcDb2dVertex
 10
111.281601126
 20
168.3397042986
 30
0.0
  0
VERTEX
  5
B9
330
7C
100
AcDbEntity
  8
DEFAULT
  6
CONTINUOUS
 62
     7
100
AcDbVertex
100
AcDb2dVertex
 10
111.7816011304
 20
165.3397042725
 30
0.0
  0
VERTEX
  5
BA
330
7C
100
AcDbEntity
  8
DEFAULT
  6
CONTINUOUS
 62
     7
100
AcDbVertex
100
AcDb2dVertex
 10
112.2816011347
 20
168.3397042986
 30
0.0
  0
VERTEX
  5
BB
330
7C
100
AcDbEntity
  8
DEFAULT
  6
CONTINUOUS
 62
     7
100
AcDbVertex
100
AcDb2dVertex
 10
111.281601126
 20
168.3397042986
 30
0.0
  0
SEQEND
  5
B7
330
7C
100
AcDbEntity
  8
DEFAULT
  6
CONTINUOUS
 62
     7
 48
25.4
  0
LINE
  5
7D
330
79
100
AcDbEntity
  8
DEFAULT
  6
CONTINUOUS
 62
     7
 48
25.4
100
AcDbLine
 10
135.0563804501
 20
177.3397042725
 30
0.0
 11
110.2816011173
 21
177.3397042725
 31
0.0
  0
LINE
  5
7E
330
79
100
AcDbEntity
  8
DEFAULT
  6
CONTINUOUS
 62
     7
 48
25.4
100
AcDbLine
 10
135.0563804501
 20
165.3397042725
 30
0.0
 11
110.2816011173
 21
165.3397042725
 31
0.0
  0
LINE
  5
7F
330
79
100
AcDbEntity
  8
DEFAULT
  6
CONTINUOUS
 62
     7
 48
25.4
100
AcDbLine
 10
111.7816011304
 20
177.3397042725
 30
0.0
 11
111.7816011304
 21
165.3397041682
 31
0.0
  0
TEXT
  5
80
330
79
100
AcDbEntity
  8
DEFAULT
  6
CONTINUOUS
 62
     7
 48
25.4
100
AcDbText
 10
111.0316011304
 20
171.1147042204
 30
0.0
 40
3.0
  1
12
 50
90.0
  7
SEACAD_SEISO_TTF
 11
108.0316011304
 21
171.1147042204
 31
0.0
100
AcDbText
 73
     3
  0
TEXT
  5
81
330
79
100
AcDbEntity
  8
DEFAULT
  6
CONTINUOUS
 62
     7
 48
25.4
100
AcDbText
 10
111.0316011304
 20
168.4965224022
 30
0.0
 40
3.0
  1
M
 50
90.0
  7
SEACAD_SEISO_TTF
 11
108.0316011304
 21
168.4965224022
 31
0.0
100
AcDbText
 73
     3
  0
ENDBLK
  5
83
330
79
100
AcDbEntity
  8
0
100
AcDbBlockEnd
  0
BLOCK
  5
8D
330
84
100
AcDbEntity
  8
0
100
AcDbBlockBegin
  2
SE5
 70
     0
 71
     0
 10
0.0
 20
0.0
 30
0.0
  3
SE5
  1

  0
POLYLINE
  5
86
330
84
100
AcDbEntity
  8
DEFAULT
  6
CONTINUOUS
 62
     7
 48
25.4
100
AcDb2dPolyline
 66
     1
 10
0.0
 20
0.0
 30
0.0
 70
     1
  0
VERTEX
  5
BD
330
86
100
AcDbEntity
  8
DEFAULT
  6
CONTINUOUS
 62
     7
100
AcDbVertex
100
AcDb2dVertex
 10
119.3841222177
 20
164.0897042464
 30
0.0
  0
VERTEX
  5
BE
330
86
100
AcDbEntity
  8
DEFAULT
  6
CONTINUOUS
 62
     7
100
AcDbVertex
100
AcDb2dVertex
 10
119.8841222221
 20
167.0897042725
 30
0.0
  0
VERTEX
  5
BF
330
86
100
AcDbEntity
  8
DEFAULT
  6
CONTINUOUS
 62
     7
100
AcDbVertex
100
AcDb2dVertex
 10
120.3841222264
 20
164.0897042464
 30
0.0
  0
VERTEX
  5
C0
330
86
100
AcDbEntity
  8
DEFAULT
  6
CONTINUOUS
 62
     7
100
AcDbVertex
100
AcDb2dVertex
 10
119.3841222177
 20
164.0897042464
 30
0.0
  0
SEQEND
  5
BC
330
86
100
AcDbEntity
  8
DEFAULT
  6
CONTINUOUS
 62
     7
 48
25.4
  0
POLYLINE
  5
87
330
84
100
AcDbEntity
  8
DEFAULT
  6
CONTINUOUS
 62
     7
 48
25.4
100
AcDb2dPolyline
 66
     1
 10
0.0
 20
0.0
 30
0.0
 70
     1
  0
VERTEX
  5
C2
330
87
100
AcDbEntity
  8
DEFAULT
  6
CONTINUOUS
 62
     7
100
AcDbVertex
100
AcDb2dVertex
 10
119.3841222177
 20
178.5897042986
 30
0.0
  0
VERTEX
  5
C3
330
87
100
AcDbEntity
  8
DEFAULT
  6
CONTINUOUS
 62
     7
100
AcDbVertex
100
AcDb2dVertex
 10
119.8841222221
 20
175.5897042725
 30
0.0
  0
VERTEX
  5
C4
330
87
100
AcDbEntity
  8
DEFAULT
  6
CONTINUOUS
 62
     7
100
AcDbVertex
100
AcDb2dVertex
 10
120.3841222264
 20
178.5897042986
 30
0.0
  0
VERTEX
  5
C5
330
87
100
AcDbEntity
  8
DEFAULT
  6
CONTINUOUS
 62
     7
100
AcDbVertex
100
AcDb2dVertex
 10
119.3841222177
 20
178.5897042986
 30
0.0
  0
SEQEND
  5
C1
330
87
100
AcDbEntity
  8
DEFAULT
  6
CONTINUOUS
 62
     7
 48
25.4
  0
LINE
  5
88
330
84
100
AcDbEntity
  8
DEFAULT
  6
CONTINUOUS
 62
     7
 48
25.4
100
AcDbLine
 10
135.0563802415
 20
167.0897042725
 30
0.0
 11
118.384122209
 21
167.0897042725
 31
0.0
  0
LINE
  5
89
330
84
100
AcDbEntity
  8
DEFAULT
  6
CONTINUOUS
 62
     7
 48
25.4
100
AcDbLine
 10
135.0563802415
 20
175.5897042725
 30
0.0
 11
118.384122209
 21
175.5897042725
 31
0.0
  0
LINE
  5
8A
330
84
100
AcDbEntity
  8
DEFAULT
  6
CONTINUOUS
 62
     7
 48
25.4
100
AcDbLine
 10
119.8841222221
 20
161.0897042204
 30
0.0
 11
119.8841222221
 21
181.5897038553
 31
0.0
  0
TEXT
  5
8B
330
84
100
AcDbEntity
  8
DEFAULT
  6
CONTINUOUS
 62
     7
 48
25.4
100
AcDbText
 10
119.1341222221
 20
167.9184659167
 30
0.0
 40
3.0
  1
q
 50
90.0
  7
SEACAD_SEMECI1_TTF
 11
116.1341222221
 21
167.9184659167
 31
0.0
100
AcDbText
 73
     3
  0
TEXT
  5
8C
330
84
100
AcDbEntity
  8
DEFAULT
  6
CONTINUOUS
 62
     7
 48
25.4
100
AcDbText
 10
119.1341222221
 20
171.3245794539
 30
0.0
 40
3.0
  1
 8
 50
90.0
  7
SEACAD_SEISO_TTF
 11
116.1341222221
 21
171.3245794539
 31
0.0
100
AcDbText
 73
     3
  0
ENDBLK
  5
8E
330
84
100
AcDbEntity
  8
0
100
AcDbBlockEnd
  0
BLOCK
  5
97
330
8F
100
AcDbEntity
  8
0
100
AcDbBlockBegin
  2
SE6
 70
     0
 71
     0
 10
0.0
 20
0.0
 30
0.0
  3
SE6
  1

  0
POLYLINE
  5
91
330
8F
100
AcDbEntity
  8
DEFAULT
  6
CONTINUOUS
 62
     7
 48
25.4
100
AcDb2dPolyline
 66
     1
 10
0.0
 20
0.0
 30
0.0
 70
     1
  0
VERTEX
  5
C7
330
91
100
AcDbEntity
  8
DEFAULT
  6
CONTINUOUS
 62
     7
100
AcDbVertex
100
AcDb2dVertex
 10
145.0563803868
 20
134.2041896959
 30
0.0
  0
VERTEX
  5
C8
330
91
100
AcDbEntity
  8
DEFAULT
  6
CONTINUOUS
 62
     7
100
AcDbVertex
100
AcDb2dVertex
 10
142.0563803607
 20
134.7041897002
 30
0.0
  0
VERTEX
  5
C9
330
91
100
AcDbEntity
  8
DEFAULT
  6
CONTINUOUS
 62
     7
100
AcDbVertex
100
AcDb2dVertex
 10
145.0563803868
 20
135.2041897046
 30
0.0
  0
VERTEX
  5
CA
330
91
100
AcDbEntity
  8
DEFAULT
  6
CONTINUOUS
 62
     7
100
AcDbVertex
100
AcDb2dVertex
 10
145.0563803868
 20
134.2041896959
 30
0.0
  0
SEQEND
  5
C6
330
91
100
AcDbEntity
  8
DEFAULT
  6
CONTINUOUS
 62
     7
 48
25.4
  0
POLYLINE
  5
92
330
8F
100
AcDbEntity
  8
DEFAULT
  6
CONTINUOUS
 62
     7
 48
25.4
100
AcDb2dPolyline
 66
     1
 10
0.0
 20
0.0
 30
0.0
 70
     1
  0
VERTEX
  5
CC
330
92
100
AcDbEntity
  8
DEFAULT
  6
CONTINUOUS
 62
     7
100
AcDbVertex
100
AcDb2dVertex
 10
130.5563803346
 20
134.2041896959
 30
0.0
  0
VERTEX
  5
CD
330
92
100
AcDbEntity
  8
DEFAULT
  6
CONTINUOUS
 62
     7
100
AcDbVertex
100
AcDb2dVertex
 10
133.5563803607
 20
134.7041897002
 30
0.0
  0
VERTEX
  5
CE
330
92
100
AcDbEntity
  8
DEFAULT
  6
CONTINUOUS
 62
     7
100
AcDbVertex
100
AcDb2dVertex
 10
130.5563803346
 20
135.2041897046
 30
0.0
  0
VERTEX
  5
CF
330
92
100
AcDbEntity
  8
DEFAULT
  6
CONTINUOUS
 62
     7
100
AcDbVertex
100
AcDb2dVertex
 10
130.5563803346
 20
134.2041896959
 30
0.0
  0
SEQEND
  5
CB
330
92
100
AcDbEntity
  8
DEFAULT
  6
CONTINUOUS
 62
     7
 48
25.4
  0
LINE
  5
93
330
8F
100
AcDbEntity
  8
DEFAULT
  6
CONTINUOUS
 62
     7
 48
25.4
100
AcDbLine
 10
142.0563803607
 20
161.3397042725
 30
0.0
 11
142.0563803607
 21
133.2041896872
 31
0.0
  0
LINE
  5
94
330
8F
100
AcDbEntity
  8
DEFAULT
  6
CONTINUOUS
 62
     7
 48
25.4
100
AcDbLine
 10
133.5563803607
 20
163.3397042725
 30
0.0
 11
133.5563803607
 21
133.2041896872
 31
0.0
  0
LINE
  5
95
330
8F
100
AcDbEntity
  8
DEFAULT
  6
CONTINUOUS
 62
     7
 48
25.4
100
AcDbLine
 10
148.0563804129
 20
134.7041897002
 30
0.0
 11
127.556380778
 21
134.7041897002
 31
0.0
  0
TEXT
  5
96
330
8F
100
AcDbEntity
  8
DEFAULT
  6
CONTINUOUS
 62
     7
 48
25.4
100
AcDbText
 10
135.7268346752
 20
135.4541897002
 30
0.0
 40
3.0
  1
8,5
  7
SEACAD_SEISO_TTF
 11
135.7268346752
 21
138.4541897002
 31
0.0
100
AcDbText
 73
     3
  0
ENDBLK
  5
98
330
8F
100
AcDbEntity
  8
0
100
AcDbBlockEnd
  0
BLOCK
  5
A1
330
99
100
AcDbEntity
  8
0
100
AcDbBlockBegin
  2
SE7
 70
     0
 71
     0
 10
0.0
 20
0.0
 30
0.0
  3
SE7
  1

  0
POLYLINE
  5
9B
330
99
100
AcDbEntity
  8
DEFAULT
  6
CONTINUOUS
 62
     7
 48
25.4
100
AcDb2dPolyline
 66
     1
 10
0.0
 20
0.0
 30
0.0
 70
     1
  0
VERTEX
  5
D1
330
9B
100
AcDbEntity
  8
DEFAULT
  6
CONTINUOUS
 62
     7
100
AcDbVertex
100
AcDb2dVertex
 10
145.0563803868
 20
134.2041896959
 30
0.0
  0
VERTEX
  5
D2
330
9B
100
AcDbEntity
  8
DEFAULT
  6
CONTINUOUS
 62
     7
100
AcDbVertex
100
AcDb2dVertex
 10
142.0563803607
 20
134.7041897002
 30
0.0
  0
VERTEX
  5
D3
330
9B
100
AcDbEntity
  8
DEFAULT
  6
CONTINUOUS
 62
     7
100
AcDbVertex
100
AcDb2dVertex
 10
145.0563803868
 20
135.2041897046
 30
0.0
  0
VERTEX
  5
D4
330
9B
100
AcDbEntity
  8
DEFAULT
  6
CONTINUOUS
 62
     7
100
AcDbVertex
100
AcDb2dVertex
 10
145.0563803868
 20
134.2041896959
 30
0.0
  0
SEQEND
  5
D0
330
9B
100
AcDbEntity
  8
DEFAULT
  6
CONTINUOUS
 62
     7
 48
25.4
  0
POLYLINE
  5
9C
330
99
100
AcDbEntity
  8
DEFAULT
  6
CONTINUOUS
 62
     7
 48
25.4
100
AcDb2dPolyline
 66
     1
 10
0.0
 20
0.0
 30
0.0
 70
     1
  0
VERTEX
  5
D6
330
9C
100
AcDbEntity
  8
DEFAULT
  6
CONTINUOUS
 62
     7
100
AcDbVertex
100
AcDb2dVertex
 10
180.0563803346
 20
134.2041896959
 30
0.0
  0
VERTEX
  5
D7
330
9C
100
AcDbEntity
  8
DEFAULT
  6
CONTINUOUS
 62
     7
100
AcDbVertex
100
AcDb2dVertex
 10
183.0563803607
 20
134.7041897002
 30
0.0
  0
VERTEX
  5
D8
330
9C
100
AcDbEntity
  8
DEFAULT
  6
CONTINUOUS
 62
     7
100
AcDbVertex
100
AcDb2dVertex
 10
180.0563803346
 20
135.2041897046
 30
0.0
  0
VERTEX
  5
D9
330
9C
100
AcDbEntity
  8
DEFAULT
  6
CONTINUOUS
 62
     7
100
AcDbVertex
100
AcDb2dVertex
 10
180.0563803346
 20
134.2041896959
 30
0.0
  0
SEQEND
  5
D5
330
9C
100
AcDbEntity
  8
DEFAULT
  6
CONTINUOUS
 62
     7
 48
25.4
  0
LINE
  5
9D
330
99
100
AcDbEntity
  8
DEFAULT
  6
CONTINUOUS
 62
     7
 48
25.4
100
AcDbLine
 10
142.0563803607
 20
161.3397042725
 30
0.0
 11
142.0563803607
 21
133.2041896872
 31
0.0
  0
LINE
  5
9E
330
99
100
AcDbEntity
  8
DEFAULT
  6
CONTINUOUS
 62
     7
 48
25.4
100
AcDbLine
 10
183.0563803607
 20
154.9009065822
 30
0.0
 11
183.0563803607
 21
133.2041896872
 31
0.0
  0
LINE
  5
9F
330
99
100
AcDbEntity
  8
DEFAULT
  6
CONTINUOUS
 62
     7
 48
25.4
100
AcDbLine
 10
142.0563803607
 20
134.7041897002
 30
0.0
 11
183.0563814932
 21
134.7041897002
 31
0.0
  0
TEXT
  5
A0
330
99
100
AcDbEntity
  8
DEFAULT
  6
CONTINUOUS
 62
     7
 48
25.4
100
AcDbText
 10
161.056380927
 20
135.4541897002
 30
0.0
 40
3.0
  1
41
  7
SEACAD_SEISO_TTF
 11
161.056380927
 21
138.4541897002
 31
0.0
100
AcDbText
 73
     3
  0
ENDBLK
  5
A2
330
99
100
AcDbEntity
  8
0
100
AcDbBlockEnd
  0
ENDSEC
  0
SECTION
  2
ENTITIES
  0
INSERT
  5
2F
330
1F
100
AcDbEntity
  8
0
100
AcDbBlockReference
  2
SE
 10
0.0
 20
0.0
 30
0.0
  0
INSERT
  5
5A
330
1F
100
AcDbEntity
  8
0
100
AcDbBlockReference
  2
SE1
 10
0.0
 20
0.0
 30
0.0
  0
INSERT
  5
62
330
1F
100
AcDbEntity
  8
0
100
AcDbBlockReference
  2
SE2
 10
0.0
 20
0.0
 30
0.0
  0
INSERT
  5
6D
330
1F
100
AcDbEntity
  8
0
100
AcDbBlockReference
  2
SE3
 10
0.0
 20
0.0
 30
0.0
  0
INSERT
  5
7A
330
1F
100
AcDbEntity
  8
0
100
AcDbBlockReference
  2
SE4
 10
0.0
 20
0.0
 30
0.0
  0
INSERT
  5
85
330
1F
100
AcDbEntity
  8
0
100
AcDbBlockReference
  2
SE5
 10
0.0
 20
0.0
 30
0.0
  0
INSERT
  5
90
330
1F
100
AcDbEntity
  8
0
100
AcDbBlockReference
  2
SE6
 10
0.0
 20
0.0
 30
0.0
  0
INSERT
  5
9A
330
1F
100
AcDbEntity
  8
0
100
AcDbBlockReference
  2
SE7
 10
0.0
 20
0.0
 30
0.0
  0
ENDSEC
  0
SECTION
  2
OBJECTS
  0
DICTIONARY
  5
C
330
0
100
AcDbDictionary
  3
ACAD_GROUP
350
D
  3
ACAD_LAYOUT
350
1A
  3
ACAD_MLINESTYLE
350
17
  3
ACAD_PLOTSETTINGS
350
19
  3
ACAD_TABLESTYLE
350
2A
  3
ACDBVARIABLEDICTIONARY
350
2C
1001
ACAD
1000
TREAT_AS_HARD
1070
     0
  0
DICTIONARY
  5
DA
330
29
100
AcDbDictionary
  3
ACAD_XREC_ROUNDTRIP
360
DB
  0
DICTIONARY
  5
D
102
{ACAD_REACTORS
330
C
102
}
330
C
100
AcDbDictionary
1001
ACAD
1000
TREAT_AS_HARD
1070
     0
  0
DICTIONARY
  5
1A
102
{ACAD_REACTORS
330
C
102
}
330
C
100
AcDbDictionary
1001
ACAD
1000
TREAT_AS_HARD
1070
     0
  0
DICTIONARY
  5
17
102
{ACAD_REACTORS
330
C
102
}
330
C
100
AcDbDictionary
  3
STANDARD
350
18
1001
ACAD
1000
TREAT_AS_HARD
1070
     0
  0
DICTIONARY
  5
19
102
{ACAD_REACTORS
330
C
102
}
330
C
100
AcDbDictionary
1001
ACAD
1000
TREAT_AS_HARD
1070
     0
  0
DICTIONARY
  5
2A
102
{ACAD_REACTORS
330
C
102
}
330
C
100
AcDbDictionary
  3
STANDARD
350
2B
1001
ACAD
1000
TREAT_AS_HARD
1070
     0
  0
DICTIONARY
  5
2C
102
{ACAD_REACTORS
330
C
102
}
330
C
100
AcDbDictionary
  3
CTABLESTYLE
350
2D
1001
ACAD
1000
TREAT_AS_HARD
1070
     0
  0
XRECORD
  5
DB
102
{ACAD_REACTORS
330
DA
102
}
330
DA
100
AcDbXrecord
102
UCS
 74
     0
 71
     1
 10
0.0
 20
0.0
 30
0.0
 10
1.0
 20
0.0
 30
0.0
 10
0.0
 20
1.0
 30
0.0
146
0.0
 79
     0
102
VIEW
281
     0
  0
MLINESTYLE
  5
18
102
{ACAD_REACTORS
330
17
102
}
330
17
100
AcDbMlineStyle
  2
Standard
 70
     0
  3

 62
   256
 51
90.0
 52
90.0
 71
     2
 49
0.5
 62
   256
  6
BYLAYER
 49
-0.5
 62
   256
  6
BYLAYER
  0
TABLESTYLE
  5
2B
102
{ACAD_REACTORS
330
2A
102
}
330
2A
100
AcDbTableStyle
  3
Standard
 70
     0
 71
     0
 40
0.06
 41
0.06
280
     0
281
     0
  7
STANDARD
140
0.18
170
     2
 62
     0
 63
     7
283
     0
274
    -2
284
     1
 64
     0
275
    -2
285
     1
 65
     0
276
    -2
286
     1
 66
     0
277
    -2
287
     1
 67
     0
278
    -2
288
     1
 68
     0
279
    -2
289
     1
 69
     0
  7
STANDARD
140
0.25
170
     5
 62
     0
 63
     7
283
     0
274
    -2
284
     1
 64
     0
275
    -2
285
     1
 65
     0
276
    -2
286
     1
 66
     0
277
    -2
287
     1
 67
     0
278
    -2
288
     1
 68
     0
279
    -2
289
     1
 69
     0
  7
STANDARD
140
0.18
170
     5
 62
     0
 63
     7
283
     0
274
    -2
284
     1
 64
     0
275
    -2
285
     1
 65
     0
276
    -2
286
     1
 66
     0
277
    -2
287
     1
 67
     0
278
    -2
288
     1
 68
     0
279
    -2
289
     1
 69
     0
  0
DICTIONARYVAR
  5
2D
102
{ACAD_REACTORS
330
2C
102
}
330
2C
100
DictionaryVariables
280
     0
  1
Standard
  0
ENDSEC
  0
EOF
