  0
SECTION
  2
HEADER
  9
$ACADVER
  1
AC1012
  9
$DWGCODEPAGE
  3
ansi_1252
  9
$INSBASE
 10
0.0
 20
0.0
 30
0.0
  9
$EXTMIN
 10
0.0
 20
0.0
 30
0.0
  9
$EXTMAX
 10
210.0
 20
297.0
 30
0.0
  9
$LIMMIN
 10
0.0
 20
0.0
  9
$LIMMAX
 10
210.0
 20
297.0
  9
$ORTHOMODE
 70
     0
  9
$REGENMODE
 70
     1
  9
$FILLMODE
 70
     1
  9
$QTEXTMODE
 70
     0
  9
$MIRRTEXT
 70
     1
  9
$DRAGMODE
 70
     2
  9
$LTSCALE
 40
1.0
  9
$OSMODE
 70
    37
  9
$ATTMODE
 70
     1
  9
$TEXTSIZE
 40
0.2
  9
$TRACEWID
 40
0.05
  9
$TEXTSTYLE
  7
STANDARD
  9
$CLAYER
  8
0
  9
$CELTYPE
  6
BYLAYER
  9
$CECOLOR
 62
   256
  9
$CELTSCALE
 40
25.4
  9
$DELOBJ
 70
     1
  9
$DISPSILH
 70
     0
  9
$DIMSCALE
 40
1.0
  9
$DIMASZ
 40
0.18
  9
$DIMEXO
 40
0.0625
  9
$DIMDLI
 40
0.38
  9
$DIMRND
 40
0.0
  9
$DIMDLE
 40
0.0
  9
$DIMEXE
 40
0.18
  9
$DIMTP
 40
0.0
  9
$DIMTM
 40
0.0
  9
$DIMTXT
 40
0.18
  9
$DIMCEN
 40
0.09
  9
$DIMTSZ
 40
0.0
  9
$DIMTOL
 70
     0
  9
$DIMLIM
 70
     0
  9
$DIMTIH
 70
     1
  9
$DIMTOH
 70
     1
  9
$DIMSE1
 70
     0
  9
$DIMSE2
 70
     0
  9
$DIMTAD
 70
     0
  9
$DIMZIN
 70
     0
  9
$DIMBLK
  1

  9
$DIMASO
 70
     1
  9
$DIMSHO
 70
     1
  9
$DIMPOST
  1

  9
$DIMAPOST
  1

  9
$DIMALT
 70
     0
  9
$DIMALTD
 70
     2
  9
$DIMALTF
 40
25.4
  9
$DIMLFAC
 40
1.0
  9
$DIMTOFL
 70
     0
  9
$DIMTVP
 40
0.0
  9
$DIMTIX
 70
     0
  9
$DIMSOXD
 70
     0
  9
$DIMSAH
 70
     0
  9
$DIMBLK1
  1

  9
$DIMBLK2
  1

  9
$DIMSTYLE
  2
STANDARD
  9
$DIMCLRD
 70
     0
  9
$DIMCLRE
 70
     0
  9
$DIMCLRT
 70
     0
  9
$DIMTFAC
 40
1.0
  9
$DIMGAP
 40
0.09
  9
$DIMJUST
 70
     0
  9
$DIMSD1
 70
     0
  9
$DIMSD2
 70
     0
  9
$DIMTOLJ
 70
     1
  9
$DIMTZIN
 70
     0
  9
$DIMALTZ
 70
     0
  9
$DIMALTTZ
 70
     0
  9
$DIMFIT
 70
     3
  9
$DIMUPT
 70
     0
  9
$DIMUNIT
 70
     2
  9
$DIMDEC
 70
     4
  9
$DIMTDEC
 70
     4
  9
$DIMALTU
 70
     2
  9
$DIMALTTD
 70
     2
  9
$DIMTXSTY
  7
STANDARD
  9
$DIMAUNIT
 70
     0
  9
$LUNITS
 70
     2
  9
$LUPREC
 70
     4
  9
$SKETCHINC
 40
0.1
  9
$FILLETRAD
 40
0.5
  9
$AUNITS
 70
     0
  9
$AUPREC
 70
     0
  9
$MENU
  1
.
  9
$ELEVATION
 40
0.0
  9
$PELEVATION
 40
0.0
  9
$THICKNESS
 40
0.0
  9
$LIMCHECK
 70
     0
  9
$CHAMFERA
 40
0.5
  9
$CHAMFERB
 40
0.5
  9
$CHAMFERC
 40
1.0
  9
$CHAMFERD
 40
0.0
  9
$SKPOLY
 70
     0
  9
$TDCREATE
 40
2453762.543024734
  9
$TDUPDATE
 40
2453762.543024745
  9
$TDINDWG
 40
0.0000000116
  9
$TDUSRTIMER
 40
0.0000000116
  9
$USRTIMER
 70
     1
  9
$ANGBASE
 50
0.0
  9
$ANGDIR
 70
     0
  9
$PDMODE
 70
     0
  9
$PDSIZE
 40
0.0
  9
$PLINEWID
 40
0.0
  9
$COORDS
 70
     1
  9
$SPLFRAME
 70
     0
  9
$SPLINETYPE
 70
     6
  9
$SPLINESEGS
 70
     8
  9
$ATTDIA
 70
     0
  9
$ATTREQ
 70
     1
  9
$HANDLING
 70
     1
  9
$HANDSEED
  5
DD
  9
$SURFTAB1
 70
     6
  9
$SURFTAB2
 70
     6
  9
$SURFTYPE
 70
     6
  9
$SURFU
 70
     6
  9
$SURFV
 70
     6
  9
$UCSNAME
  2

  9
$UCSORG
 10
0.0
 20
0.0
 30
0.0
  9
$UCSXDIR
 10
1.0
 20
0.0
 30
0.0
  9
$UCSYDIR
 10
0.0
 20
1.0
 30
0.0
  9
$PUCSNAME
  2

  9
$PUCSORG
 10
0.0
 20
0.0
 30
0.0
  9
$PUCSXDIR
 10
1.0
 20
0.0
 30
0.0
  9
$PUCSYDIR
 10
0.0
 20
1.0
 30
0.0
  9
$USERI1
 70
     0
  9
$USERI2
 70
     0
  9
$USERI3
 70
     0
  9
$USERI4
 70
     0
  9
$USERI5
 70
     0
  9
$USERR1
 40
0.0
  9
$USERR2
 40
0.0
  9
$USERR3
 40
0.0
  9
$USERR4
 40
0.0
  9
$USERR5
 40
0.0
  9
$WORLDVIEW
 70
     1
  9
$SHADEDGE
 70
     3
  9
$SHADEDIF
 70
    70
  9
$TILEMODE
 70
     1
  9
$MAXACTVP
 70
    64
  9
$PINSBASE
 10
0.0
 20
0.0
 30
0.0
  9
$PLIMCHECK
 70
     0
  9
$PEXTMIN
 10
0.0
 20
0.0
 30
0.0
  9
$PEXTMAX
 10
210.0
 20
297.0
 30
0.0
  9
$PLIMMIN
 10
0.0
 20
0.0
  9
$PLIMMAX
 10
12.0
 20
9.0
  9
$UNITMODE
 70
     0
  9
$VISRETAIN
 70
     1
  9
$PLINEGEN
 70
     0
  9
$PSLTSCALE
 70
     1
  9
$TREEDEPTH
 70
  3020
  9
$PICKSTYLE
 70
     1
  9
$CMLSTYLE
  2
STANDARD
  9
$CMLJUST
 70
     0
  9
$CMLSCALE
 40
1.0
  9
$SAVEIMAGES
 70
     1
  0
ENDSEC
  0
SECTION
  2
CLASSES
  0
CLASS
  1
ACDBDICTIONARYWDFLT
  2
AcDbDictionaryWithDefault
  3
ObjectDBX Classes
 90
        0
280
     0
281
     0
  0
CLASS
  1
TABLESTYLE
  2
AcDbTableStyle
  3
ObjectDBX Classes
 90
     2047
280
     0
281
     0
  0
CLASS
  1
DICTIONARYVAR
  2
AcDbDictionaryVar
  3
ObjectDBX Classes
 90
        0
280
     0
281
     0
  0
CLASS
  1
XRECORD
  2
AcDbXrecord
  3
AutoCAD 2000
 90
    32768
280
     0
281
     0
  0
CLASS
  1
LWPOLYLINE
  2
AcDbPolyline
  3
AutoCAD 2000
 90
    32768
280
     0
281
     1
  0
CLASS
  1
HATCH
  2
AcDbHatch
  3
AutoCAD 2000
 90
    32768
280
     0
281
     1
  0
CLASS
  1
ACDBPLACEHOLDER
  2
AcDbPlaceHolder
  3
ObjectDBX Classes
 90
        0
280
     0
281
     0
  0
CLASS
  1
LAYOUT
  2
AcDbLayout
  3
ObjectDBX Classes
 90
        0
280
     0
281
     0
  0
ENDSEC
  0
SECTION
  2
TABLES
  0
TABLE
  2
VPORT
  5
8
330
0
100
AcDbSymbolTable
 70
     2
  0
VPORT
  5
29
102
{ACAD_XDICTIONARY
360
DB
102
}
330
8
100
AcDbSymbolTableRecord
100
AcDbViewportTableRecord
  2
*ACTIVE
 70
     0
 10
0.0
 20
0.0
 11
1.0
 21
1.0
 12
10.4299065421
 22
4.5
 13
0.0
 23
0.0
 14
0.5
 24
0.5
 15
0.5
 25
0.5
 16
0.0
 26
0.0
 36
1.0
 17
0.0
 27
0.0
 37
0.0
 40
9.0
 41
1.9729729729
 42
50.0
 43
0.0
 44
0.0
 50
0.0
 51
0.0
 71
     0
 72
   100
 73
     1
 74
     3
 75
     0
 76
     0
 77
     0
 78
     0
  0
ENDTAB
  0
TABLE
  2
LTYPE
  5
5
330
0
100
AcDbSymbolTable
 70
     2
  0
LTYPE
  5
14
330
5
100
AcDbSymbolTableRecord
100
AcDbLinetypeTableRecord
  2
BYBLOCK
 70
     0
  3

 72
    65
 73
     0
 40
0.0
  0
LTYPE
  5
15
330
5
100
AcDbSymbolTableRecord
100
AcDbLinetypeTableRecord
  2
BYLAYER
 70
     0
  3

 72
    65
 73
     0
 40
0.0
  0
LTYPE
  5
16
330
5
100
AcDbSymbolTableRecord
100
AcDbLinetypeTableRecord
  2
CONTINUOUS
 70
     0
  3
Solid line
 72
    65
 73
     0
 40
0.0
  0
LTYPE
  5
31
330
5
100
AcDbSymbolTableRecord
100
AcDbLinetypeTableRecord
  2
CENTER2
 70
     0
  3
___ _ ___ _ ___ _ ___ _ ___ _ ___ _ ___ _ ___ _
 72
    65
 73
     4
 40
1.125
 49
0.75
 74
     4
 75
     0
340
0
 46
0.0
 50
0.0
 44
0.0
 45
0.0
 49
-0.125
 74
     4
 75
     0
340
0
 46
0.0
 50
0.0
 44
0.0
 45
0.0
 49
0.125
 74
     4
 75
     0
340
0
 46
0.0
 50
0.0
 44
0.0
 45
0.0
 49
-0.125
 74
     4
 75
     0
340
0
 46
0.0
 50
0.0
 44
0.0
 45
0.0
  0
ENDTAB
  0
TABLE
  2
LAYER
  5
2
330
0
100
AcDbSymbolTable
 70
     4
  0
LAYER
  5
10
330
2
100
AcDbSymbolTableRecord
100
AcDbLayerTableRecord
  2
0
 70
     0
 62
     7
  6
CONTINUOUS
  0
LAYER
  5
30
330
2
100
AcDbSymbolTableRecord
100
AcDbLayerTableRecord
  2
STANDARD
 70
     0
 62
     7
  6
CONTINUOUS
  0
LAYER
  5
50
330
2
100
AcDbSymbolTableRecord
100
AcDbLayerTableRecord
  2
MEGA_001541
 70
     0
 62
     7
  6
CONTINUOUS
  0
LAYER
  5
5E
330
2
100
AcDbSymbolTableRecord
100
AcDbLayerTableRecord
  2
MEGA_001429
 70
     0
 62
     7
  6
CONTINUOUS
  0
ENDTAB
  0
TABLE
  2
STYLE
  5
3
330
0
100
AcDbSymbolTable
 70
     3
  0
STYLE
  5
11
330
3
100
AcDbSymbolTableRecord
100
AcDbTextStyleTableRecord
  2
STANDARD
 70
     0
 40
0.0
 41
1.0
 50
0.0
 71
     0
 42
0.2
  3
txt
  4

  0
STYLE
  5
89
330
3
100
AcDbSymbolTableRecord
100
AcDbTextStyleTableRecord
  2
SEACAD_SEISO_TTF
 70
     0
 40
0.2
 41
1.0
 50
0.0
 71
     0
 42
0.2
  3
seiso.ttf
  4

  0
STYLE
  5
8B
330
3
100
AcDbSymbolTableRecord
100
AcDbTextStyleTableRecord
  2
SEACAD_SEMECI1_TTF
 70
     0
 40
0.2
 41
1.0
 50
0.0
 71
     0
 42
0.2
  3
semeci1.ttf
  4

  0
ENDTAB
  0
TABLE
  2
VIEW
  5
6
330
0
100
AcDbSymbolTable
 70
     0
  0
ENDTAB
  0
TABLE
  2
UCS
  5
7
330
0
100
AcDbSymbolTable
 70
     0
  0
ENDTAB
  0
TABLE
  2
APPID
  5
9
330
0
100
AcDbSymbolTable
 70
     1
  0
APPID
  5
12
330
9
100
AcDbSymbolTableRecord
100
AcDbRegAppTableRecord
  2
ACAD
 70
     0
  0
ENDTAB
  0
TABLE
  2
DIMSTYLE
  5
A
330
0
100
AcDbSymbolTable
 70
     1
  0
DIMSTYLE
105
27
330
A
100
AcDbSymbolTableRecord
100
AcDbDimStyleTableRecord
  2
STANDARD
 70
     0
  3

  4

  5

  6

  7

 40
1.0
 41
0.18
 42
0.0625
 43
0.38
 44
0.18
 45
0.0
 46
0.0
 47
0.0
 48
0.0
140
0.18
141
0.09
142
0.0
143
25.4
144
1.0
145
0.0
146
1.0
147
0.09
 71
     0
 72
     0
 73
     1
 74
     1
 75
     0
 76
     0
 77
     0
 78
     0
170
     0
171
     2
172
     0
173
     0
174
     0
175
     0
176
     0
177
     0
178
     0
270
     2
271
     4
272
     4
273
     2
274
     2
340
11
275
     0
280
     0
281
     0
282
     0
283
     1
284
     0
285
     0
286
     0
287
     3
288
     0
  0
ENDTAB
  0
TABLE
  2
BLOCK_RECORD
  5
1
330
0
100
AcDbSymbolTable
 70
    14
  0
BLOCK_RECORD
  5
1F
330
1
100
AcDbSymbolTableRecord
100
AcDbBlockTableRecord
  2
*MODEL_SPACE
  0
BLOCK_RECORD
  5
1B
330
1
100
AcDbSymbolTableRecord
100
AcDbBlockTableRecord
  2
*PAPER_SPACE
  0
BLOCK_RECORD
  5
2E
330
1
100
AcDbSymbolTableRecord
100
AcDbBlockTableRecord
  2
SE
  0
BLOCK_RECORD
  5
35
330
1
100
AcDbSymbolTableRecord
100
AcDbBlockTableRecord
  2
SE1
  0
BLOCK_RECORD
  5
3F
330
1
100
AcDbSymbolTableRecord
100
AcDbBlockTableRecord
  2
SE2
  0
BLOCK_RECORD
  5
44
330
1
100
AcDbSymbolTableRecord
100
AcDbBlockTableRecord
  2
SE3
  0
BLOCK_RECORD
  5
49
330
1
100
AcDbSymbolTableRecord
100
AcDbBlockTableRecord
  2
SE4
  0
BLOCK_RECORD
  5
4E
330
1
100
AcDbSymbolTableRecord
100
AcDbBlockTableRecord
  2
SE5
  0
BLOCK_RECORD
  5
56
330
1
100
AcDbSymbolTableRecord
100
AcDbBlockTableRecord
  2
SE6
  0
BLOCK_RECORD
  5
6F
330
1
100
AcDbSymbolTableRecord
100
AcDbBlockTableRecord
  2
SE7
  0
BLOCK_RECORD
  5
83
330
1
100
AcDbSymbolTableRecord
100
AcDbBlockTableRecord
  2
SE8
  0
BLOCK_RECORD
  5
8F
330
1
100
AcDbSymbolTableRecord
100
AcDbBlockTableRecord
  2
SE9
  0
BLOCK_RECORD
  5
9A
330
1
100
AcDbSymbolTableRecord
100
AcDbBlockTableRecord
  2
SE10
  0
BLOCK_RECORD
  5
A4
330
1
100
AcDbSymbolTableRecord
100
AcDbBlockTableRecord
  2
SE11
  0
BLOCK_RECORD
  5
AE
330
1
100
AcDbSymbolTableRecord
100
AcDbBlockTableRecord
  2
SE12
  0
ENDTAB
  0
ENDSEC
  0
SECTION
  2
BLOCKS
  0
BLOCK
  5
20
330
1F
100
AcDbEntity
  8
0
100
AcDbBlockBegin
  2
*MODEL_SPACE
 70
     0
 71
     0
 10
0.0
 20
0.0
 30
0.0
  3
*MODEL_SPACE
  1

  0
ENDBLK
  5
21
330
1F
100
AcDbEntity
  8
0
100
AcDbBlockEnd
  0
BLOCK
  5
1C
330
1B
100
AcDbEntity
 67
     1
  8
0
100
AcDbBlockBegin
  2
*PAPER_SPACE
 70
     0
 71
     0
 10
0.0
 20
0.0
 30
0.0
  3
*PAPER_SPACE
  1

  0
ENDBLK
  5
1D
330
1B
100
AcDbEntity
 67
     1
  8
0
100
AcDbBlockEnd
  0
BLOCK
  5
33
330
2E
100
AcDbEntity
  8
0
100
AcDbBlockBegin
  2
SE
 70
     0
 71
     0
 10
0.0
 20
0.0
 30
0.0
  3
SE
  1

  0
LINE
  5
32
330
2E
100
AcDbEntity
  8
STANDARD
  6
CENTER2
 62
     7
 48
25.4
100
AcDbLine
 10
65.8085756144
 20
195.814062671
 30
0.0
 11
83.9684878906
 21
195.814062671
 31
0.0
  0
ENDBLK
  5
34
330
2E
100
AcDbEntity
  8
0
100
AcDbBlockEnd
  0
BLOCK
  5
3D
330
35
100
AcDbEntity
  8
0
100
AcDbBlockBegin
  2
SE1
 70
     0
 71
     0
 10
0.0
 20
0.0
 30
0.0
  3
SE1
  1

  0
LINE
  5
37
330
35
100
AcDbEntity
  8
STANDARD
  6
CENTER2
 62
     7
 48
25.4
100
AcDbLine
 10
140.6812043087
 20
195.814062671
 30
0.0
 11
128.6812042044
 21
195.814062671
 31
0.0
  0
LINE
  5
38
330
35
100
AcDbEntity
  8
STANDARD
  6
CENTER2
 62
     7
 48
25.4
100
AcDbLine
 10
134.6812042565
 20
201.8140627232
 30
0.0
 11
134.6812042565
 21
189.8140626189
 31
0.0
  0
LINE
  5
39
330
35
100
AcDbEntity
  8
STANDARD
  6
CENTER2
 62
     7
 48
25.4
100
AcDbLine
 10
142.1812042565
 20
195.814062671
 30
0.0
 11
162.4312042565
 21
195.814062671
 31
0.0
  0
LINE
  5
3A
330
35
100
AcDbEntity
  8
STANDARD
  6
CENTER2
 62
     7
 48
25.4
100
AcDbLine
 10
134.6812042565
 20
203.314062671
 30
0.0
 11
134.6812042565
 21
223.564062671
 31
0.0
  0
LINE
  5
3B
330
35
100
AcDbEntity
  8
STANDARD
  6
CENTER2
 62
     7
 48
25.4
100
AcDbLine
 10
127.1812042565
 20
195.814062671
 30
0.0
 11
106.9312042565
 21
195.814062671
 31
0.0
  0
LINE
  5
3C
330
35
100
AcDbEntity
  8
STANDARD
  6
CENTER2
 62
     7
 48
25.4
100
AcDbLine
 10
134.6812042565
 20
188.314062671
 30
0.0
 11
134.6812042565
 21
168.064062671
 31
0.0
  0
ENDBLK
  5
3E
330
35
100
AcDbEntity
  8
0
100
AcDbBlockEnd
  0
BLOCK
  5
42
330
3F
100
AcDbEntity
  8
0
100
AcDbBlockBegin
  2
SE2
 70
     0
 71
     0
 10
0.0
 20
0.0
 30
0.0
  3
SE2
  1

  0
LINE
  5
41
330
3F
100
AcDbEntity
  8
STANDARD
  6
CENTER2
 62
     7
 48
25.4
100
AcDbLine
 10
115.6812042565
 20
133.4863939763
 30
0.0
 11
115.6812042565
 21
147.0866083225
 31
0.0
  0
ENDBLK
  5
43
330
3F
100
AcDbEntity
  8
0
100
AcDbBlockEnd
  0
BLOCK
  5
47
330
44
100
AcDbEntity
  8
0
100
AcDbBlockBegin
  2
SE3
 70
     0
 71
     0
 10
0.0
 20
0.0
 30
0.0
  3
SE3
  1

  0
LINE
  5
46
330
44
100
AcDbEntity
  8
STANDARD
  6
CENTER2
 62
     7
 48
25.4
100
AcDbLine
 10
153.6812042565
 20
133.1531845768
 30
0.0
 11
153.6812042565
 21
157.9623155517
 31
0.0
  0
ENDBLK
  5
48
330
44
100
AcDbEntity
  8
0
100
AcDbBlockEnd
  0
BLOCK
  5
4C
330
49
100
AcDbEntity
  8
0
100
AcDbBlockBegin
  2
SE4
 70
     0
 71
     0
 10
0.0
 20
0.0
 30
0.0
  3
SE4
  1

  0
LINE
  5
4B
330
49
100
AcDbEntity
  8
STANDARD
  6
CENTER2
 62
     7
 48
25.4
100
AcDbLine
 10
134.6812042565
 20
126.4889965855
 30
0.0
 11
134.6812042565
 21
141.3168148661
 31
0.0
  0
ENDBLK
  5
4D
330
49
100
AcDbEntity
  8
0
100
AcDbBlockEnd
  0
BLOCK
  5
54
330
4E
100
AcDbEntity
  8
0
100
AcDbBlockBegin
  2
SE5
 70
     0
 71
     0
 10
0.0
 20
0.0
 30
0.0
  3
SE5
  1

  0
CIRCLE
  5
51
330
4E
100
AcDbEntity
  8
MEGA_001541
  6
CONTINUOUS
 62
     7
 48
25.4
100
AcDbCircle
 10
134.6812042565
 20
202.314062671
 30
0.0
 40
11.10000000000002
  0
ARC
  5
52
330
4E
100
AcDbEntity
  8
MEGA_001541
  6
CONTINUOUS
 62
     7
 48
25.4
100
AcDbCircle
 10
134.6812042565
 20
195.814062671
 30
0.0
 40
26.0
100
AcDbArc
 50
275.5177343738
 51
264.4822656262
  0
ARC
  5
53
330
4E
100
AcDbEntity
  8
STANDARD
  6
CONTINUOUS
 62
     7
 48
25.4
100
AcDbCircle
 10
134.6812042565
 20
195.814062671
 30
0.0
 40
26.0
100
AcDbArc
 50
264.4822656262
 51
275.5177343738
  0
ENDBLK
  5
55
330
4E
100
AcDbEntity
  8
0
100
AcDbBlockEnd
  0
BLOCK
  5
6D
330
56
100
AcDbEntity
  8
0
100
AcDbBlockBegin
  2
SE6
 70
     0
 71
     0
 10
0.0
 20
0.0
 30
0.0
  3
SE6
  1

  0
LINE
  5
58
330
56
100
AcDbEntity
  8
MEGA_001541
  6
CONTINUOUS
 62
     7
 48
25.4
100
AcDbLine
 10
159.2471082863
 20
130.4431486096
 30
0.0
 11
110.1153002267
 21
130.4431486096
 31
0.0
  0
LINE
  5
59
330
56
100
AcDbEntity
  8
MEGA_001541
  6
CONTINUOUS
 62
     7
 48
25.4
100
AcDbLine
 10
108.6812042565
 20
136.9431486096
 30
0.0
 11
108.8660616929
 21
131.6495242387
 31
0.0
  0
ARC
  5
5A
330
56
100
AcDbEntity
  8
MEGA_001541
  6
CONTINUOUS
 62
     7
 48
25.4
100
AcDbCircle
 10
110.1153002267
 20
131.6931486096
 30
0.0
 40
1.25
100
AcDbArc
 50
182.0
 51
270.0
  0
LINE
  5
5B
330
56
100
AcDbEntity
  8
MEGA_001541
  6
CONTINUOUS
 62
     7
 48
25.4
100
AcDbLine
 10
160.4963468201
 20
131.6495242387
 30
0.0
 11
160.6812042565
 21
136.9431486096
 31
0.0
  0
ARC
  5
5C
330
56
100
AcDbEntity
  8
MEGA_001541
  6
CONTINUOUS
 62
     7
 48
25.4
100
AcDbCircle
 10
159.2471082863
 20
131.6931486096
 30
0.0
 40
1.25
100
AcDbArc
 50
270.0
 51
358.0
  0
LINE
  5
5D
330
56
100
AcDbEntity
  8
MEGA_001541
  6
CONTINUOUS
 62
     7
 48
25.4
100
AcDbLine
 10
108.6812042565
 20
136.9431486096
 30
0.0
 11
160.6812042565
 21
136.9431486096
 31
0.0
  0
LINE
  5
5F
330
56
100
AcDbEntity
  8
MEGA_001429
  6
CONTINUOUS
 62
     7
 48
25.4
100
AcDbLine
 10
112.3389570779
 20
141.460598358
 30
0.0
 11
112.1980552826
 21
137.4256988613
 31
0.0
  0
LINE
  5
60
330
56
100
AcDbEntity
  8
MEGA_001429
  6
CONTINUOUS
 62
     7
 48
25.4
100
AcDbLine
 10
119.1643532304
 20
137.4256988613
 30
0.0
 11
119.0234514352
 21
141.460598358
 31
0.0
  0
ARC
  5
61
330
56
100
AcDbEntity
  8
MEGA_001429
  6
CONTINUOUS
 62
     7
 48
25.4
100
AcDbCircle
 10
118.5237560216
 20
141.4431486096
 30
0.0
 40
0.5
100
AcDbArc
 50
2.0
 51
90.0
  0
ARC
  5
62
330
56
100
AcDbEntity
  8
MEGA_001429
  6
CONTINUOUS
 62
     7
 48
25.4
100
AcDbCircle
 10
111.6983598691
 20
137.4431486096
 30
0.0
 40
0.5
100
AcDbArc
 50
270.0
 51
358.0
  0
ARC
  5
63
330
56
100
AcDbEntity
  8
MEGA_001429
  6
CONTINUOUS
 62
     7
 48
25.4
100
AcDbCircle
 10
156.5237560216
 20
141.4431486096
 30
0.0
 40
0.5
100
AcDbArc
 50
2.0
 51
90.0
  0
ARC
  5
64
330
56
100
AcDbEntity
  8
MEGA_001429
  6
CONTINUOUS
 62
     7
 48
25.4
100
AcDbCircle
 10
149.6983598691
 20
137.4431486096
 30
0.0
 40
0.5
100
AcDbArc
 50
270.0
 51
358.0
  0
LINE
  5
65
330
56
100
AcDbEntity
  8
MEGA_001429
  6
CONTINUOUS
 62
     7
 48
25.4
100
AcDbLine
 10
150.3389570779
 20
141.460598358
 30
0.0
 11
150.1980552826
 21
137.4256988613
 31
0.0
  0
ARC
  5
66
330
56
100
AcDbEntity
  8
MEGA_001429
  6
CONTINUOUS
 62
     7
 48
25.4
100
AcDbCircle
 10
112.8386524914
 20
141.4431486096
 30
0.0
 40
0.5
100
AcDbArc
 50
90.0
 51
178.0
  0
ARC
  5
67
330
56
100
AcDbEntity
  8
MEGA_001429
  6
CONTINUOUS
 62
     7
 48
25.4
100
AcDbCircle
 10
119.6640486439
 20
137.4431486096
 30
0.0
 40
0.5
100
AcDbArc
 50
182.0
 51
270.0
  0
ARC
  5
68
330
56
100
AcDbEntity
  8
MEGA_001429
  6
CONTINUOUS
 62
     7
 48
25.4
100
AcDbCircle
 10
150.8386524914
 20
141.4431486096
 30
0.0
 40
0.5
100
AcDbArc
 50
90.0
 51
178.0
  0
ARC
  5
69
330
56
100
AcDbEntity
  8
MEGA_001429
  6
CONTINUOUS
 62
     7
 48
25.4
100
AcDbCircle
 10
157.6640486439
 20
137.4431486096
 30
0.0
 40
0.5
100
AcDbArc
 50
182.0
 51
270.0
  0
LINE
  5
6A
330
56
100
AcDbEntity
  8
MEGA_001429
  6
CONTINUOUS
 62
     7
 48
25.4
100
AcDbLine
 10
157.1643532304
 20
137.4256988613
 30
0.0
 11
157.0234514352
 21
141.460598358
 31
0.0
  0
LINE
  5
6B
330
56
100
AcDbEntity
  8
MEGA_001429
  6
CONTINUOUS
 62
     7
 48
25.4
100
AcDbLine
 10
150.8386524914
 20
141.9431486096
 30
0.0
 11
156.5237560216
 21
141.9431486096
 31
0.0
  0
LINE
  5
6C
330
56
100
AcDbEntity
  8
MEGA_001429
  6
CONTINUOUS
 62
     7
 48
25.4
100
AcDbLine
 10
112.8386524914
 20
141.9431486096
 30
0.0
 11
118.5237560216
 21
141.9431486096
 31
0.0
  0
ENDBLK
  5
6E
330
56
100
AcDbEntity
  8
0
100
AcDbBlockEnd
  0
BLOCK
  5
81
330
6F
100
AcDbEntity
  8
0
100
AcDbBlockBegin
  2
SE7
 70
     0
 71
     0
 10
0.0
 20
0.0
 30
0.0
  3
SE7
  1

  0
LINE
  5
71
330
6F
100
AcDbEntity
  8
MEGA_001541
  6
CONTINUOUS
 62
     7
 48
25.4
100
AcDbLine
 10
69.1078783516
 20
220.3799667008
 30
0.0
 11
69.1078783516
 21
171.2481586412
 31
0.0
  0
LINE
  5
72
330
6F
100
AcDbEntity
  8
MEGA_001541
  6
CONTINUOUS
 62
     7
 48
25.4
100
AcDbLine
 10
75.6078783516
 20
221.814062671
 30
0.0
 11
70.3142539807
 21
221.6292052346
 31
0.0
  0
ARC
  5
73
330
6F
100
AcDbEntity
  8
MEGA_001541
  6
CONTINUOUS
 62
     7
 48
25.4
100
AcDbCircle
 10
70.3578783516
 20
220.3799667008
 30
0.0
 40
1.25
100
AcDbArc
 50
92.0
 51
180.0
  0
LINE
  5
74
330
6F
100
AcDbEntity
  8
MEGA_001541
  6
CONTINUOUS
 62
     7
 48
25.4
100
AcDbLine
 10
70.3142539807
 20
169.9989201075
 30
0.0
 11
73.6078783516
 21
169.88390421
 31
0.0
  0
ARC
  5
75
330
6F
100
AcDbEntity
  8
MEGA_001541
  6
CONTINUOUS
 62
     7
 48
25.4
100
AcDbCircle
 10
70.3578783516
 20
171.2481586412
 30
0.0
 40
1.25
100
AcDbArc
 50
180.0
 51
268.0
  0
LINE
  5
76
330
6F
100
AcDbEntity
  8
MEGA_001541
  6
CONTINUOUS
 62
     7
 48
25.4
100
AcDbLine
 10
75.6078783516
 20
221.814062671
 30
0.0
 11
75.6078783516
 21
169.9345340818
 31
0.0
  0
ARC
  5
77
330
6F
100
AcDbEntity
  8
MEGA_001429
  6
CONTINUOUS
 62
     7
 48
25.4
100
AcDbCircle
 10
80.1078783516
 20
192.9715109059
 30
0.0
 40
0.5
100
AcDbArc
 50
272.0
 51
360.0
  0
ARC
  5
78
330
6F
100
AcDbEntity
  8
MEGA_001429
  6
CONTINUOUS
 62
     7
 48
25.4
100
AcDbCircle
 10
76.1078783516
 20
199.7969070584
 30
0.0
 40
0.5
100
AcDbArc
 50
180.0
 51
268.0
  0
LINE
  5
79
330
6F
100
AcDbEntity
  8
MEGA_001429
  6
CONTINUOUS
 62
     7
 48
25.4
100
AcDbLine
 10
80.1253281
 20
199.1563098497
 30
0.0
 11
76.0904286033
 21
199.2972116449
 31
0.0
  0
ARC
  5
7A
330
6F
100
AcDbEntity
  8
MEGA_001429
  6
CONTINUOUS
 62
     7
 48
25.4
100
AcDbCircle
 10
80.1078783516
 20
198.6566144362
 30
0.0
 40
0.5
100
AcDbArc
 50
0.0
 51
88.0
  0
ARC
  5
7B
330
6F
100
AcDbEntity
  8
MEGA_001429
  6
CONTINUOUS
 62
     7
 48
25.4
100
AcDbCircle
 10
76.1078783516
 20
191.8312182836
 30
0.0
 40
0.5
100
AcDbArc
 50
92.0
 51
180.0
  0
LINE
  5
7C
330
6F
100
AcDbEntity
  8
MEGA_001429
  6
CONTINUOUS
 62
     7
 48
25.4
100
AcDbLine
 10
76.0904286033
 20
192.3309136971
 30
0.0
 11
80.1253281
 21
192.4718154924
 31
0.0
  0
LINE
  5
7D
330
6F
100
AcDbEntity
  8
MEGA_001429
  6
CONTINUOUS
 62
     7
 48
25.4
100
AcDbLine
 10
75.6078783516
 20
169.814062671
 30
0.0
 11
75.6078783516
 21
169.911601398
 31
0.0
  0
LINE
  5
7E
330
6F
100
AcDbEntity
  8
MEGA_001429
  6
CONTINUOUS
 62
     7
 48
25.4
100
AcDbLine
 10
80.6078783516
 20
192.9715109059
 30
0.0
 11
80.6078783516
 21
198.6566144362
 31
0.0
  0
LINE
  5
7F
330
6F
100
AcDbEntity
  8
MEGA_001429
  6
CONTINUOUS
 62
     7
 48
25.4
100
AcDbLine
 10
75.6078783516
 20
169.911601398
 30
0.0
 11
75.6078783516
 21
169.9345340818
 31
0.0
  0
LINE
  5
80
330
6F
100
AcDbEntity
  8
STANDARD
  6
CONTINUOUS
 62
     7
 48
25.4
100
AcDbLine
 10
73.6078783516
 20
169.88390421
 30
0.0
 11
75.6078783516
 21
169.814062671
 31
0.0
  0
ENDBLK
  5
82
330
6F
100
AcDbEntity
  8
0
100
AcDbBlockEnd
  0
BLOCK
  5
8D
330
83
100
AcDbEntity
  8
0
100
AcDbBlockBegin
  2
SE8
 70
     0
 71
     0
 10
0.0
 20
0.0
 30
0.0
  3
SE8
  1

  0
POLYLINE
  5
85
330
83
100
AcDbEntity
  8
STANDARD
  6
CONTINUOUS
 62
     7
 48
25.4
100
AcDb2dPolyline
 66
     1
 10
0.0
 20
0.0
 30
0.0
 70
     1
  0
VERTEX
  5
B9
330
85
100
AcDbEntity
  8
STANDARD
  6
CONTINUOUS
 62
     7
100
AcDbVertex
100
AcDb2dVertex
 10
94.565032168
 20
172.8140626971
 30
0.0
  0
VERTEX
  5
BA
330
85
100
AcDbEntity
  8
STANDARD
  6
CONTINUOUS
 62
     7
100
AcDbVertex
100
AcDb2dVertex
 10
94.0650321637
 20
169.814062671
 30
0.0
  0
VERTEX
  5
BB
330
85
100
AcDbEntity
  8
STANDARD
  6
CONTINUOUS
 62
     7
100
AcDbVertex
100
AcDb2dVertex
 10
93.5650321593
 20
172.8140626971
 30
0.0
  0
VERTEX
  5
BC
330
85
100
AcDbEntity
  8
STANDARD
  6
CONTINUOUS
 62
     7
100
AcDbVertex
100
AcDb2dVertex
 10
94.565032168
 20
172.8140626971
 30
0.0
  0
SEQEND
  5
B8
330
85
100
AcDbEntity
  8
STANDARD
  6
CONTINUOUS
 62
     7
 48
25.4
  0
LINE
  5
86
330
83
100
AcDbEntity
  8
STANDARD
  6
CONTINUOUS
 62
     7
 48
25.4
100
AcDbLine
 10
75.6078783516
 20
221.814062671
 30
0.0
 11
95.5650321767
 21
221.814062671
 31
0.0
  0
LINE
  5
87
330
83
100
AcDbEntity
  8
STANDARD
  6
CONTINUOUS
 62
     7
 48
25.4
100
AcDbLine
 10
75.6078783516
 20
169.814062671
 30
0.0
 11
95.5650321767
 21
169.814062671
 31
0.0
  0
LINE
  5
88
330
83
100
AcDbEntity
  8
STANDARD
  6
CONTINUOUS
 62
     7
 48
25.4
100
AcDbLine
 10
94.0650321637
 20
221.814062671
 30
0.0
 11
94.0650321637
 21
169.8140615981
 31
0.0
  0
TEXT
  5
8A
330
83
100
AcDbEntity
  8
STANDARD
  6
CONTINUOUS
 62
     7
 48
25.4
100
AcDbText
 10
93.3150321637
 20
195.8616405387
 30
0.0
 40
3.0
  1
52
 50
90.0
  7
SEACAD_SEISO_TTF
 11
90.3150321637
 21
195.8616405387
 31
0.0
100
AcDbText
 73
     3
  0
TEXT
  5
8C
330
83
100
AcDbEntity
  8
STANDARD
  6
CONTINUOUS
 62
     7
 48
25.4
100
AcDbText
 10
93.3150321637
 20
192.221029185
 30
0.0
 40
3.0
  1
O
 50
90.0
  7
SEACAD_SEMECI1_TTF
 11
90.3150321637
 21
192.221029185
 31
0.0
100
AcDbText
 73
     3
  0
ENDBLK
  5
8E
330
83
100
AcDbEntity
  8
0
100
AcDbBlockEnd
  0
BLOCK
  5
98
330
8F
100
AcDbEntity
  8
0
100
AcDbBlockBegin
  2
SE9
 70
     0
 71
     0
 10
0.0
 20
0.0
 30
0.0
  3
SE9
  1

  0
POLYLINE
  5
91
330
8F
100
AcDbEntity
  8
STANDARD
  6
CONTINUOUS
 62
     7
 48
25.4
100
AcDb2dPolyline
 66
     1
 10
0.0
 20
0.0
 30
0.0
 70
     1
  0
VERTEX
  5
BE
330
91
100
AcDbEntity
  8
STANDARD
  6
CONTINUOUS
 62
     7
100
AcDbVertex
100
AcDb2dVertex
 10
109.3558080779
 20
151.1466784487
 30
0.0
  0
VERTEX
  5
BF
330
91
100
AcDbEntity
  8
STANDARD
  6
CONTINUOUS
 62
     7
100
AcDbVertex
100
AcDb2dVertex
 10
112.355808104
 20
150.6466784444
 30
0.0
  0
VERTEX
  5
C0
330
91
100
AcDbEntity
  8
STANDARD
  6
CONTINUOUS
 62
     7
100
AcDbVertex
100
AcDb2dVertex
 10
109.3558080779
 20
150.14667844
 30
0.0
  0
VERTEX
  5
C1
330
91
100
AcDbEntity
  8
STANDARD
  6
CONTINUOUS
 62
     7
100
AcDbVertex
100
AcDb2dVertex
 10
109.3558080779
 20
151.1466784487
 30
0.0
  0
SEQEND
  5
BD
330
91
100
AcDbEntity
  8
STANDARD
  6
CONTINUOUS
 62
     7
 48
25.4
  0
POLYLINE
  5
92
330
8F
100
AcDbEntity
  8
STANDARD
  6
CONTINUOUS
 62
     7
 48
25.4
100
AcDb2dPolyline
 66
     1
 10
0.0
 20
0.0
 30
0.0
 70
     1
  0
VERTEX
  5
C3
330
92
100
AcDbEntity
  8
STANDARD
  6
CONTINUOUS
 62
     7
100
AcDbVertex
100
AcDb2dVertex
 10
122.0066004351
 20
151.1466784487
 30
0.0
  0
VERTEX
  5
C4
330
92
100
AcDbEntity
  8
STANDARD
  6
CONTINUOUS
 62
     7
100
AcDbVertex
100
AcDb2dVertex
 10
119.006600409
 20
150.6466784444
 30
0.0
  0
VERTEX
  5
C5
330
92
100
AcDbEntity
  8
STANDARD
  6
CONTINUOUS
 62
     7
100
AcDbVertex
100
AcDb2dVertex
 10
122.0066004351
 20
150.14667844
 30
0.0
  0
VERTEX
  5
C6
330
92
100
AcDbEntity
  8
STANDARD
  6
CONTINUOUS
 62
     7
100
AcDbVertex
100
AcDb2dVertex
 10
122.0066004351
 20
151.1466784487
 30
0.0
  0
SEQEND
  5
C2
330
92
100
AcDbEntity
  8
STANDARD
  6
CONTINUOUS
 62
     7
 48
25.4
  0
LINE
  5
93
330
8F
100
AcDbEntity
  8
STANDARD
  6
CONTINUOUS
 62
     7
 48
25.4
100
AcDbLine
 10
112.355808104
 20
141.9431486096
 30
0.0
 11
112.355808104
 21
152.1466784574
 31
0.0
  0
LINE
  5
94
330
8F
100
AcDbEntity
  8
STANDARD
  6
CONTINUOUS
 62
     7
 48
25.4
100
AcDbLine
 10
119.006600409
 20
141.9431486096
 30
0.0
 11
119.006600409
 21
152.1466784574
 31
0.0
  0
LINE
  5
95
330
8F
100
AcDbEntity
  8
STANDARD
  6
CONTINUOUS
 62
     7
 48
25.4
100
AcDbLine
 10
102.1425140375
 20
150.6466784444
 30
0.0
 11
125.0066005909
 21
150.6466784444
 31
0.0
  0
TEXT
  5
96
330
8F
100
AcDbEntity
  8
STANDARD
  6
CONTINUOUS
 62
     7
 48
25.4
100
AcDbText
 10
106.8331253812
 20
151.3966784444
 30
0.0
 40
3.0
  1
7
  7
SEACAD_SEISO_TTF
 11
106.8331253812
 21
154.3966784444
 31
0.0
100
AcDbText
 73
     3
  0
TEXT
  5
97
330
8F
100
AcDbEntity
  8
STANDARD
  6
CONTINUOUS
 62
     7
 48
25.4
100
AcDbText
 10
103.1925140275
 20
151.3966784444
 30
0.0
 40
3.0
  1
O
  7
SEACAD_SEMECI1_TTF
 11
103.1925140275
 21
154.3966784444
 31
0.0
100
AcDbText
 73
     3
  0
ENDBLK
  5
99
330
8F
100
AcDbEntity
  8
0
100
AcDbBlockEnd
  0
BLOCK
  5
A2
330
9A
100
AcDbEntity
  8
0
100
AcDbBlockBegin
  2
SE10
 70
     0
 71
     0
 10
0.0
 20
0.0
 30
0.0
  3
SE10
  1

  0
POLYLINE
  5
9C
330
9A
100
AcDbEntity
  8
STANDARD
  6
CONTINUOUS
 62
     7
 48
25.4
100
AcDb2dPolyline
 66
     1
 10
0.0
 20
0.0
 30
0.0
 70
     1
  0
VERTEX
  5
C8
330
9C
100
AcDbEntity
  8
STANDARD
  6
CONTINUOUS
 62
     7
100
AcDbVertex
100
AcDb2dVertex
 10
118.6812042826
 20
158.3556907336
 30
0.0
  0
VERTEX
  5
C9
330
9C
100
AcDbEntity
  8
STANDARD
  6
CONTINUOUS
 62
     7
100
AcDbVertex
100
AcDb2dVertex
 10
115.6812042565
 20
157.8556907292
 30
0.0
  0
VERTEX
  5
CA
330
9C
100
AcDbEntity
  8
STANDARD
  6
CONTINUOUS
 62
     7
100
AcDbVertex
100
AcDb2dVertex
 10
118.6812042826
 20
157.3556907249
 30
0.0
  0
VERTEX
  5
CB
330
9C
100
AcDbEntity
  8
STANDARD
  6
CONTINUOUS
 62
     7
100
AcDbVertex
100
AcDb2dVertex
 10
118.6812042826
 20
158.3556907336
 30
0.0
  0
SEQEND
  5
C7
330
9C
100
AcDbEntity
  8
STANDARD
  6
CONTINUOUS
 62
     7
 48
25.4
  0
POLYLINE
  5
9D
330
9A
100
AcDbEntity
  8
STANDARD
  6
CONTINUOUS
 62
     7
 48
25.4
100
AcDb2dPolyline
 66
     1
 10
0.0
 20
0.0
 30
0.0
 70
     1
  0
VERTEX
  5
CD
330
9D
100
AcDbEntity
  8
STANDARD
  6
CONTINUOUS
 62
     7
100
AcDbVertex
100
AcDb2dVertex
 10
150.6812042304
 20
158.3556907336
 30
0.0
  0
VERTEX
  5
CE
330
9D
100
AcDbEntity
  8
STANDARD
  6
CONTINUOUS
 62
     7
100
AcDbVertex
100
AcDb2dVertex
 10
153.6812042565
 20
157.8556907292
 30
0.0
  0
VERTEX
  5
CF
330
9D
100
AcDbEntity
  8
STANDARD
  6
CONTINUOUS
 62
     7
100
AcDbVertex
100
AcDb2dVertex
 10
150.6812042304
 20
157.3556907249
 30
0.0
  0
VERTEX
  5
D0
330
9D
100
AcDbEntity
  8
STANDARD
  6
CONTINUOUS
 62
     7
100
AcDbVertex
100
AcDb2dVertex
 10
150.6812042304
 20
158.3556907336
 30
0.0
  0
SEQEND
  5
CC
330
9D
100
AcDbEntity
  8
STANDARD
  6
CONTINUOUS
 62
     7
 48
25.4
  0
LINE
  5
9E
330
9A
100
AcDbEntity
  8
STANDARD
  6
CONTINUOUS
 62
     7
 48
25.4
100
AcDbLine
 10
115.6812042565
 20
154.4437047955
 30
0.0
 11
115.6812042565
 21
159.3556907423
 31
0.0
  0
LINE
  5
9F
330
9A
100
AcDbEntity
  8
STANDARD
  6
CONTINUOUS
 62
     7
 48
25.4
100
AcDbLine
 10
153.6812042565
 20
157.4291924875
 30
0.0
 11
153.6812042565
 21
159.3556907423
 31
0.0
  0
LINE
  5
A0
330
9A
100
AcDbEntity
  8
STANDARD
  6
CONTINUOUS
 62
     7
 48
25.4
100
AcDbLine
 10
115.6812042565
 20
157.8556907292
 30
0.0
 11
153.6812030346
 21
157.8556907292
 31
0.0
  0
TEXT
  5
A1
330
9A
100
AcDbEntity
  8
STANDARD
  6
CONTINUOUS
 62
     7
 48
25.4
100
AcDbText
 10
132.9425672819
 20
158.6056907292
 30
0.0
 40
3.0
  1
38
  7
SEACAD_SEISO_TTF
 11
132.9425672819
 21
161.6056907292
 31
0.0
100
AcDbText
 73
     3
  0
ENDBLK
  5
A3
330
9A
100
AcDbEntity
  8
0
100
AcDbBlockEnd
  0
BLOCK
  5
AC
330
A4
100
AcDbEntity
  8
0
100
AcDbBlockBegin
  2
SE11
 70
     0
 71
     0
 10
0.0
 20
0.0
 30
0.0
  3
SE11
  1

  0
CIRCLE
  5
A6
330
A4
100
AcDbEntity
  8
STANDARD
  6
CONTINUOUS
 62
     7
 48
25.4
100
AcDbCircle
 10
98.2094216094
 20
136.9431486096
 30
0.0
 40
1.000000008692339
  0
POLYLINE
  5
A7
330
A4
100
AcDbEntity
  8
STANDARD
  6
CONTINUOUS
 62
     7
 48
25.4
100
AcDb2dPolyline
 66
     1
 10
0.0
 20
0.0
 30
0.0
 70
     1
  0
VERTEX
  5
D2
330
A7
100
AcDbEntity
  8
STANDARD
  6
CONTINUOUS
 62
     7
100
AcDbVertex
100
AcDb2dVertex
 10
97.7094216051
 20
144.9431486357
 30
0.0
  0
VERTEX
  5
D3
330
A7
100
AcDbEntity
  8
STANDARD
  6
CONTINUOUS
 62
     7
100
AcDbVertex
100
AcDb2dVertex
 10
98.2094216094
 20
141.9431486096
 30
0.0
  0
VERTEX
  5
D4
330
A7
100
AcDbEntity
  8
STANDARD
  6
CONTINUOUS
 62
     7
100
AcDbVertex
100
AcDb2dVertex
 10
98.7094216138
 20
144.9431486357
 30
0.0
  0
VERTEX
  5
D5
330
A7
100
AcDbEntity
  8
STANDARD
  6
CONTINUOUS
 62
     7
100
AcDbVertex
100
AcDb2dVertex
 10
97.7094216051
 20
144.9431486357
 30
0.0
  0
SEQEND
  5
D1
330
A7
100
AcDbEntity
  8
STANDARD
  6
CONTINUOUS
 62
     7
 48
25.4
  0
LINE
  5
A8
330
A4
100
AcDbEntity
  8
STANDARD
  6
CONTINUOUS
 62
     7
 48
25.4
100
AcDbLine
 10
108.6812042565
 20
136.9431486096
 30
0.0
 11
96.7094215964
 21
136.9431486096
 31
0.0
  0
LINE
  5
A9
330
A4
100
AcDbEntity
  8
STANDARD
  6
CONTINUOUS
 62
     7
 48
25.4
100
AcDbLine
 10
112.8386524914
 20
141.9431486096
 30
0.0
 11
96.7094215964
 21
141.9431486096
 31
0.0
  0
LINE
  5
AA
330
A4
100
AcDbEntity
  8
STANDARD
  6
CONTINUOUS
 62
     7
 48
25.4
100
AcDbLine
 10
98.2094216094
 20
130.9431485575
 30
0.0
 11
98.2094216094
 21
147.94314855
 31
0.0
  0
TEXT
  5
AB
330
A4
100
AcDbEntity
  8
STANDARD
  6
CONTINUOUS
 62
     7
 48
25.4
100
AcDbText
 10
97.4594216094
 20
138.5908758265
 30
0.0
 40
3.0
  1
5
 50
90.0
  7
SEACAD_SEISO_TTF
 11
94.4594216094
 21
138.5908758265
 31
0.0
100
AcDbText
 73
     3
  0
ENDBLK
  5
AD
330
A4
100
AcDbEntity
  8
0
100
AcDbBlockEnd
  0
BLOCK
  5
B6
330
AE
100
AcDbEntity
  8
0
100
AcDbBlockBegin
  2
SE12
 70
     0
 71
     0
 10
0.0
 20
0.0
 30
0.0
  3
SE12
  1

  0
CIRCLE
  5
B0
330
AE
100
AcDbEntity
  8
STANDARD
  6
CONTINUOUS
 62
     7
 48
25.4
100
AcDbCircle
 10
98.2094216094
 20
136.9431486096
 30
0.0
 40
1.000000008692339
  0
POLYLINE
  5
B1
330
AE
100
AcDbEntity
  8
STANDARD
  6
CONTINUOUS
 62
     7
 48
25.4
100
AcDb2dPolyline
 66
     1
 10
0.0
 20
0.0
 30
0.0
 70
     1
  0
VERTEX
  5
D7
330
B1
100
AcDbEntity
  8
STANDARD
  6
CONTINUOUS
 62
     7
100
AcDbVertex
100
AcDb2dVertex
 10
97.7094216051
 20
127.4431485835
 30
0.0
  0
VERTEX
  5
D8
330
B1
100
AcDbEntity
  8
STANDARD
  6
CONTINUOUS
 62
     7
100
AcDbVertex
100
AcDb2dVertex
 10
98.2094216094
 20
130.4431486096
 30
0.0
  0
VERTEX
  5
D9
330
B1
100
AcDbEntity
  8
STANDARD
  6
CONTINUOUS
 62
     7
100
AcDbVertex
100
AcDb2dVertex
 10
98.7094216138
 20
127.4431485835
 30
0.0
  0
VERTEX
  5
DA
330
B1
100
AcDbEntity
  8
STANDARD
  6
CONTINUOUS
 62
     7
100
AcDbVertex
100
AcDb2dVertex
 10
97.7094216051
 20
127.4431485835
 30
0.0
  0
SEQEND
  5
D6
330
B1
100
AcDbEntity
  8
STANDARD
  6
CONTINUOUS
 62
     7
 48
25.4
  0
LINE
  5
B2
330
AE
100
AcDbEntity
  8
STANDARD
  6
CONTINUOUS
 62
     7
 48
25.4
100
AcDbLine
 10
108.6812042565
 20
136.9431486096
 30
0.0
 11
96.7094215964
 21
136.9431486096
 31
0.0
  0
LINE
  5
B3
330
AE
100
AcDbEntity
  8
STANDARD
  6
CONTINUOUS
 62
     7
 48
25.4
100
AcDbLine
 10
110.1153002267
 20
130.4431486096
 30
0.0
 11
96.7094215964
 21
130.4431486096
 31
0.0
  0
LINE
  5
B4
330
AE
100
AcDbEntity
  8
STANDARD
  6
CONTINUOUS
 62
     7
 48
25.4
100
AcDbLine
 10
98.2094216094
 20
142.9431486618
 30
0.0
 11
98.2094216094
 21
124.4431484234
 31
0.0
  0
TEXT
  5
B5
330
AE
100
AcDbEntity
  8
STANDARD
  6
CONTINUOUS
 62
     7
 48
25.4
100
AcDbText
 10
97.4594216094
 20
131.6476939971
 30
0.0
 40
3.0
  1
6,5
 50
90.0
  7
SEACAD_SEISO_TTF
 11
94.4594216094
 21
131.6476939971
 31
0.0
100
AcDbText
 73
     3
  0
ENDBLK
  5
B7
330
AE
100
AcDbEntity
  8
0
100
AcDbBlockEnd
  0
ENDSEC
  0
SECTION
  2
ENTITIES
  0
INSERT
  5
2F
330
1F
100
AcDbEntity
  8
0
100
AcDbBlockReference
  2
SE
 10
0.0
 20
0.0
 30
0.0
  0
INSERT
  5
36
330
1F
100
AcDbEntity
  8
0
100
AcDbBlockReference
  2
SE1
 10
0.0
 20
0.0
 30
0.0
  0
INSERT
  5
40
330
1F
100
AcDbEntity
  8
0
100
AcDbBlockReference
  2
SE2
 10
0.0
 20
0.0
 30
0.0
  0
INSERT
  5
45
330
1F
100
AcDbEntity
  8
0
100
AcDbBlockReference
  2
SE3
 10
0.0
 20
0.0
 30
0.0
  0
INSERT
  5
4A
330
1F
100
AcDbEntity
  8
0
100
AcDbBlockReference
  2
SE4
 10
0.0
 20
0.0
 30
0.0
  0
INSERT
  5
4F
330
1F
100
AcDbEntity
  8
0
100
AcDbBlockReference
  2
SE5
 10
0.0
 20
0.0
 30
0.0
  0
INSERT
  5
57
330
1F
100
AcDbEntity
  8
0
100
AcDbBlockReference
  2
SE6
 10
0.0
 20
0.0
 30
0.0
  0
INSERT
  5
70
330
1F
100
AcDbEntity
  8
0
100
AcDbBlockReference
  2
SE7
 10
0.0
 20
0.0
 30
0.0
  0
INSERT
  5
84
330
1F
100
AcDbEntity
  8
0
100
AcDbBlockReference
  2
SE8
 10
0.0
 20
0.0
 30
0.0
  0
INSERT
  5
90
330
1F
100
AcDbEntity
  8
0
100
AcDbBlockReference
  2
SE9
 10
0.0
 20
0.0
 30
0.0
  0
INSERT
  5
9B
330
1F
100
AcDbEntity
  8
0
100
AcDbBlockReference
  2
SE10
 10
0.0
 20
0.0
 30
0.0
  0
INSERT
  5
A5
330
1F
100
AcDbEntity
  8
0
100
AcDbBlockReference
  2
SE11
 10
0.0
 20
0.0
 30
0.0
  0
INSERT
  5
AF
330
1F
100
AcDbEntity
  8
0
100
AcDbBlockReference
  2
SE12
 10
0.0
 20
0.0
 30
0.0
  0
ENDSEC
  0
SECTION
  2
OBJECTS
  0
DICTIONARY
  5
C
330
0
100
AcDbDictionary
  3
ACAD_GROUP
350
D
  3
ACAD_LAYOUT
350
1A
  3
ACAD_MLINESTYLE
350
17
  3
ACAD_PLOTSETTINGS
350
19
  3
ACAD_TABLESTYLE
350
2A
  3
ACDBVARIABLEDICTIONARY
350
2C
1001
ACAD
1000
TREAT_AS_HARD
1070
     0
  0
DICTIONARY
  5
DB
330
29
100
AcDbDictionary
  3
ACAD_XREC_ROUNDTRIP
360
DC
  0
DICTIONARY
  5
D
102
{ACAD_REACTORS
330
C
102
}
330
C
100
AcDbDictionary
1001
ACAD
1000
TREAT_AS_HARD
1070
     0
  0
DICTIONARY
  5
1A
102
{ACAD_REACTORS
330
C
102
}
330
C
100
AcDbDictionary
1001
ACAD
1000
TREAT_AS_HARD
1070
     0
  0
DICTIONARY
  5
17
102
{ACAD_REACTORS
330
C
102
}
330
C
100
AcDbDictionary
  3
STANDARD
350
18
1001
ACAD
1000
TREAT_AS_HARD
1070
     0
  0
DICTIONARY
  5
19
102
{ACAD_REACTORS
330
C
102
}
330
C
100
AcDbDictionary
1001
ACAD
1000
TREAT_AS_HARD
1070
     0
  0
DICTIONARY
  5
2A
102
{ACAD_REACTORS
330
C
102
}
330
C
100
AcDbDictionary
  3
STANDARD
350
2B
1001
ACAD
1000
TREAT_AS_HARD
1070
     0
  0
DICTIONARY
  5
2C
102
{ACAD_REACTORS
330
C
102
}
330
C
100
AcDbDictionary
  3
CTABLESTYLE
350
2D
1001
ACAD
1000
TREAT_AS_HARD
1070
     0
  0
XRECORD
  5
DC
102
{ACAD_REACTORS
330
DB
102
}
330
DB
100
AcDbXrecord
102
UCS
 74
     0
 71
     1
 10
0.0
 20
0.0
 30
0.0
 10
1.0
 20
0.0
 30
0.0
 10
0.0
 20
1.0
 30
0.0
146
0.0
 79
     0
102
VIEW
281
     0
  0
MLINESTYLE
  5
18
102
{ACAD_REACTORS
330
17
102
}
330
17
100
AcDbMlineStyle
  2
Standard
 70
     0
  3

 62
   256
 51
90.0
 52
90.0
 71
     2
 49
0.5
 62
   256
  6
BYLAYER
 49
-0.5
 62
   256
  6
BYLAYER
  0
TABLESTYLE
  5
2B
102
{ACAD_REACTORS
330
2A
102
}
330
2A
100
AcDbTableStyle
  3
Standard
 70
     0
 71
     0
 40
0.06
 41
0.06
280
     0
281
     0
  7
STANDARD
140
0.18
170
     2
 62
     0
 63
     7
283
     0
274
    -2
284
     1
 64
     0
275
    -2
285
     1
 65
     0
276
    -2
286
     1
 66
     0
277
    -2
287
     1
 67
     0
278
    -2
288
     1
 68
     0
279
    -2
289
     1
 69
     0
  7
STANDARD
140
0.25
170
     5
 62
     0
 63
     7
283
     0
274
    -2
284
     1
 64
     0
275
    -2
285
     1
 65
     0
276
    -2
286
     1
 66
     0
277
    -2
287
     1
 67
     0
278
    -2
288
     1
 68
     0
279
    -2
289
     1
 69
     0
  7
STANDARD
140
0.18
170
     5
 62
     0
 63
     7
283
     0
274
    -2
284
     1
 64
     0
275
    -2
285
     1
 65
     0
276
    -2
286
     1
 66
     0
277
    -2
287
     1
 67
     0
278
    -2
288
     1
 68
     0
279
    -2
289
     1
 69
     0
  0
DICTIONARYVAR
  5
2D
102
{ACAD_REACTORS
330
2C
102
}
330
2C
100
DictionaryVariables
280
     0
  1
Standard
  0
ENDSEC
  0
EOF
