  0
SECTION
  2
HEADER
  9
$ACADVER
  1
AC1012
  9
$DWGCODEPAGE
  3
ansi_1252
  9
$INSBASE
 10
0.0
 20
0.0
 30
0.0
  9
$EXTMIN
 10
0.0
 20
0.0
 30
0.0
  9
$EXTMAX
 10
210.0
 20
297.0
 30
0.0
  9
$LIMMIN
 10
0.0
 20
0.0
  9
$LIMMAX
 10
210.0
 20
297.0
  9
$ORTHOMODE
 70
     0
  9
$REGENMODE
 70
     1
  9
$FILLMODE
 70
     1
  9
$QTEXTMODE
 70
     0
  9
$MIRRTEXT
 70
     1
  9
$DRAGMODE
 70
     2
  9
$LTSCALE
 40
1.0
  9
$OSMODE
 70
    37
  9
$ATTMODE
 70
     1
  9
$TEXTSIZE
 40
0.2
  9
$TRACEWID
 40
0.05
  9
$TEXTSTYLE
  7
STANDARD
  9
$CLAYER
  8
0
  9
$CELTYPE
  6
BYLAYER
  9
$CECOLOR
 62
   256
  9
$CELTSCALE
 40
25.4
  9
$DELOBJ
 70
     1
  9
$DISPSILH
 70
     0
  9
$DIMSCALE
 40
1.0
  9
$DIMASZ
 40
0.18
  9
$DIMEXO
 40
0.0625
  9
$DIMDLI
 40
0.38
  9
$DIMRND
 40
0.0
  9
$DIMDLE
 40
0.0
  9
$DIMEXE
 40
0.18
  9
$DIMTP
 40
0.0
  9
$DIMTM
 40
0.0
  9
$DIMTXT
 40
0.18
  9
$DIMCEN
 40
0.09
  9
$DIMTSZ
 40
0.0
  9
$DIMTOL
 70
     0
  9
$DIMLIM
 70
     0
  9
$DIMTIH
 70
     1
  9
$DIMTOH
 70
     1
  9
$DIMSE1
 70
     0
  9
$DIMSE2
 70
     0
  9
$DIMTAD
 70
     0
  9
$DIMZIN
 70
     0
  9
$DIMBLK
  1

  9
$DIMASO
 70
     1
  9
$DIMSHO
 70
     1
  9
$DIMPOST
  1

  9
$DIMAPOST
  1

  9
$DIMALT
 70
     0
  9
$DIMALTD
 70
     2
  9
$DIMALTF
 40
25.4
  9
$DIMLFAC
 40
1.0
  9
$DIMTOFL
 70
     0
  9
$DIMTVP
 40
0.0
  9
$DIMTIX
 70
     0
  9
$DIMSOXD
 70
     0
  9
$DIMSAH
 70
     0
  9
$DIMBLK1
  1

  9
$DIMBLK2
  1

  9
$DIMSTYLE
  2
STANDARD
  9
$DIMCLRD
 70
     0
  9
$DIMCLRE
 70
     0
  9
$DIMCLRT
 70
     0
  9
$DIMTFAC
 40
1.0
  9
$DIMGAP
 40
0.09
  9
$DIMJUST
 70
     0
  9
$DIMSD1
 70
     0
  9
$DIMSD2
 70
     0
  9
$DIMTOLJ
 70
     1
  9
$DIMTZIN
 70
     0
  9
$DIMALTZ
 70
     0
  9
$DIMALTTZ
 70
     0
  9
$DIMFIT
 70
     3
  9
$DIMUPT
 70
     0
  9
$DIMUNIT
 70
     2
  9
$DIMDEC
 70
     4
  9
$DIMTDEC
 70
     4
  9
$DIMALTU
 70
     2
  9
$DIMALTTD
 70
     2
  9
$DIMTXSTY
  7
STANDARD
  9
$DIMAUNIT
 70
     0
  9
$LUNITS
 70
     2
  9
$LUPREC
 70
     4
  9
$SKETCHINC
 40
0.1
  9
$FILLETRAD
 40
0.5
  9
$AUNITS
 70
     0
  9
$AUPREC
 70
     0
  9
$MENU
  1
.
  9
$ELEVATION
 40
0.0
  9
$PELEVATION
 40
0.0
  9
$THICKNESS
 40
0.0
  9
$LIMCHECK
 70
     0
  9
$CHAMFERA
 40
0.5
  9
$CHAMFERB
 40
0.5
  9
$CHAMFERC
 40
1.0
  9
$CHAMFERD
 40
0.0
  9
$SKPOLY
 70
     0
  9
$TDCREATE
 40
2453762.544235856
  9
$TDUPDATE
 40
2453762.544235868
  9
$TDINDWG
 40
0.0000000116
  9
$TDUSRTIMER
 40
0.0000000116
  9
$USRTIMER
 70
     1
  9
$ANGBASE
 50
0.0
  9
$ANGDIR
 70
     0
  9
$PDMODE
 70
     0
  9
$PDSIZE
 40
0.0
  9
$PLINEWID
 40
0.0
  9
$COORDS
 70
     1
  9
$SPLFRAME
 70
     0
  9
$SPLINETYPE
 70
     6
  9
$SPLINESEGS
 70
     8
  9
$ATTDIA
 70
     0
  9
$ATTREQ
 70
     1
  9
$HANDLING
 70
     1
  9
$HANDSEED
  5
176
  9
$SURFTAB1
 70
     6
  9
$SURFTAB2
 70
     6
  9
$SURFTYPE
 70
     6
  9
$SURFU
 70
     6
  9
$SURFV
 70
     6
  9
$UCSNAME
  2

  9
$UCSORG
 10
0.0
 20
0.0
 30
0.0
  9
$UCSXDIR
 10
1.0
 20
0.0
 30
0.0
  9
$UCSYDIR
 10
0.0
 20
1.0
 30
0.0
  9
$PUCSNAME
  2

  9
$PUCSORG
 10
0.0
 20
0.0
 30
0.0
  9
$PUCSXDIR
 10
1.0
 20
0.0
 30
0.0
  9
$PUCSYDIR
 10
0.0
 20
1.0
 30
0.0
  9
$USERI1
 70
     0
  9
$USERI2
 70
     0
  9
$USERI3
 70
     0
  9
$USERI4
 70
     0
  9
$USERI5
 70
     0
  9
$USERR1
 40
0.0
  9
$USERR2
 40
0.0
  9
$USERR3
 40
0.0
  9
$USERR4
 40
0.0
  9
$USERR5
 40
0.0
  9
$WORLDVIEW
 70
     1
  9
$SHADEDGE
 70
     3
  9
$SHADEDIF
 70
    70
  9
$TILEMODE
 70
     1
  9
$MAXACTVP
 70
    64
  9
$PINSBASE
 10
0.0
 20
0.0
 30
0.0
  9
$PLIMCHECK
 70
     0
  9
$PEXTMIN
 10
0.0
 20
0.0
 30
0.0
  9
$PEXTMAX
 10
210.0
 20
297.0
 30
0.0
  9
$PLIMMIN
 10
0.0
 20
0.0
  9
$PLIMMAX
 10
12.0
 20
9.0
  9
$UNITMODE
 70
     0
  9
$VISRETAIN
 70
     1
  9
$PLINEGEN
 70
     0
  9
$PSLTSCALE
 70
     1
  9
$TREEDEPTH
 70
  3020
  9
$PICKSTYLE
 70
     1
  9
$CMLSTYLE
  2
STANDARD
  9
$CMLJUST
 70
     0
  9
$CMLSCALE
 40
1.0
  9
$SAVEIMAGES
 70
     1
  0
ENDSEC
  0
SECTION
  2
CLASSES
  0
CLASS
  1
ACDBDICTIONARYWDFLT
  2
AcDbDictionaryWithDefault
  3
ObjectDBX Classes
 90
        0
280
     0
281
     0
  0
CLASS
  1
TABLESTYLE
  2
AcDbTableStyle
  3
ObjectDBX Classes
 90
     2047
280
     0
281
     0
  0
CLASS
  1
DICTIONARYVAR
  2
AcDbDictionaryVar
  3
ObjectDBX Classes
 90
        0
280
     0
281
     0
  0
CLASS
  1
XRECORD
  2
AcDbXrecord
  3
AutoCAD 2000
 90
    32768
280
     0
281
     0
  0
CLASS
  1
LWPOLYLINE
  2
AcDbPolyline
  3
AutoCAD 2000
 90
    32768
280
     0
281
     1
  0
CLASS
  1
HATCH
  2
AcDbHatch
  3
AutoCAD 2000
 90
    32768
280
     0
281
     1
  0
CLASS
  1
ACDBPLACEHOLDER
  2
AcDbPlaceHolder
  3
ObjectDBX Classes
 90
        0
280
     0
281
     0
  0
CLASS
  1
LAYOUT
  2
AcDbLayout
  3
ObjectDBX Classes
 90
        0
280
     0
281
     0
  0
ENDSEC
  0
SECTION
  2
TABLES
  0
TABLE
  2
VPORT
  5
8
330
0
100
AcDbSymbolTable
 70
     2
  0
VPORT
  5
29
102
{ACAD_XDICTIONARY
360
174
102
}
330
8
100
AcDbSymbolTableRecord
100
AcDbViewportTableRecord
  2
*ACTIVE
 70
     0
 10
0.0
 20
0.0
 11
1.0
 21
1.0
 12
10.4299065421
 22
4.5
 13
0.0
 23
0.0
 14
0.5
 24
0.5
 15
0.5
 25
0.5
 16
0.0
 26
0.0
 36
1.0
 17
0.0
 27
0.0
 37
0.0
 40
9.0
 41
1.9729729729
 42
50.0
 43
0.0
 44
0.0
 50
0.0
 51
0.0
 71
     0
 72
   100
 73
     1
 74
     3
 75
     0
 76
     0
 77
     0
 78
     0
  0
ENDTAB
  0
TABLE
  2
LTYPE
  5
5
330
0
100
AcDbSymbolTable
 70
     3
  0
LTYPE
  5
14
330
5
100
AcDbSymbolTableRecord
100
AcDbLinetypeTableRecord
  2
BYBLOCK
 70
     0
  3

 72
    65
 73
     0
 40
0.0
  0
LTYPE
  5
15
330
5
100
AcDbSymbolTableRecord
100
AcDbLinetypeTableRecord
  2
BYLAYER
 70
     0
  3

 72
    65
 73
     0
 40
0.0
  0
LTYPE
  5
16
330
5
100
AcDbSymbolTableRecord
100
AcDbLinetypeTableRecord
  2
CONTINUOUS
 70
     0
  3
Solid line
 72
    65
 73
     0
 40
0.0
  0
LTYPE
  5
31
330
5
100
AcDbSymbolTableRecord
100
AcDbLinetypeTableRecord
  2
CENTER2
 70
     0
  3
___ _ ___ _ ___ _ ___ _ ___ _ ___ _ ___ _ ___ _
 72
    65
 73
     4
 40
1.125
 49
0.75
 74
     4
 75
     0
340
0
 46
0.0
 50
0.0
 44
0.0
 45
0.0
 49
-0.125
 74
     4
 75
     0
340
0
 46
0.0
 50
0.0
 44
0.0
 45
0.0
 49
0.125
 74
     4
 75
     0
340
0
 46
0.0
 50
0.0
 44
0.0
 45
0.0
 49
-0.125
 74
     4
 75
     0
340
0
 46
0.0
 50
0.0
 44
0.0
 45
0.0
  0
LTYPE
  5
58
330
5
100
AcDbSymbolTableRecord
100
AcDbLinetypeTableRecord
  2
HIDDEN2
 70
     0
  3
_ _ _ _ _ _ _ _ _ _ _ _ _ _ _ _ _ _ _ _ _ _ _ _
 72
    65
 73
     2
 40
0.1875
 49
0.125
 74
     4
 75
     0
340
0
 46
0.0
 50
0.0
 44
0.0
 45
0.0
 49
-0.0625
 74
     4
 75
     0
340
0
 46
0.0
 50
0.0
 44
0.0
 45
0.0
  0
ENDTAB
  0
TABLE
  2
LAYER
  5
2
330
0
100
AcDbSymbolTable
 70
     6
  0
LAYER
  5
10
330
2
100
AcDbSymbolTableRecord
100
AcDbLayerTableRecord
  2
0
 70
     0
 62
     7
  6
CONTINUOUS
  0
LAYER
  5
30
330
2
100
AcDbSymbolTableRecord
100
AcDbLayerTableRecord
  2
DEFAULT
 70
     0
 62
     7
  6
CONTINUOUS
  0
LAYER
  5
50
330
2
100
AcDbSymbolTableRecord
100
AcDbLayerTableRecord
  2
MEGA_001501
 70
     0
 62
     7
  6
CONTINUOUS
  0
LAYER
  5
55
330
2
100
AcDbSymbolTableRecord
100
AcDbLayerTableRecord
  2
MEGA_002077
 70
     0
 62
     7
  6
CONTINUOUS
  0
LAYER
  5
7C
330
2
100
AcDbSymbolTableRecord
100
AcDbLayerTableRecord
  2
STANDARD
 70
     0
 62
     7
  6
CONTINUOUS
  0
LAYER
  5
89
330
2
100
AcDbSymbolTableRecord
100
AcDbLayerTableRecord
  2
MEGA_001422
 70
     0
 62
     7
  6
CONTINUOUS
  0
ENDTAB
  0
TABLE
  2
STYLE
  5
3
330
0
100
AcDbSymbolTable
 70
     3
  0
STYLE
  5
11
330
3
100
AcDbSymbolTableRecord
100
AcDbTextStyleTableRecord
  2
STANDARD
 70
     0
 40
0.0
 41
1.0
 50
0.0
 71
     0
 42
0.2
  3
txt
  4

  0
STYLE
  5
F9
330
3
100
AcDbSymbolTableRecord
100
AcDbTextStyleTableRecord
  2
SEACAD_SEISO_TTF
 70
     0
 40
0.2
 41
1.0
 50
0.0
 71
     0
 42
0.2
  3
seiso.ttf
  4

  0
STYLE
  5
FB
330
3
100
AcDbSymbolTableRecord
100
AcDbTextStyleTableRecord
  2
SEACAD_SEMECI1_TTF
 70
     0
 40
0.2
 41
1.0
 50
0.0
 71
     0
 42
0.2
  3
semeci1.ttf
  4

  0
ENDTAB
  0
TABLE
  2
VIEW
  5
6
330
0
100
AcDbSymbolTable
 70
     0
  0
ENDTAB
  0
TABLE
  2
UCS
  5
7
330
0
100
AcDbSymbolTable
 70
     0
  0
ENDTAB
  0
TABLE
  2
APPID
  5
9
330
0
100
AcDbSymbolTable
 70
     1
  0
APPID
  5
12
330
9
100
AcDbSymbolTableRecord
100
AcDbRegAppTableRecord
  2
ACAD
 70
     0
  0
ENDTAB
  0
TABLE
  2
DIMSTYLE
  5
A
330
0
100
AcDbSymbolTable
 70
     1
  0
DIMSTYLE
105
27
330
A
100
AcDbSymbolTableRecord
100
AcDbDimStyleTableRecord
  2
STANDARD
 70
     0
  3

  4

  5

  6

  7

 40
1.0
 41
0.18
 42
0.0625
 43
0.38
 44
0.18
 45
0.0
 46
0.0
 47
0.0
 48
0.0
140
0.18
141
0.09
142
0.0
143
25.4
144
1.0
145
0.0
146
1.0
147
0.09
 71
     0
 72
     0
 73
     1
 74
     1
 75
     0
 76
     0
 77
     0
 78
     0
170
     0
171
     2
172
     0
173
     0
174
     0
175
     0
176
     0
177
     0
178
     0
270
     2
271
     4
272
     4
273
     2
274
     2
340
11
275
     0
280
     0
281
     0
282
     0
283
     1
284
     0
285
     0
286
     0
287
     3
288
     0
  0
ENDTAB
  0
TABLE
  2
BLOCK_RECORD
  5
1
330
0
100
AcDbSymbolTable
 70
    16
  0
BLOCK_RECORD
  5
1F
330
1
100
AcDbSymbolTableRecord
100
AcDbBlockTableRecord
  2
*MODEL_SPACE
  0
BLOCK_RECORD
  5
1B
330
1
100
AcDbSymbolTableRecord
100
AcDbBlockTableRecord
  2
*PAPER_SPACE
  0
BLOCK_RECORD
  5
2E
330
1
100
AcDbSymbolTableRecord
100
AcDbBlockTableRecord
  2
SE
  0
BLOCK_RECORD
  5
3A
330
1
100
AcDbSymbolTableRecord
100
AcDbBlockTableRecord
  2
SE1
  0
BLOCK_RECORD
  5
3F
330
1
100
AcDbSymbolTableRecord
100
AcDbBlockTableRecord
  2
SE2
  0
BLOCK_RECORD
  5
44
330
1
100
AcDbSymbolTableRecord
100
AcDbBlockTableRecord
  2
SE3
  0
BLOCK_RECORD
  5
49
330
1
100
AcDbSymbolTableRecord
100
AcDbBlockTableRecord
  2
SE4
  0
BLOCK_RECORD
  5
4E
330
1
100
AcDbSymbolTableRecord
100
AcDbBlockTableRecord
  2
SE5
  0
BLOCK_RECORD
  5
80
330
1
100
AcDbSymbolTableRecord
100
AcDbBlockTableRecord
  2
SE6
  0
BLOCK_RECORD
  5
BB
330
1
100
AcDbSymbolTableRecord
100
AcDbBlockTableRecord
  2
SE7
  0
BLOCK_RECORD
  5
F3
330
1
100
AcDbSymbolTableRecord
100
AcDbBlockTableRecord
  2
SE8
  0
BLOCK_RECORD
  5
FF
330
1
100
AcDbSymbolTableRecord
100
AcDbBlockTableRecord
  2
SE9
  0
BLOCK_RECORD
  5
109
330
1
100
AcDbSymbolTableRecord
100
AcDbBlockTableRecord
  2
SE10
  0
BLOCK_RECORD
  5
114
330
1
100
AcDbSymbolTableRecord
100
AcDbBlockTableRecord
  2
SE11
  0
BLOCK_RECORD
  5
11F
330
1
100
AcDbSymbolTableRecord
100
AcDbBlockTableRecord
  2
SE12
  0
BLOCK_RECORD
  5
129
330
1
100
AcDbSymbolTableRecord
100
AcDbBlockTableRecord
  2
SE13
  0
BLOCK_RECORD
  5
133
330
1
100
AcDbSymbolTableRecord
100
AcDbBlockTableRecord
  2
SE14
  0
ENDTAB
  0
ENDSEC
  0
SECTION
  2
BLOCKS
  0
BLOCK
  5
20
330
1F
100
AcDbEntity
  8
0
100
AcDbBlockBegin
  2
*MODEL_SPACE
 70
     0
 71
     0
 10
0.0
 20
0.0
 30
0.0
  3
*MODEL_SPACE
  1

  0
ENDBLK
  5
21
330
1F
100
AcDbEntity
  8
0
100
AcDbBlockEnd
  0
BLOCK
  5
1C
330
1B
100
AcDbEntity
 67
     1
  8
0
100
AcDbBlockBegin
  2
*PAPER_SPACE
 70
     0
 71
     0
 10
0.0
 20
0.0
 30
0.0
  3
*PAPER_SPACE
  1

  0
ENDBLK
  5
1D
330
1B
100
AcDbEntity
 67
     1
  8
0
100
AcDbBlockEnd
  0
BLOCK
  5
38
330
2E
100
AcDbEntity
  8
0
100
AcDbBlockBegin
  2
SE
 70
     0
 71
     0
 10
0.0
 20
0.0
 30
0.0
  3
SE
  1

  0
LINE
  5
32
330
2E
100
AcDbEntity
  8
DEFAULT
  6
CENTER2
 62
     7
 48
25.4
100
AcDbLine
 10
142.1153414572
 20
189.7225341845
 30
0.0
 11
130.1153413529
 21
189.7225341845
 31
0.0
  0
LINE
  5
33
330
2E
100
AcDbEntity
  8
DEFAULT
  6
CENTER2
 62
     7
 48
25.4
100
AcDbLine
 10
136.115341405
 20
195.7225342367
 30
0.0
 11
136.115341405
 21
183.7225341324
 31
0.0
  0
LINE
  5
34
330
2E
100
AcDbEntity
  8
DEFAULT
  6
CENTER2
 62
     7
 48
25.4
100
AcDbLine
 10
143.615341405
 20
189.7225341845
 30
0.0
 11
163.865341405
 21
189.7225341845
 31
0.0
  0
LINE
  5
35
330
2E
100
AcDbEntity
  8
DEFAULT
  6
CENTER2
 62
     7
 48
25.4
100
AcDbLine
 10
136.115341405
 20
197.2225341845
 30
0.0
 11
136.115341405
 21
217.4725341845
 31
0.0
  0
LINE
  5
36
330
2E
100
AcDbEntity
  8
DEFAULT
  6
CENTER2
 62
     7
 48
25.4
100
AcDbLine
 10
128.615341405
 20
189.7225341845
 30
0.0
 11
108.365341405
 21
189.7225341845
 31
0.0
  0
LINE
  5
37
330
2E
100
AcDbEntity
  8
DEFAULT
  6
CENTER2
 62
     7
 48
25.4
100
AcDbLine
 10
136.115341405
 20
182.2225341845
 30
0.0
 11
136.115341405
 21
161.9725341845
 31
0.0
  0
ENDBLK
  5
39
330
2E
100
AcDbEntity
  8
0
100
AcDbBlockEnd
  0
BLOCK
  5
3D
330
3A
100
AcDbEntity
  8
0
100
AcDbBlockBegin
  2
SE1
 70
     0
 71
     0
 10
0.0
 20
0.0
 30
0.0
  3
SE1
  1

  0
LINE
  5
3C
330
3A
100
AcDbEntity
  8
DEFAULT
  6
CENTER2
 62
     7
 48
25.4
100
AcDbLine
 10
77.4849464895
 20
189.7225341845
 30
0.0
 11
29.5662887276
 21
189.7225341845
 31
0.0
  0
ENDBLK
  5
3E
330
3A
100
AcDbEntity
  8
0
100
AcDbBlockEnd
  0
BLOCK
  5
42
330
3F
100
AcDbEntity
  8
0
100
AcDbBlockBegin
  2
SE2
 70
     0
 71
     0
 10
0.0
 20
0.0
 30
0.0
  3
SE2
  1

  0
LINE
  5
41
330
3F
100
AcDbEntity
  8
DEFAULT
  6
CENTER2
 62
     7
 48
25.4
100
AcDbLine
 10
117.115341405
 20
92.0956891484
 30
0.0
 11
117.115341405
 21
125.5799022256
 31
0.0
  0
ENDBLK
  5
43
330
3F
100
AcDbEntity
  8
0
100
AcDbBlockEnd
  0
BLOCK
  5
47
330
44
100
AcDbEntity
  8
0
100
AcDbBlockBegin
  2
SE3
 70
     0
 71
     0
 10
0.0
 20
0.0
 30
0.0
  3
SE3
  1

  0
LINE
  5
46
330
44
100
AcDbEntity
  8
DEFAULT
  6
CENTER2
 62
     7
 48
25.4
100
AcDbLine
 10
136.115341405
 20
57.5352531004
 30
0.0
 11
136.115341405
 21
107.2870597267
 31
0.0
  0
ENDBLK
  5
48
330
44
100
AcDbEntity
  8
0
100
AcDbBlockEnd
  0
BLOCK
  5
4C
330
49
100
AcDbEntity
  8
0
100
AcDbBlockBegin
  2
SE4
 70
     0
 71
     0
 10
0.0
 20
0.0
 30
0.0
  3
SE4
  1

  0
LINE
  5
4B
330
49
100
AcDbEntity
  8
DEFAULT
  6
CENTER2
 62
     7
 48
25.4
100
AcDbLine
 10
155.115341405
 20
91.6729714207
 30
0.0
 11
155.115341405
 21
126.1486951966
 31
0.0
  0
ENDBLK
  5
4D
330
49
100
AcDbEntity
  8
0
100
AcDbBlockEnd
  0
BLOCK
  5
7E
330
4E
100
AcDbEntity
  8
0
100
AcDbBlockBegin
  2
SE5
 70
     0
 71
     0
 10
0.0
 20
0.0
 30
0.0
  3
SE5
  1

  0
ARC
  5
51
330
4E
100
AcDbEntity
  8
MEGA_001501
  6
CONTINUOUS
 62
     7
 48
25.4
100
AcDbCircle
 10
136.115341405
 20
189.7225341845
 30
0.0
 40
11.1
100
AcDbArc
 50
38.5597078095
 51
141.3239524198
  0
ARC
  5
52
330
4E
100
AcDbEntity
  8
MEGA_001501
  6
CONTINUOUS
 62
     7
 48
25.4
100
AcDbCircle
 10
136.115341405
 20
189.7225341845
 30
0.0
 40
11.1
100
AcDbArc
 50
218.6867696193
 51
321.4199807054
  0
ARC
  5
53
330
4E
100
AcDbEntity
  8
MEGA_001501
  6
CONTINUOUS
 62
     7
 48
25.4
100
AcDbCircle
 10
136.115341405
 20
189.7225341845
 30
0.0
 40
25.93015846099999
100
AcDbArc
 50
84.8556759748
 51
95.1443240252
  0
ARC
  5
54
330
4E
100
AcDbEntity
  8
MEGA_001501
  6
CONTINUOUS
 62
     7
 48
25.4
100
AcDbCircle
 10
136.115341405
 20
189.7225341845
 30
0.0
 40
26.0
100
AcDbArc
 50
95.5177343738
 51
84.4822656262
  0
SPLINE
  5
56
330
4E
100
AcDbEntity
  8
MEGA_002077
  6
CONTINUOUS
 62
     7
 48
25.4
100
AcDbSpline
210
0.0
220
0.0
230
1.0
 70
     8
 71
     3
 72
     8
 73
     4
 74
     0
 42
0.0000000001
 43
0.0000000001
 40
0.0
 40
0.0
 40
0.0
 40
0.0
 40
1.0
 40
1.0
 40
1.0
 40
1.0
 10
153.3588210942316
 20
194.6087613521064
 30
0.0
 10
152.7983227501404
 20
194.7512999294966
 30
0.0
 10
152.1366824243852
 20
194.9107131449457
 30
0.0
 10
151.4593253396252
 20
195.0703074196116
 30
0.0
  0
SPLINE
  5
57
330
4E
100
AcDbEntity
  8
MEGA_002077
  6
CONTINUOUS
 62
     7
 48
25.4
100
AcDbSpline
210
0.0
220
0.0
230
1.0
 70
     8
 71
     3
 72
     8
 73
     4
 74
     0
 42
0.0000000001
 43
0.0000000001
 40
0.0
 40
0.0
 40
0.0
 40
0.0
 40
1.0
 40
1.0
 40
1.0
 40
1.0
 10
120.7713574704661
 20
195.0703074196116
 30
0.0
 10
120.1707724357209
 20
194.928801653817
 30
0.0
 10
119.5822737389446
 20
194.7873896662932
 30
0.0
 10
119.0655824575444
 20
194.6577113802472
 30
0.0
  0
ARC
  5
59
330
4E
100
AcDbEntity
  8
MEGA_002077
  6
HIDDEN2
 62
     7
 48
25.4
100
AcDbCircle
 10
136.1153414051
 20
189.7225341846
 30
0.0
 40
9.000000000000002
100
AcDbArc
 50
58.9891222097
 51
61.9430601384
  0
ARC
  5
5A
330
4E
100
AcDbEntity
  8
MEGA_002077
  6
HIDDEN2
 62
     7
 48
25.4
100
AcDbCircle
 10
136.2250527495
 20
189.9404562284
 30
0.0
 40
9.243939618100001
100
AcDbArc
 50
242.2394889424
 51
244.3152055035
  0
ARC
  5
5B
330
4E
100
AcDbEntity
  8
MEGA_002077
  6
CONTINUOUS
 62
     7
 48
25.4
100
AcDbCircle
 10
131.5690789696
 20
180.2577839043
 30
0.0
 40
1.5
100
AcDbArc
 50
64.343339235
 51
76.6754687381
  0
ARC
  5
5C
330
4E
100
AcDbEntity
  8
MEGA_002077
  6
CONTINUOUS
 62
     7
 48
25.4
100
AcDbCircle
 10
140.6616038405
 20
180.2577839043
 30
0.0
 40
1.5
100
AcDbArc
 50
103.3245312619
 51
115.6566607651
  0
LINE
  5
5D
330
4E
100
AcDbEntity
  8
MEGA_002077
  6
CONTINUOUS
 62
     7
 48
25.4
100
AcDbLine
 10
132.0786200936
 20
197.7664686108
 30
0.0
 11
130.5308100377
 21
197.3998820186
 31
0.0
  0
LINE
  5
5E
330
4E
100
AcDbEntity
  8
MEGA_002077
  6
CONTINUOUS
 62
     7
 48
25.4
100
AcDbLine
 10
140.3159042647
 20
181.7174043355
 30
0.0
 11
141.7039704903
 21
182.0461568626
 31
0.0
  0
LINE
  5
5F
330
4E
100
AcDbEntity
  8
MEGA_002077
  6
CONTINUOUS
 62
     7
 48
25.4
100
AcDbLine
 10
141.7185198544
 20
197.3954656044
 30
0.0
 11
140.1520627165
 21
197.7664686108
 31
0.0
  0
ARC
  5
60
330
4E
100
AcDbEntity
  8
MEGA_002077
  6
CONTINUOUS
 62
     7
 48
25.4
100
AcDbCircle
 10
140.6540211625
 20
180.2788628609
 30
0.0
 40
1.477602497300012
100
AcDbArc
 50
103.2081611202
 51
112.5839925472
  0
LINE
  5
61
330
4E
100
AcDbEntity
  8
MEGA_002077
  6
CONTINUOUS
 62
     7
 48
25.4
100
AcDbLine
 10
130.5222378071
 20
182.0472166156
 30
0.0
 11
131.9147785454
 21
181.7174043355
 31
0.0
  0
ARC
  5
62
330
4E
100
AcDbEntity
  8
MEGA_002077
  6
CONTINUOUS
 62
     7
 48
25.4
100
AcDbCircle
 10
65.5697362365
 20
-73.4563912009
 30
0.0
 40
263.6209073507999
100
AcDbArc
 50
76.0590814361
 51
76.7390411647
  0
ARC
  5
63
330
4E
100
AcDbEntity
  8
MEGA_002077
  6
HIDDEN2
 62
     7
 48
25.4
100
AcDbCircle
 10
136.115341405
 20
189.7225341847
 30
0.0
 40
8.999999999799996
100
AcDbArc
 50
118.0569398616
 51
121.0108777904
  0
LINE
  5
64
330
4E
100
AcDbEntity
  8
MEGA_002077
  6
CONTINUOUS
 62
     7
 48
25.4
100
AcDbLine
 10
146.1897916962
 20
183.1355858191
 30
0.0
 11
151.4592401628
 21
184.3751164356
 31
0.0
  0
ARC
  5
65
330
4E
100
AcDbEntity
  8
MEGA_002077
  6
CONTINUOUS
 62
     7
 48
25.4
100
AcDbCircle
 10
204.0087938847
 20
-62.4520019855
 30
0.0
 40
252.301455599
100
AcDbArc
 50
103.247970163
 51
103.8763721527
  0
SPLINE
  5
66
330
4E
100
AcDbEntity
  8
MEGA_002077
  6
CONTINUOUS
 62
     7
 48
25.4
100
AcDbSpline
210
0.0
220
0.0
230
1.0
 70
     8
 71
     3
 72
    62
 73
    58
 74
     0
 42
0.0000000001
 43
0.0000000001
 40
0.0
 40
0.0
 40
0.0
 40
0.0
 40
0.0061893312489024
 40
0.0061893312489024
 40
0.0061893312489024
 40
0.0807857620945033
 40
0.0807857620945033
 40
0.0807857620945033
 40
0.1559747174195744
 40
0.1559747174195744
 40
0.1559747174195744
 40
0.2316948635270958
 40
0.2316948635270958
 40
0.2316948635270958
 40
0.3082638374174411
 40
0.3082638374174411
 40
0.3082638374174411
 40
0.3872489033911722
 40
0.3872489033911722
 40
0.3872489033911722
 40
0.4691149026212433
 40
0.4691149026212433
 40
0.4691149026212433
 40
0.5653992892043412
 40
0.5653992892043412
 40
0.5653992892043412
 40
0.6174783952735355
 40
0.6174783952735355
 40
0.6174783952735355
 40
0.6547995739057624
 40
0.6547995739057624
 40
0.6547995739057624
 40
0.6904028030912053
 40
0.6904028030912053
 40
0.6904028030912053
 40
0.7258153580499721
 40
0.7258153580499721
 40
0.7258153580499721
 40
0.7628107238495677
 40
0.7628107238495677
 40
0.7628107238495677
 40
0.8023778086875282
 40
0.8023778086875282
 40
0.8023778086875282
 40
0.8438740549519436
 40
0.8438740549519436
 40
0.8438740549519436
 40
0.8865887630644431
 40
0.8865887630644431
 40
0.8865887630644431
 40
0.9300794125117808
 40
0.9300794125117808
 40
0.9300794125117808
 40
0.974043209970681
 40
0.974043209970681
 40
0.974043209970681
 40
1.0
 40
1.0
 40
1.0
 40
1.0
 10
153.2178991037299
 20
184.8003905438113
 30
0.0
 10
153.2280515255999
 20
184.8029181766474
 30
0.0
 10
153.2367874322578
 20
184.8050934642371
 30
0.0
 10
153.2455359369423
 20
184.8072762064243
 30
0.0
 10
153.3509766054836
 20
184.8335835359362
 30
0.0
 10
153.4582472743703
 20
184.8609737267873
 30
0.0
 10
153.560772315617
 20
184.8873805460808
 30
0.0
 10
153.6641117201787
 20
184.9139971165202
 30
0.0
 10
153.7626298080072
 20
184.9396146313857
 30
0.0
 10
153.8575356777319
 20
184.9647008552885
 30
0.0
 10
153.9531120332078
 20
184.9899643069615
 30
0.0
 10
154.0450249514935
 20
185.0146889342847
 30
0.0
 10
154.1325548665054
 20
185.0387064775364
 30
0.0
 10
154.2210659975807
 20
185.0629932590164
 30
0.0
 10
154.3050953070837
 20
185.0865570146517
 30
0.0
 10
154.3846590910095
 20
185.1095308989509
 30
0.0
 10
154.4667334666109
 20
185.1332297116012
 30
0.0
 10
154.5440560559516
 20
185.1563008394557
 30
0.0
 10
154.6170384901104
 20
185.1789881420237
 30
0.0
 10
154.6926829151038
 20
185.2025029504457
 30
0.0
 10
154.7636648016974
 20
185.2256054233492
 30
0.0
 10
154.8316166497598
 20
185.2490029150547
 30
0.0
 10
154.9115362997904
 20
185.2765212151748
 30
0.0
 10
154.9872646111639
 20
185.3044476037387
 30
0.0
 10
155.0668273537152
 20
185.3377386955073
 30
0.0
 10
155.1098619167999
 20
185.3557454602684
 30
0.0
 10
155.1540182819971
 20
185.3753217238962
 30
0.0
 10
155.2016729822804
 20
185.3986830388499
 30
0.0
 10
155.2358235220301
 20
185.4154243363544
 30
0.0
 10
155.2717706355927
 20
185.4341094511107
 30
0.0
 10
155.3099531508545
 20
185.4558146060485
 30
0.0
 10
155.3463780680612
 20
185.476520640372
 30
0.0
 10
155.3848373258151
 20
185.4999750801376
 30
0.0
 10
155.4246754302379
 20
185.5268170169666
 30
0.0
 10
155.4643001804248
 20
185.5535152009488
 30
0.0
 10
155.5052890479139
 20
185.5835646954571
 30
0.0
 10
155.5462223825691
 20
185.6169569614856
 30
0.0
 10
155.5889852865936
 20
185.6518417388772
 30
0.0
 10
155.6316875826165
 20
185.6903747850095
 30
0.0
 10
155.6728976092444
 20
185.7321369622074
 30
0.0
 10
155.7169723354841
 20
185.7768022215579
 30
0.0
 10
155.759340112161
 20
185.8251611597306
 30
0.0
 10
155.7988604986568
 20
185.8765785476914
 30
0.0
 10
155.8403077697208
 20
185.9305028790348
 30
0.0
 10
155.8786232229031
 20
185.9877911707516
 30
0.0
 10
155.9130991213756
 20
186.0478445701955
 30
0.0
 10
155.9485873419435
 20
186.1096613285612
 30
0.0
 10
155.9800072142604
 20
186.1744079634453
 30
0.0
 10
156.0065400619745
 20
186.2409660827802
 30
0.0
 10
156.0335548966712
 20
186.3087332750139
 30
0.0
 10
156.0555035419257
 20
186.3783783631343
 30
0.0
 10
156.0731280746295
 20
186.450489669275
 30
0.0
 10
156.0909443499886
 20
186.5233854962621
 30
0.0
 10
156.1043419143252
 20
186.5988014946421
 30
0.0
 10
156.1090017063837
 20
186.6705962821561
 30
0.0
 10
156.1117529073952
 20
186.7129848457563
 30
0.0
 10
156.1114582318853
 20
186.754111101207
 30
0.0
 10
156.1107877951904
 20
186.802489174196
 30
0.0
  0
SPLINE
  5
67
330
4E
100
AcDbEntity
  8
MEGA_002077
  6
CONTINUOUS
 62
     7
 48
25.4
100
AcDbSpline
210
0.0
220
0.0
230
1.0
 70
     8
 71
     3
 72
    77
 73
    73
 74
     0
 42
0.0000000001
 43
0.0000000001
 40
0.0
 40
0.0
 40
0.0
 40
0.0
 40
0.0322236158992614
 40
0.0322236158992614
 40
0.0322236158992614
 40
0.0636988818285679
 40
0.0636988818285679
 40
0.0636988818285679
 40
0.0939533880174604
 40
0.0939533880174604
 40
0.0939533880174604
 40
0.1230327241977483
 40
0.1230327241977483
 40
0.1230327241977483
 40
0.1509150472665372
 40
0.1509150472665372
 40
0.1509150472665372
 40
0.1775054234033907
 40
0.1775054234033907
 40
0.1775054234033907
 40
0.2027410806312177
 40
0.2027410806312177
 40
0.2027410806312177
 40
0.2269651134768652
 40
0.2269651134768652
 40
0.2269651134768652
 40
0.2513195854083497
 40
0.2513195854083497
 40
0.2513195854083497
 40
0.27726495253453
 40
0.27726495253453
 40
0.27726495253453
 40
0.3072393714171988
 40
0.3072393714171988
 40
0.3072393714171988
 40
0.3456064567426398
 40
0.3456064567426398
 40
0.3456064567426398
 40
0.4033208749545965
 40
0.4033208749545965
 40
0.4033208749545965
 40
0.4650447455290681
 40
0.4650447455290681
 40
0.4650447455290681
 40
0.5219159150080204
 40
0.5219159150080204
 40
0.5219159150080204
 40
0.5818465731135248
 40
0.5818465731135248
 40
0.5818465731135248
 40
0.6395303398264545
 40
0.6395303398264545
 40
0.6395303398264545
 40
0.696071589425839
 40
0.696071589425839
 40
0.696071589425839
 40
0.7516765299664695
 40
0.7516765299664695
 40
0.7516765299664695
 40
0.8062575682617471
 40
0.8062575682617471
 40
0.8062575682617471
 40
0.8596708824894527
 40
0.8596708824894527
 40
0.8596708824894527
 40
0.9134979702083316
 40
0.9134979702083316
 40
0.9134979702083316
 40
0.967697464883451
 40
0.967697464883451
 40
0.967697464883451
 40
1.0
 40
1.0
 40
1.0
 40
1.0
 10
116.1182302466984
 20
186.8007070631646
 30
0.0
 10
116.1211942327745
 20
186.7197243482566
 30
0.0
 10
116.1243997742788
 20
186.651337867294
 30
0.0
 10
116.1343903343391
 20
186.5804348817252
 30
0.0
 10
116.1441488771315
 20
186.5111785222609
 30
0.0
 10
116.1603809521083
 20
186.4395211857872
 30
0.0
 10
116.1810566651074
 20
186.3703528215029
 30
0.0
 10
116.2009304761277
 20
186.303867133661
 30
0.0
 10
116.2249099189209
 20
186.2396810938217
 30
0.0
 10
116.2530982972752
 20
186.1774193698871
 30
0.0
 10
116.28019175983
 20
186.1175760662102
 30
0.0
 10
116.3111735344745
 20
186.0595104901055
 30
0.0
 10
116.3454478273099
 20
186.00407076947
 30
0.0
 10
116.3783112633892
 20
185.9509131529405
 30
0.0
 10
116.4142017321965
 20
185.9001696614009
 30
0.0
 10
116.4524930354347
 20
185.8522925419148
 30
0.0
 10
116.4890100843678
 20
185.8066338422311
 30
0.0
 10
116.5277106336325
 20
185.7635820379873
 30
0.0
 10
116.5676960403609
 20
185.7236015830902
 30
0.0
 10
116.6056442819774
 20
185.6856580410205
 30
0.0
 10
116.644749795019
 20
185.6504808640426
 30
0.0
 10
116.6839034295676
 20
185.6183717488975
 30
0.0
 10
116.7214875083482
 20
185.5875497951477
 30
0.0
 10
116.7591159278622
 20
185.5595548541127
 30
0.0
 10
116.7957201209859
 20
185.5343901236751
 30
0.0
 10
116.8325214166117
 20
185.50908988878
 30
0.0
 10
116.8682874258514
 20
185.4866504261993
 30
0.0
 10
116.9024301383423
 20
185.4666286623408
 30
0.0
 10
116.938803138453
 20
185.4452990266467
 30
0.0
 10
116.9733338395282
 20
185.4267132663576
 30
0.0
 10
117.0062284599547
 20
185.41002109923
 30
0.0
 10
117.0442312805298
 20
185.3907368082385
 30
0.0
 10
117.0800504330968
 20
185.3739798858159
 30
0.0
 10
117.1146825699152
 20
185.3586305507174
 30
0.0
 10
117.1590115076508
 20
185.3389834892775
 30
0.0
 10
117.201395656104
 20
185.3216425983711
 30
0.0
 10
117.2437196812629
 20
185.3052147598525
 30
0.0
 10
117.3073864015184
 20
185.2805028711452
 30
0.0
 10
117.3709170732618
 20
185.2578570604932
 30
0.0
 10
117.4375935622562
 20
185.2354288337844
 30
0.0
 10
117.5089021035974
 20
185.211442505836
 30
0.0
 10
117.5838087277063
 20
185.1877050432774
 30
0.0
 10
117.6634348718089
 20
185.1635226105738
 30
0.0
 10
117.736800846659
 20
185.141241389129
 30
0.0
 10
117.8141734201968
 20
185.1185824138445
 30
0.0
 10
117.8959870668479
 20
185.0952793406106
 30
0.0
 10
117.9822020283255
 20
185.0707226359114
 30
0.0
 10
118.0733487471302
 20
185.045450668324
 30
0.0
 10
118.1692008892765
 20
185.019439493112
 30
0.0
 10
118.2614593890374
 20
184.9944035163634
 30
0.0
 10
118.3580770992137
 20
184.9686827209826
 30
0.0
 10
118.4587430803512
 20
184.9423018161191
 30
0.0
 10
118.5574152144716
 20
184.9164434262889
 30
0.0
 10
118.6599768430283
 20
184.889950817014
 30
0.0
 10
118.7660550734996
 20
184.862876619937
 30
0.0
 10
118.8703766748049
 20
184.8362507648432
 30
0.0
 10
118.9780993742566
 20
184.8090624243604
 30
0.0
 10
119.0887727845134
 20
184.7813947748847
 30
0.0
 10
119.1974082687845
 20
184.7542365939589
 30
0.0
 10
119.3088867963394
 20
184.7266165933892
 30
0.0
 10
119.4228671270159
 20
184.698573533882
 30
0.0
 10
119.5344089262992
 20
184.6711304364959
 30
0.0
 10
119.6483466250805
 20
184.6432821886457
 30
0.0
 10
119.763470734048
 20
184.6152928147916
 30
0.0
 10
119.8794866675573
 20
184.5870866174526
 30
0.0
 10
119.9967074638249
 20
184.5587370991373
 30
0.0
 10
120.116818917333
 20
184.5298328120933
 30
0.0
 10
120.2377613714154
 20
184.5007285484574
 30
0.0
 10
120.3616346195853
 20
184.4710618131152
 30
0.0
 10
120.4792041175511
 20
184.443148952579
 30
0.0
 10
120.5492747493796
 20
184.4265130750108
 30
0.0
 10
120.6171062386992
 20
184.4105001878065
 30
0.0
 10
120.697005354959
 20
184.3916480128762
 30
0.0
  0
ARC
  5
68
330
4E
100
AcDbEntity
  8
MEGA_002077
  6
CONTINUOUS
 62
     7
 48
25.4
100
AcDbCircle
 10
428.9994822134
 20
1486.749868569
 30
0.0
 40
1338.3519615319
100
AcDbArc
 50
256.6850142265
 51
256.9167607168
  0
LINE
  5
69
330
4E
100
AcDbEntity
  8
MEGA_002077
  6
CONTINUOUS
 62
     7
 48
25.4
100
AcDbLine
 10
126.0408911139
 20
196.30948255
 30
0.0
 11
120.7714426472
 21
195.0699519334
 31
0.0
  0
LINE
  5
6A
330
4E
100
AcDbEntity
  8
MEGA_002077
  6
CONTINUOUS
 62
     7
 48
25.4
100
AcDbLine
 10
156.115341405
 20
186.8021548307
 30
0.0
 11
156.115341405
 21
192.6439019307
 31
0.0
  0
LINE
  5
6B
330
4E
100
AcDbEntity
  8
MEGA_002077
  6
CONTINUOUS
 62
     7
 48
25.4
100
AcDbLine
 10
116.115341405
 20
192.6429135384
 30
0.0
 11
116.115341405
 21
186.8011664384
 31
0.0
  0
ARC
  5
6C
330
4E
100
AcDbEntity
  8
MEGA_002077
  6
CONTINUOUS
 62
     7
 48
25.4
100
AcDbCircle
 10
-156.7687994031
 20
-1107.304800199
 30
0.0
 40
1338.3519615309
100
AcDbArc
 50
76.6850142265
 51
76.9167607168
  0
SPLINE
  5
6D
330
4E
100
AcDbEntity
  8
MEGA_002077
  6
CONTINUOUS
 62
     7
 48
25.4
100
AcDbSpline
210
0.0
220
0.0
230
1.0
 70
     8
 71
     3
 72
    62
 73
    58
 74
     0
 42
0.0000000001
 43
0.0000000001
 40
0.0
 40
0.0
 40
0.0
 40
0.0
 40
0.0390122748182893
 40
0.0390122748182893
 40
0.0390122748182893
 40
0.0834787682326491
 40
0.0834787682326491
 40
0.0834787682326491
 40
0.1262031157429592
 40
0.1262031157429592
 40
0.1262031157429592
 40
0.1672580857773927
 40
0.1672580857773927
 40
0.1672580857773927
 40
0.2066225432463994
 40
0.2066225432463994
 40
0.2066225432463994
 40
0.2441632657539308
 40
0.2441632657539308
 40
0.2441632657539308
 40
0.2797297158258669
 40
0.2797297158258669
 40
0.2797297158258669
 40
0.3136206355589353
 40
0.3136206355589353
 40
0.3136206355589353
 40
0.3472144995659943
 40
0.3472144995659943
 40
0.3472144995659943
 40
0.3826045904463723
 40
0.3826045904463723
 40
0.3826045904463723
 40
0.4227706765781323
 40
0.4227706765781323
 40
0.4227706765781323
 40
0.4731117490810404
 40
0.4731117490810404
 40
0.4731117490810404
 40
0.5456432360476113
 40
0.5456432360476113
 40
0.5456432360476113
 40
0.632102360905561
 40
0.632102360905561
 40
0.632102360905561
 40
0.7140364225883524
 40
0.7140364225883524
 40
0.7140364225883524
 40
0.7885762979896175
 40
0.7885762979896175
 40
0.7885762979896175
 40
0.8666908819143872
 40
0.8666908819143872
 40
0.8666908819143872
 40
0.9442864470005878
 40
0.9442864470005878
 40
0.9442864470005878
 40
1.0
 40
1.0
 40
1.0
 40
1.0
 10
156.1129015393821
 20
192.6443014699612
 30
0.0
 10
156.111606461752
 20
192.7140456100773
 30
0.0
 10
156.1099728826023
 20
192.7730620162749
 30
0.0
 10
156.1028989927467
 20
192.8341822363458
 30
0.0
 10
156.0948361182248
 20
192.9038475372269
 30
0.0
 10
156.0797054002864
 20
192.9762460325594
 30
0.0
 10
156.0601842358617
 20
193.0461922790849
 30
0.0
 10
156.0414278881345
 20
193.1133981123794
 30
0.0
 10
156.0186183799197
 20
193.1783400852667
 30
0.0
 10
155.9914593308504
 20
193.241458357995
 30
0.0
 10
155.9653614730555
 20
193.3021103970894
 30
0.0
 10
155.9352473349545
 20
193.3610784673976
 30
0.0
 10
155.9017227261898
 20
193.4174921212901
 30
0.0
 10
155.8695785537601
 20
193.4715828410606
 30
0.0
 10
155.834298992696
 20
193.5233251787493
 30
0.0
 10
155.7964535857681
 20
193.572267719639
 30
0.0
 10
155.7603615369755
 20
193.6189427779146
 30
0.0
 10
155.7219358835582
 20
193.6630714561249
 30
0.0
 10
155.6820217237624
 20
193.7041761572339
 30
0.0
 10
155.6442066558385
 20
193.7431191557183
 30
0.0
 10
155.6050555263015
 20
193.7793478764661
 30
0.0
 10
155.5656452931969
 20
193.8125199088439
 30
0.0
 10
155.5280916704961
 20
193.8441292115554
 30
0.0
 10
155.4903027818526
 20
193.8729630423681
 30
0.0
 10
155.4533941502781
 20
193.8989360102368
 30
0.0
 10
155.4168090248357
 20
193.9246813236514
 30
0.0
 10
155.3810887930884
 20
193.9476157055667
 30
0.0
 10
155.3469490855878
 20
193.9680800457003
 30
0.0
 10
155.3109839655641
 20
193.9896385915401
 30
0.0
 10
155.2767729061623
 20
194.0084558931169
 30
0.0
 10
155.2442647128094
 20
194.0253063348398
 30
0.0
 10
155.2073694446223
 20
194.0444307924709
 30
0.0
 10
155.1726676689737
 20
194.0610217023713
 30
0.0
 10
155.1393023416622
 20
194.0761436817005
 30
0.0
 10
155.0974848154098
 20
194.0950964035391
 30
0.0
 10
155.0577666063967
 20
194.1117417026468
 30
0.0
 10
155.0184843011548
 20
194.1273840538826
 30
0.0
 10
154.9618863013704
 20
194.1499215752022
 30
0.0
 10
154.9061931979865
 20
194.1703770683791
 30
0.0
 10
154.8485562981998
 20
194.1904478492019
 30
0.0
 10
154.7798518482637
 20
194.214372660587
 30
0.0
 10
154.7083854262573
 20
194.2377508279019
 30
0.0
 10
154.6321732005319
 20
194.2615194143352
 30
0.0
 10
154.559949739864
 20
194.2840440099767
 30
0.0
 10
154.4834642436179
 20
194.306919226982
 30
0.0
 10
154.4023226822204
 20
194.3304505211316
 30
0.0
 10
154.3285037874628
 20
194.3518582201754
 30
0.0
 10
154.2508312858611
 20
194.3738089235139
 30
0.0
 10
154.1692607710786
 20
194.3963978381717
 30
0.0
 10
154.0837783794263
 20
194.4200700493246
 30
0.0
 10
153.9940151356492
 20
194.4444431529978
 30
0.0
 10
153.899109248834
 20
194.4698068856138
 30
0.0
 10
153.8048339477644
 20
194.4950020932966
 30
0.0
 10
153.7054841154279
 20
194.5211748095303
 30
0.0
 10
153.6067659401831
 20
194.5467254662648
 30
0.0
 10
153.5358863701665
 20
194.5650708171436
 30
0.0
 10
153.4653324338071
 20
194.5830954821433
 30
0.0
 10
153.3817775018309
 20
194.6044096230087
 30
0.0
  0
SPLINE
  5
6E
330
4E
100
AcDbEntity
  8
MEGA_002077
  6
CONTINUOUS
 62
     7
 48
25.4
100
AcDbSpline
210
0.0
220
0.0
230
1.0
 70
     8
 71
     3
 72
    62
 73
    58
 74
     0
 42
0.0000000001
 43
0.0000000001
 40
0.0
 40
0.0
 40
0.0
 40
0.0
 40
0.0061893312489126
 40
0.0061893312489126
 40
0.0061893312489126
 40
0.0807857620945132
 40
0.0807857620945132
 40
0.0807857620945132
 40
0.1559747174195877
 40
0.1559747174195877
 40
0.1559747174195877
 40
0.2316948635271146
 40
0.2316948635271146
 40
0.2316948635271146
 40
0.3082638374174567
 40
0.3082638374174567
 40
0.3082638374174567
 40
0.3872489033911769
 40
0.3872489033911769
 40
0.3872489033911769
 40
0.469114902621252
 40
0.469114902621252
 40
0.469114902621252
 40
0.5653992892043566
 40
0.5653992892043566
 40
0.5653992892043566
 40
0.6174783952735361
 40
0.6174783952735361
 40
0.6174783952735361
 40
0.654799573905773
 40
0.654799573905773
 40
0.654799573905773
 40
0.6904028030912187
 40
0.6904028030912187
 40
0.6904028030912187
 40
0.7258153580499516
 40
0.7258153580499516
 40
0.7258153580499516
 40
0.7628107238495281
 40
0.7628107238495281
 40
0.7628107238495281
 40
0.8023778086874771
 40
0.8023778086874771
 40
0.8023778086874771
 40
0.8438740549519129
 40
0.8438740549519129
 40
0.8438740549519129
 40
0.886588763064443
 40
0.886588763064443
 40
0.886588763064443
 40
0.9300794125117421
 40
0.9300794125117421
 40
0.9300794125117421
 40
0.9740432099706607
 40
0.9740432099706607
 40
0.9740432099706607
 40
1.0
 40
1.0
 40
1.0
 40
1.0
 10
119.0127837063613
 20
194.6446778252804
 30
0.0
 10
119.0026312844914
 20
194.6421501924443
 30
0.0
 10
118.9938953778335
 20
194.6399749048546
 30
0.0
 10
118.9851468731489
 20
194.6377921626674
 30
0.0
 10
118.8797062046077
 20
194.6114848331554
 30
0.0
 10
118.772435535721
 20
194.5840946423043
 30
0.0
 10
118.6699104944742
 20
194.5576878230109
 30
0.0
 10
118.5665710899126
 20
194.5310712525714
 30
0.0
 10
118.468053002084
 20
194.505453737706
 30
0.0
 10
118.3731471323594
 20
194.4803675138032
 30
0.0
 10
118.2775707768835
 20
194.4551040621302
 30
0.0
 10
118.1856578585977
 20
194.430379434807
 30
0.0
 10
118.0981279435858
 20
194.4063618915553
 30
0.0
 10
118.0096168125105
 20
194.3820751100753
 30
0.0
 10
117.9255875030075
 20
194.3585113544401
 30
0.0
 10
117.8460237190818
 20
194.3355374701408
 30
0.0
 10
117.7639493434803
 20
194.3118386574905
 30
0.0
 10
117.6866267541396
 20
194.288767529636
 30
0.0
 10
117.6136443199809
 20
194.266080227068
 30
0.0
 10
117.5379998949875
 20
194.2425654186461
 30
0.0
 10
117.4670180083939
 20
194.2194629457424
 30
0.0
 10
117.3990661603315
 20
194.196065454037
 30
0.0
 10
117.3191465103008
 20
194.1685471539169
 30
0.0
 10
117.2434181989273
 20
194.140620765353
 30
0.0
 10
117.163855456376
 20
194.1073296735845
 30
0.0
 10
117.1208208932913
 20
194.0893229088233
 30
0.0
 10
117.0766645280942
 20
194.0697466451956
 30
0.0
 10
117.0290098278109
 20
194.0463853302418
 30
0.0
 10
116.9948592880612
 20
194.0296440327373
 30
0.0
 10
116.9589121744985
 20
194.010958917981
 30
0.0
 10
116.9207296592368
 20
193.9892537630433
 30
0.0
 10
116.88430474203
 20
193.9685477287198
 30
0.0
 10
116.8458454842761
 20
193.9450932889541
 30
0.0
 10
116.8060073798534
 20
193.9182513521251
 30
0.0
 10
116.7663826296665
 20
193.8915531681429
 30
0.0
 10
116.7253937621774
 20
193.8615036736346
 30
0.0
 10
116.6844604275223
 20
193.8281114076061
 30
0.0
 10
116.6416975234978
 20
193.7932266302146
 30
0.0
 10
116.5989952274749
 20
193.7546935840823
 30
0.0
 10
116.5577852008471
 20
193.7129314068845
 30
0.0
 10
116.5137104746073
 20
193.6682661475339
 30
0.0
 10
116.4713426979304
 20
193.6199072093613
 30
0.0
 10
116.4318223114346
 20
193.5684898214005
 30
0.0
 10
116.3903750403706
 20
193.514565490057
 30
0.0
 10
116.3520595871882
 20
193.4572771983403
 30
0.0
 10
116.3175836887157
 20
193.3972237988963
 30
0.0
 10
116.2820954681479
 20
193.3354070405306
 30
0.0
 10
116.2506755958309
 20
193.2706604056465
 30
0.0
 10
116.2241427481167
 20
193.2041022863116
 30
0.0
 10
116.1971279134201
 20
193.1363350940779
 30
0.0
 10
116.1751792681656
 20
193.0666900059576
 30
0.0
 10
116.1575547354618
 20
192.9945786998169
 30
0.0
 10
116.1397384601027
 20
192.9216828728298
 30
0.0
 10
116.1263408957661
 20
192.8462668744497
 30
0.0
 10
116.1216811037076
 20
192.7744720869358
 30
0.0
 10
116.118929902696
 20
192.7320835233355
 30
0.0
 10
116.119224578206
 20
192.6909572678848
 30
0.0
 10
116.1198950149009
 20
192.6425791948957
 30
0.0
  0
LINE
  5
6F
330
4E
100
AcDbEntity
  8
MEGA_002077
  6
CONTINUOUS
 62
     7
 48
25.4
100
AcDbLine
 10
146.1900466025
 20
196.3104715505
 30
0.0
 11
145.9397823345
 21
196.3697020384
 31
0.0
  0
ARC
  5
70
330
4E
100
AcDbEntity
  8
MEGA_002077
  6
HIDDEN2
 62
     7
 48
25.4
100
AcDbCircle
 10
136.2468099943
 20
189.9766728172
 30
0.0
 40
8.713892203200004
100
AcDbArc
 50
61.9199461297
 51
63.374051485
  0
LINE
  5
71
330
4E
100
AcDbEntity
  8
MEGA_002077
  6
CONTINUOUS
 62
     7
 48
25.4
100
AcDbLine
 10
140.1520627165
 20
197.7664686108
 30
0.0
 11
136.1176227785
 21
198.7219938593
 31
0.0
  0
ARC
  5
72
330
4E
100
AcDbEntity
  8
MEGA_002077
  6
CONTINUOUS
 62
     7
 48
25.4
100
AcDbCircle
 10
136.115341405
 20
189.7225341845
 30
0.0
 40
9.000000000000002
100
AcDbArc
 50
63.3509374762
 51
116.6490625238
  0
LINE
  5
73
330
4E
100
AcDbEntity
  8
MEGA_002077
  6
CONTINUOUS
 62
     7
 48
25.4
100
AcDbLine
 10
126.4150259257
 20
196.3992061634
 30
0.0
 11
126.0406376701
 21
196.3104076448
 31
0.0
  0
LINE
  5
74
330
4E
100
AcDbEntity
  8
MEGA_002077
  6
CONTINUOUS
 62
     7
 48
25.4
100
AcDbLine
 10
136.1130612525
 20
180.7230742207
 30
0.0
 11
131.9147785454
 21
181.7174043355
 31
0.0
  0
LINE
  5
75
330
4E
100
AcDbEntity
  8
MEGA_002077
  6
CONTINUOUS
 62
     7
 48
25.4
100
AcDbLine
 10
136.1130600316
 20
198.7219938593
 30
0.0
 11
132.0786200936
 21
197.7664686108
 31
0.0
  0
ARC
  5
76
330
4E
100
AcDbEntity
  8
MEGA_002077
  6
HIDDEN2
 62
     7
 48
25.4
100
AcDbCircle
 10
136.115341405
 20
189.7225341846
 30
0.0
 40
9.000000000000002
100
AcDbArc
 50
116.6490625238
 51
118.0569398616
  0
ARC
  5
77
330
4E
100
AcDbEntity
  8
MEGA_002077
  6
CONTINUOUS
 62
     7
 48
25.4
100
AcDbCircle
 10
136.115341405
 20
189.7225341845
 30
0.0
 40
9.000000000000002
100
AcDbArc
 50
244.343339235
 51
295.656660765
  0
LINE
  5
78
330
4E
100
AcDbEntity
  8
MEGA_002077
  6
CONTINUOUS
 62
     7
 48
25.4
100
AcDbLine
 10
136.1176227785
 20
180.7230745098
 30
0.0
 11
136.1130612525
 21
180.7230742207
 31
0.0
  0
LINE
  5
79
330
4E
100
AcDbEntity
  8
MEGA_002077
  6
CONTINUOUS
 62
     7
 48
25.4
100
AcDbLine
 10
136.1176227785
 20
180.7230745098
 30
0.0
 11
140.3159042647
 21
181.7174043355
 31
0.0
  0
LINE
  5
7A
330
4E
100
AcDbEntity
  8
MEGA_002077
  6
CONTINUOUS
 62
     7
 48
25.4
100
AcDbLine
 10
136.1176227785
 20
198.7219938593
 30
0.0
 11
136.1130600316
 21
198.7219938593
 31
0.0
  0
SPLINE
  5
7B
330
4E
100
AcDbEntity
  8
MEGA_002077
  6
CONTINUOUS
 62
     7
 48
25.4
100
AcDbSpline
210
0.0
220
0.0
230
1.0
 70
     8
 71
     3
 72
     8
 73
     4
 74
     0
 42
0.0000000001
 43
0.0000000001
 40
0.0
 40
0.0
 40
0.0
 40
0.0
 40
1.0
 40
1.0
 40
1.0
 40
1.0
 10
151.4593253396252
 20
184.3747609494801
 30
0.0
 10
152.0599103743705
 20
184.5162667152748
 30
0.0
 10
152.6484090711467
 20
184.6576787027985
 30
0.0
 10
153.1651003525469
 20
184.7873569888446
 30
0.0
  0
ARC
  5
7D
330
4E
100
AcDbEntity
  8
STANDARD
  6
CONTINUOUS
 62
     7
 48
25.4
100
AcDbCircle
 10
136.1153414047
 20
189.7225314423
 30
0.0
 40
26.0000027296
100
AcDbArc
 50
84.4822662066
 51
95.517733792
  0
ENDBLK
  5
7F
330
4E
100
AcDbEntity
  8
0
100
AcDbBlockEnd
  0
BLOCK
  5
B9
330
80
100
AcDbEntity
  8
0
100
AcDbBlockBegin
  2
SE6
 70
     0
 71
     0
 10
0.0
 20
0.0
 30
0.0
  3
SE6
  1

  0
LINE
  5
82
330
80
100
AcDbEntity
  8
MEGA_001501
  6
CONTINUOUS
 62
     7
 48
25.4
100
AcDbLine
 10
111.5494373753
 20
90.2055068678
 30
0.0
 11
160.6812454348
 21
90.2055068678
 31
0.0
  0
LINE
  5
83
330
80
100
AcDbEntity
  8
MEGA_001501
  6
CONTINUOUS
 62
     7
 48
25.4
100
AcDbLine
 10
162.115341405
 20
96.7055068678
 30
0.0
 11
138.615341405
 21
96.7055068678
 31
0.0
  0
LINE
  5
84
330
80
100
AcDbEntity
  8
MEGA_001501
  6
CONTINUOUS
 62
     7
 48
25.4
100
AcDbLine
 10
133.615341405
 20
96.7055068678
 30
0.0
 11
110.115341405
 21
96.7055068678
 31
0.0
  0
LINE
  5
85
330
80
100
AcDbEntity
  8
MEGA_001501
  6
CONTINUOUS
 62
     7
 48
25.4
100
AcDbLine
 10
110.115341405
 20
96.7055068678
 30
0.0
 11
110.3001988415
 21
91.4118824969
 31
0.0
  0
ARC
  5
86
330
80
100
AcDbEntity
  8
MEGA_001501
  6
CONTINUOUS
 62
     7
 48
25.4
100
AcDbCircle
 10
111.5494373753
 20
91.4555068678
 30
0.0
 40
1.25
100
AcDbArc
 50
182.0
 51
270.0
  0
LINE
  5
87
330
80
100
AcDbEntity
  8
MEGA_001501
  6
CONTINUOUS
 62
     7
 48
25.4
100
AcDbLine
 10
161.9304839686
 20
91.4118824969
 30
0.0
 11
162.115341405
 21
96.7055068678
 31
0.0
  0
ARC
  5
88
330
80
100
AcDbEntity
  8
MEGA_001501
  6
CONTINUOUS
 62
     7
 48
25.4
100
AcDbCircle
 10
160.6812454348
 20
91.4555068678
 30
0.0
 40
1.25
100
AcDbArc
 50
270.0
 51
358.0
  0
LINE
  5
8A
330
80
100
AcDbEntity
  8
MEGA_001422
  6
CONTINUOUS
 62
     7
 48
25.4
100
AcDbLine
 10
147.0984903789
 20
97.1880571195
 30
0.0
 11
146.9744396098
 21
100.7404063645
 31
0.0
  0
LINE
  5
8B
330
80
100
AcDbEntity
  8
MEGA_001422
  6
CONTINUOUS
 62
     7
 48
25.4
100
AcDbLine
 10
157.9578931702
 20
101.7055068678
 30
0.0
 11
152.2727896399
 21
101.7055068678
 31
0.0
  0
LINE
  5
8C
330
80
100
AcDbEntity
  8
MEGA_001422
  6
CONTINUOUS
 62
     7
 48
25.4
100
AcDbLine
 10
119.9578931702
 20
101.7055068678
 30
0.0
 11
114.2727896399
 21
101.7055068678
 31
0.0
  0
LINE
  5
8D
330
80
100
AcDbEntity
  8
MEGA_001422
  6
CONTINUOUS
 62
     7
 48
25.4
100
AcDbLine
 10
125.2562432003
 20
100.7404063645
 30
0.0
 11
125.1321924312
 21
97.1880571195
 31
0.0
  0
LINE
  5
8E
330
80
100
AcDbEntity
  8
MEGA_001422
  6
CONTINUOUS
 62
     7
 48
25.4
100
AcDbLine
 10
158.5984903789
 20
97.1880571195
 30
0.0
 11
158.4575885837
 21
101.2229566162
 31
0.0
  0
LINE
  5
8F
330
80
100
AcDbEntity
  8
MEGA_001422
  6
CONTINUOUS
 62
     7
 48
25.4
100
AcDbLine
 10
151.7730942264
 20
101.2229566162
 30
0.0
 11
151.6321924312
 21
97.1880571195
 31
0.0
  0
LINE
  5
90
330
80
100
AcDbEntity
  8
MEGA_001422
  6
CONTINUOUS
 62
     7
 48
25.4
100
AcDbLine
 10
120.5984903789
 20
97.1880571195
 30
0.0
 11
120.4575885837
 21
101.2229566162
 31
0.0
  0
LINE
  5
91
330
80
100
AcDbEntity
  8
MEGA_001422
  6
CONTINUOUS
 62
     7
 48
25.4
100
AcDbLine
 10
113.7730942264
 20
101.2229566162
 30
0.0
 11
113.6321924312
 21
97.1880571195
 31
0.0
  0
ARC
  5
92
330
80
100
AcDbEntity
  8
MEGA_001422
  6
CONTINUOUS
 62
     7
 48
25.4
100
AcDbCircle
 10
114.2727896399
 20
101.2055068678
 30
0.0
 40
0.5
100
AcDbArc
 50
90.0
 51
178.0
  0
ARC
  5
93
330
80
100
AcDbEntity
  8
MEGA_001422
  6
CONTINUOUS
 62
     7
 48
25.4
100
AcDbCircle
 10
121.0981857924
 20
97.2055068678
 30
0.0
 40
0.5
100
AcDbArc
 50
182.0
 51
270.0
  0
ARC
  5
94
330
80
100
AcDbEntity
  8
MEGA_001422
  6
CONTINUOUS
 62
     7
 48
25.4
100
AcDbCircle
 10
152.2727896399
 20
101.2055068678
 30
0.0
 40
0.5
100
AcDbArc
 50
90.0
 51
178.0
  0
ARC
  5
95
330
80
100
AcDbEntity
  8
MEGA_001422
  6
CONTINUOUS
 62
     7
 48
25.4
100
AcDbCircle
 10
159.0981857924
 20
97.2055068678
 30
0.0
 40
0.5
100
AcDbArc
 50
182.0
 51
270.0
  0
ARC
  5
96
330
80
100
AcDbEntity
  8
MEGA_001422
  6
CONTINUOUS
 62
     7
 48
25.4
100
AcDbCircle
 10
147.5981857924
 20
97.2055068678
 30
0.0
 40
0.5
100
AcDbArc
 50
182.0
 51
270.0
  0
ARC
  5
97
330
80
100
AcDbEntity
  8
MEGA_001422
  6
CONTINUOUS
 62
     7
 48
25.4
100
AcDbCircle
 10
119.9578931702
 20
101.2055068678
 30
0.0
 40
0.5
100
AcDbArc
 50
2.0
 51
90.0
  0
ARC
  5
98
330
80
100
AcDbEntity
  8
MEGA_001422
  6
CONTINUOUS
 62
     7
 48
25.4
100
AcDbCircle
 10
113.1324970176
 20
97.2055068678
 30
0.0
 40
0.5
100
AcDbArc
 50
270.0
 51
358.0
  0
ARC
  5
99
330
80
100
AcDbEntity
  8
MEGA_001422
  6
CONTINUOUS
 62
     7
 48
25.4
100
AcDbCircle
 10
157.9578931702
 20
101.2055068678
 30
0.0
 40
0.5
100
AcDbArc
 50
2.0
 51
90.0
  0
ARC
  5
9A
330
80
100
AcDbEntity
  8
MEGA_001422
  6
CONTINUOUS
 62
     7
 48
25.4
100
AcDbCircle
 10
151.1324970176
 20
97.2055068678
 30
0.0
 40
0.5
100
AcDbArc
 50
270.0
 51
358.0
  0
ARC
  5
9B
330
80
100
AcDbEntity
  8
MEGA_001422
  6
CONTINUOUS
 62
     7
 48
25.4
100
AcDbCircle
 10
124.6324970176
 20
97.2055068678
 30
0.0
 40
0.5
100
AcDbArc
 50
270.0
 51
358.0
  0
LINE
  5
9C
330
80
100
AcDbEntity
  8
MEGA_001422
  6
CONTINUOUS
 62
     7
 48
25.4
100
AcDbLine
 10
125.2201037135
 20
90.2055068678
 30
0.0
 11
125.2201143499
 21
90.2052022813
 31
0.0
  0
ARC
  5
9D
330
80
100
AcDbEntity
  8
MEGA_001422
  6
CONTINUOUS
 62
     7
 48
25.4
100
AcDbCircle
 10
145.9750487828
 20
100.7055068678
 30
0.0
 40
1.0
100
AcDbArc
 50
2.0
 51
90.0
  0
LINE
  5
9E
330
80
100
AcDbEntity
  8
MEGA_001422
  6
CONTINUOUS
 62
     7
 48
25.4
100
AcDbLine
 10
147.0105684602
 20
90.2052022813
 30
0.0
 11
147.0105790966
 21
90.2055068678
 31
0.0
  0
ARC
  5
9F
330
80
100
AcDbEntity
  8
MEGA_001422
  6
CONTINUOUS
 62
     7
 48
25.4
100
AcDbCircle
 10
126.2556340273
 20
100.7055068678
 30
0.0
 40
1.0
100
AcDbArc
 50
90.0
 51
178.0
  0
LINE
  5
A0
330
80
100
AcDbEntity
  8
MEGA_001422
  6
CONTINUOUS
 62
     7
 48
25.4
100
AcDbLine
 10
125.2201143499
 20
90.2052022813
 30
0.0
 11
125.7198097634
 21
89.7055068678
 31
0.0
  0
LINE
  5
A1
330
80
100
AcDbEntity
  8
MEGA_001422
  6
CONTINUOUS
 62
     7
 48
25.4
100
AcDbLine
 10
146.5108730467
 20
89.7055068678
 30
0.0
 11
147.0105684602
 21
90.2052022813
 31
0.0
  0
LINE
  5
A2
330
80
100
AcDbEntity
  8
MEGA_001422
  6
CONTINUOUS
 62
     7
 48
25.4
100
AcDbLine
 10
126.2556340273
 20
101.7055068678
 30
0.0
 11
145.9750487828
 21
101.7055068678
 31
0.0
  0
LINE
  5
A3
330
80
100
AcDbEntity
  8
MEGA_001422
  6
CONTINUOUS
 62
     7
 48
25.4
100
AcDbLine
 10
125.7198097634
 20
89.7055068678
 30
0.0
 11
146.5108730467
 21
89.7055068678
 31
0.0
  0
LINE
  5
A4
330
80
100
AcDbEntity
  8
MEGA_001422
  6
CONTINUOUS
 62
     7
 48
25.4
100
AcDbLine
 10
125.2201143499
 20
90.2052022813
 30
0.0
 11
147.0105684602
 21
90.2052022813
 31
0.0
  0
LINE
  5
A5
330
80
100
AcDbEntity
  8
MEGA_001422
  6
CONTINUOUS
 62
     7
 48
25.4
100
AcDbLine
 10
138.615341405
 20
96.7055068678
 30
0.0
 11
138.365341405
 21
96.7055068678
 31
0.0
  0
LINE
  5
A6
330
80
100
AcDbEntity
  8
MEGA_001422
  6
CONTINUOUS
 62
     7
 48
25.4
100
AcDbLine
 10
133.865341405
 20
96.7055068678
 30
0.0
 11
133.615341405
 21
96.7055068678
 31
0.0
  0
LINE
  5
A7
330
80
100
AcDbEntity
  8
MEGA_001422
  6
CONTINUOUS
 62
     7
 48
25.4
100
AcDbLine
 10
133.865341405
 20
96.7055068678
 30
0.0
 11
138.365341405
 21
96.7055068678
 31
0.0
  0
ARC
  5
A8
330
80
100
AcDbEntity
  8
MEGA_002077
  6
CONTINUOUS
 62
     7
 48
25.4
100
AcDbCircle
 10
136.115341405
 20
83.7055068678
 30
0.0
 40
22.0
100
AcDbArc
 50
208.0724869359
 51
331.9275130641
  0
ARC
  5
A9
330
80
100
AcDbEntity
  8
MEGA_002077
  6
CONTINUOUS
 62
     7
 48
25.4
100
AcDbCircle
 10
121.115341405
 20
75.7055068678
 30
0.0
 40
5.0
100
AcDbArc
 50
90.0
 51
208.0724869359
  0
LINE
  5
AA
330
80
100
AcDbEntity
  8
MEGA_002077
  6
CONTINUOUS
 62
     7
 48
25.4
100
AcDbLine
 10
121.115341405
 20
80.7055068678
 30
0.0
 11
126.3828238069
 21
80.7055068678
 31
0.0
  0
ARC
  5
AB
330
80
100
AcDbEntity
  8
MEGA_002077
  6
CONTINUOUS
 62
     7
 48
25.4
100
AcDbCircle
 10
141.256369137
 20
81.9232507192
 30
0.0
 40
0.9306787911000072
100
AcDbArc
 50
122.8047003289
 51
167.2941989967
  0
LINE
  5
AC
330
80
100
AcDbEntity
  8
MEGA_002077
  6
CONTINUOUS
 62
     7
 48
25.4
100
AcDbLine
 10
127.115341405
 20
89.7055068678
 30
0.0
 11
127.115341405
 21
82.7055068678
 31
0.0
  0
LINE
  5
AD
330
80
100
AcDbEntity
  8
MEGA_002077
  6
CONTINUOUS
 62
     7
 48
25.4
100
AcDbLine
 10
145.115341405
 20
82.7055068678
 30
0.0
 11
145.115341405
 21
89.7055068678
 31
0.0
  0
ARC
  5
AE
330
80
100
AcDbEntity
  8
MEGA_002077
  6
CONTINUOUS
 62
     7
 48
25.4
100
AcDbCircle
 10
130.9743136069
 20
81.923250673
 30
0.0
 40
0.9306788657000027
100
AcDbArc
 50
12.705802884
 51
57.1952977904
  0
ARC
  5
AF
330
80
100
AcDbEntity
  8
MEGA_002077
  6
CONTINUOUS
 62
     7
 48
25.4
100
AcDbCircle
 10
125.115341405
 20
82.7055068678
 30
0.0
 40
2.0
100
AcDbArc
 50
270.0
 51
360.0
  0
ARC
  5
B0
330
80
100
AcDbEntity
  8
MEGA_002077
  6
CONTINUOUS
 62
     7
 48
25.4
100
AcDbCircle
 10
147.115341405
 20
82.7055068678
 30
0.0
 40
2.0
100
AcDbArc
 50
180.0
 51
270.0
  0
ARC
  5
B1
330
80
100
AcDbEntity
  8
MEGA_002077
  6
CONTINUOUS
 62
     7
 48
25.4
100
AcDbCircle
 10
146.0752017994
 20
80.6123926545
 30
0.0
 40
5.923870934799993
100
AcDbArc
 50
165.1767047852
 51
179.09936067
  0
LINE
  5
B2
330
80
100
AcDbEntity
  8
MEGA_002077
  6
HIDDEN2
 62
     7
 48
25.4
100
AcDbLine
 10
132.0786200936
 20
80.7055068678
 30
0.0
 11
131.9147785454
 21
80.7055068678
 31
0.0
  0
LINE
  5
B3
330
80
100
AcDbEntity
  8
MEGA_002077
  6
CONTINUOUS
 62
     7
 48
25.4
100
AcDbLine
 10
140.1520627165
 20
80.7055068678
 30
0.0
 11
132.0786200936
 21
80.7055068678
 31
0.0
  0
ARC
  5
B4
330
80
100
AcDbEntity
  8
MEGA_002077
  6
CONTINUOUS
 62
     7
 48
25.4
100
AcDbCircle
 10
126.1615559417
 20
80.6132315111
 30
0.0
 40
5.917783615400012
100
AcDbArc
 50
0.8934430705
 51
14.8304914743
  0
LINE
  5
B5
330
80
100
AcDbEntity
  8
MEGA_002077
  6
HIDDEN2
 62
     7
 48
25.4
100
AcDbLine
 10
140.1520627165
 20
80.7055068678
 30
0.0
 11
140.3159042647
 21
80.7055068678
 31
0.0
  0
ARC
  5
B6
330
80
100
AcDbEntity
  8
MEGA_002077
  6
CONTINUOUS
 62
     7
 48
25.4
100
AcDbCircle
 10
136.115341405
 20
80.7055068678
 30
0.0
 40
0.0022815117999926
100
AcDbArc
 50
180.0
 51
360.0
  0
ARC
  5
B7
330
80
100
AcDbEntity
  8
MEGA_002077
  6
CONTINUOUS
 62
     7
 48
25.4
100
AcDbCircle
 10
151.115341405
 20
75.7055068678
 30
0.0
 40
5.0
100
AcDbArc
 50
331.9275130641
 51
90.0
  0
LINE
  5
B8
330
80
100
AcDbEntity
  8
MEGA_002077
  6
CONTINUOUS
 62
     7
 48
25.4
100
AcDbLine
 10
145.8478590032
 20
80.7055068678
 30
0.0
 11
151.115341405
 21
80.7055068678
 31
0.0
  0
ENDBLK
  5
BA
330
80
100
AcDbEntity
  8
0
100
AcDbBlockEnd
  0
BLOCK
  5
F1
330
BB
100
AcDbEntity
  8
0
100
AcDbBlockBegin
  2
SE7
 70
     0
 71
     0
 10
0.0
 20
0.0
 30
0.0
  3
SE7
  1

  0
LINE
  5
BD
330
BB
100
AcDbEntity
  8
MEGA_001501
  6
CONTINUOUS
 62
     7
 48
25.4
100
AcDbLine
 10
63.5774917783
 20
163.907391621
 30
0.0
 11
68.8711161491
 21
163.7225341845
 31
0.0
  0
LINE
  5
BE
330
BB
100
AcDbEntity
  8
MEGA_001501
  6
CONTINUOUS
 62
     7
 48
25.4
100
AcDbLine
 10
66.8711161491
 20
215.6526926456
 30
0.0
 11
63.5774917783
 21
215.5376767481
 31
0.0
  0
ARC
  5
BF
330
BB
100
AcDbEntity
  8
MEGA_001501
  6
CONTINUOUS
 62
     7
 48
25.4
100
AcDbCircle
 10
63.6211161491
 20
214.2884382143
 30
0.0
 40
1.250000000000007
100
AcDbArc
 50
92.0
 51
180.0
  0
ARC
  5
C0
330
BB
100
AcDbEntity
  8
MEGA_001501
  6
CONTINUOUS
 62
     7
 48
25.4
100
AcDbCircle
 10
63.6211161491
 20
165.1566301548
 30
0.0
 40
1.250000000000007
100
AcDbArc
 50
180.0
 51
268.0
  0
LINE
  5
C1
330
BB
100
AcDbEntity
  8
MEGA_001501
  6
CONTINUOUS
 62
     7
 48
25.4
100
AcDbLine
 10
68.8711161491
 20
163.7225341845
 30
0.0
 11
68.8711161491
 21
215.6020627738
 31
0.0
  0
LINE
  5
C2
330
BB
100
AcDbEntity
  8
MEGA_001501
  6
CONTINUOUS
 62
     7
 48
25.4
100
AcDbLine
 10
62.3711161491
 20
165.1566301548
 30
0.0
 11
62.3711161491
 21
214.2884382143
 31
0.0
  0
LINE
  5
C3
330
BB
100
AcDbEntity
  8
MEGA_001422
  6
CONTINUOUS
 62
     7
 48
25.4
100
AcDbLine
 10
69.3536664008
 20
178.7393852107
 30
0.0
 11
72.9060156458
 21
178.8634359798
 31
0.0
  0
LINE
  5
C4
330
BB
100
AcDbEntity
  8
MEGA_001422
  6
CONTINUOUS
 62
     7
 48
25.4
100
AcDbLine
 10
72.9060156458
 20
200.5816323893
 30
0.0
 11
69.3536664008
 21
200.7056831584
 31
0.0
  0
ARC
  5
C5
330
BB
100
AcDbEntity
  8
MEGA_001422
  6
CONTINUOUS
 62
     7
 48
25.4
100
AcDbCircle
 10
69.3711161491
 20
178.2396897971
 30
0.0
 40
0.5
100
AcDbArc
 50
92.0
 51
180.0
  0
ARC
  5
C6
330
BB
100
AcDbEntity
  8
MEGA_001422
  6
CONTINUOUS
 62
     7
 48
25.4
100
AcDbCircle
 10
73.3711161491
 20
192.5650859497
 30
0.0
 40
0.5
100
AcDbArc
 50
0.0
 51
88.0
  0
ARC
  5
C7
330
BB
100
AcDbEntity
  8
MEGA_001422
  6
CONTINUOUS
 62
     7
 48
25.4
100
AcDbCircle
 10
69.3711161491
 20
185.7396897971
 30
0.0
 40
0.5
100
AcDbArc
 50
92.0
 51
180.0
  0
ARC
  5
C8
330
BB
100
AcDbEntity
  8
MEGA_001422
  6
CONTINUOUS
 62
     7
 48
25.4
100
AcDbCircle
 10
69.3711161491
 20
201.2053785719
 30
0.0
 40
0.5
100
AcDbArc
 50
180.0
 51
268.0
  0
ARC
  5
C9
330
BB
100
AcDbEntity
  8
MEGA_001422
  6
CONTINUOUS
 62
     7
 48
25.4
100
AcDbCircle
 10
73.3711161491
 20
186.8799824194
 30
0.0
 40
0.5
100
AcDbArc
 50
272.0
 51
360.0
  0
ARC
  5
CA
330
BB
100
AcDbEntity
  8
MEGA_001422
  6
CONTINUOUS
 62
     7
 48
25.4
100
AcDbCircle
 10
69.3711161491
 20
193.7053785719
 30
0.0
 40
0.5
100
AcDbArc
 50
180.0
 51
268.0
  0
LINE
  5
CB
330
BB
100
AcDbEntity
  8
MEGA_001422
  6
CONTINUOUS
 62
     7
 48
25.4
100
AcDbLine
 10
62.3711161491
 20
200.6177718761
 30
0.0
 11
62.3708115626
 21
200.6177612397
 31
0.0
  0
ARC
  5
CC
330
BB
100
AcDbEntity
  8
MEGA_001422
  6
CONTINUOUS
 62
     7
 48
25.4
100
AcDbCircle
 10
72.8711161491
 20
179.8628268068
 30
0.0
 40
1.0
100
AcDbArc
 50
272.0
 51
360.0
  0
LINE
  5
CD
330
BB
100
AcDbEntity
  8
MEGA_001422
  6
CONTINUOUS
 62
     7
 48
25.4
100
AcDbLine
 10
62.3708115626
 20
178.8273071294
 30
0.0
 11
62.3711161491
 21
178.827296493
 31
0.0
  0
ARC
  5
CE
330
BB
100
AcDbEntity
  8
MEGA_001422
  6
CONTINUOUS
 62
     7
 48
25.4
100
AcDbCircle
 10
72.8711161491
 20
199.5822415623
 30
0.0
 40
1.0
100
AcDbArc
 50
0.0
 51
88.0
  0
LINE
  5
CF
330
BB
100
AcDbEntity
  8
MEGA_001422
  6
CONTINUOUS
 62
     7
 48
25.4
100
AcDbLine
 10
73.8711161491
 20
186.8799824194
 30
0.0
 11
73.8711161491
 21
192.5650859497
 31
0.0
  0
LINE
  5
D0
330
BB
100
AcDbEntity
  8
MEGA_001422
  6
CONTINUOUS
 62
     7
 48
25.4
100
AcDbLine
 10
62.3708115626
 20
200.6177612397
 30
0.0
 11
61.8711161491
 21
200.1180658262
 31
0.0
  0
LINE
  5
D1
330
BB
100
AcDbEntity
  8
MEGA_001422
  6
CONTINUOUS
 62
     7
 48
25.4
100
AcDbLine
 10
61.8711161491
 20
179.3270025429
 30
0.0
 11
62.3708115626
 21
178.8273071294
 31
0.0
  0
LINE
  5
D2
330
BB
100
AcDbEntity
  8
MEGA_001422
  6
CONTINUOUS
 62
     7
 48
25.4
100
AcDbLine
 10
69.3536664008
 20
186.2393852107
 30
0.0
 11
73.3885658975
 21
186.3802870059
 31
0.0
  0
LINE
  5
D3
330
BB
100
AcDbEntity
  8
MEGA_001422
  6
CONTINUOUS
 62
     7
 48
25.4
100
AcDbLine
 10
73.3885658975
 20
193.0647813632
 30
0.0
 11
69.3536664008
 21
193.2056831584
 31
0.0
  0
LINE
  5
D4
330
BB
100
AcDbEntity
  8
MEGA_001422
  6
CONTINUOUS
 62
     7
 48
25.4
100
AcDbLine
 10
68.8711161491
 20
215.6249954576
 30
0.0
 11
68.8711161491
 21
215.6020627738
 31
0.0
  0
LINE
  5
D5
330
BB
100
AcDbEntity
  8
MEGA_001422
  6
CONTINUOUS
 62
     7
 48
25.4
100
AcDbLine
 10
73.8711161491
 20
179.8628268068
 30
0.0
 11
73.8711161491
 21
186.8799824194
 31
0.0
  0
LINE
  5
D6
330
BB
100
AcDbEntity
  8
MEGA_001422
  6
CONTINUOUS
 62
     7
 48
25.4
100
AcDbLine
 10
73.8711161491
 20
192.5650859497
 30
0.0
 11
73.8711161491
 21
199.5822415623
 31
0.0
  0
LINE
  5
D7
330
BB
100
AcDbEntity
  8
MEGA_001422
  6
CONTINUOUS
 62
     7
 48
25.4
100
AcDbLine
 10
61.8711161491
 20
179.3270025429
 30
0.0
 11
61.8711161491
 21
200.1180658262
 31
0.0
  0
LINE
  5
D8
330
BB
100
AcDbEntity
  8
MEGA_001422
  6
CONTINUOUS
 62
     7
 48
25.4
100
AcDbLine
 10
62.3708115626
 20
178.8273071294
 30
0.0
 11
62.3708115626
 21
200.6177612397
 31
0.0
  0
LINE
  5
D9
330
BB
100
AcDbEntity
  8
MEGA_001422
  6
CONTINUOUS
 62
     7
 48
25.4
100
AcDbLine
 10
68.8711161491
 20
215.7225341845
 30
0.0
 11
68.8711161491
 21
215.6249954576
 31
0.0
  0
SPLINE
  5
DA
330
BB
100
AcDbEntity
  8
MEGA_002077
  6
CONTINUOUS
 62
     7
 48
25.4
100
AcDbSpline
210
0.0
220
0.0
230
1.0
 70
    24
 71
     3
 72
     8
 73
     4
 74
     0
 42
0.0000000001
 43
0.0000000001
 40
0.0
 40
0.0
 40
0.0
 40
0.0
 40
1.0
 40
1.0
 40
1.0
 40
1.0
 10
35.02541656215127
 20
194.4959211274623
 30
0.0
 10
35.02541653214565
 20
194.4959211284159
 30
0.0
 10
35.02541972265006
 20
194.4959210011297
 30
0.0
 10
35.02542613392692
 20
194.4959207456026
 30
0.0
  0
SPLINE
  5
DB
330
BB
100
AcDbEntity
  8
MEGA_002077
  6
CONTINUOUS
 62
     7
 48
25.4
100
AcDbSpline
210
0.0
220
0.0
230
1.0
 70
    24
 71
     3
 72
     8
 73
     4
 74
     0
 42
0.0000000001
 43
0.0000000001
 40
0.0
 40
0.0
 40
0.0
 40
0.0
 40
1.0
 40
1.0
 40
1.0
 40
1.0
 10
33.87111613792826
 20
186.4087676728754
 30
0.0
 10
33.87111609154775
 20
186.4087676713345
 30
0.0
 10
33.87111889150758
 20
186.4087677778707
 30
0.0
 10
33.87112453805504
 20
186.4087679924856
 30
0.0
  0
SPLINE
  5
DC
330
BB
100
AcDbEntity
  8
MEGA_002077
  6
CONTINUOUS
 62
     7
 48
25.4
100
AcDbSpline
210
0.0
220
0.0
230
1.0
 70
    24
 71
     3
 72
    11
 73
     7
 74
     0
 42
0.0000000001
 43
0.0000000001
 40
0.0
 40
0.0
 40
0.0
 40
0.0
 40
0.7235938257727501
 40
0.7235938257727501
 40
0.7235938257727501
 40
1.0
 40
1.0
 40
1.0
 40
1.0
 10
33.87112473633815
 20
193.036300370433
 30
0.0
 10
33.87112059434545
 20
193.0363005275139
 30
0.0
 10
33.87111795248199
 20
193.0363006276534
 30
0.0
 10
33.87111681097303
 20
193.0363006708404
 30
0.0
 10
33.87111637492711
 20
193.0363006873374
 30
0.0
 10
33.87111615057718
 20
193.0363006957961
 30
0.0
 10
33.87111613792826
 20
193.0363006962163
 30
0.0
  0
LINE
  5
DD
330
BB
100
AcDbEntity
  8
MEGA_002077
  6
CONTINUOUS
 62
     7
 48
25.4
100
AcDbLine
 10
52.8711161491
 20
181.7174043355
 30
0.0
 11
52.8711161491
 21
181.6098910872
 31
0.0
  0
LINE
  5
DE
330
BB
100
AcDbEntity
  8
MEGA_002077
  6
CONTINUOUS
 62
     7
 48
25.4
100
AcDbLine
 10
61.8711161491
 20
198.7225341845
 30
0.0
 11
52.8711161491
 21
198.7225341845
 31
0.0
  0
LINE
  5
DF
330
BB
100
AcDbEntity
  8
MEGA_002077
  6
CONTINUOUS
 62
     7
 48
25.4
100
AcDbLine
 10
52.8688359966
 20
198.7219941484
 30
0.0
 11
35.0284060357
 21
194.4966291577
 31
0.0
  0
LINE
  5
E0
330
BB
100
AcDbEntity
  8
MEGA_002077
  6
CONTINUOUS
 62
     7
 48
25.4
100
AcDbLine
 10
52.8711161491
 20
180.7225341845
 30
0.0
 11
61.8711161491
 21
180.7225341845
 31
0.0
  0
LINE
  5
E1
330
BB
100
AcDbEntity
  8
MEGA_002077
  6
CONTINUOUS
 62
     7
 48
25.4
100
AcDbLine
 10
52.868708148
 20
180.7230742207
 30
0.0
 11
52.8711161491
 21
180.7230742207
 31
0.0
  0
LINE
  5
E2
330
BB
100
AcDbEntity
  8
MEGA_002077
  6
CONTINUOUS
 62
     7
 48
25.4
100
AcDbLine
 10
35.0284060357
 20
184.9484392114
 30
0.0
 11
52.8688359966
 21
180.7230742207
 31
0.0
  0
ARC
  5
E3
330
BB
100
AcDbEntity
  8
MEGA_002077
  6
CONTINUOUS
 62
     7
 48
25.4
100
AcDbCircle
 10
35.3700992653
 20
186.4068811265
 30
0.0
 40
1.496293504400001
100
AcDbArc
 50
179.9240949208
 51
256.7913922188
  0
ARC
  5
E4
330
BB
100
AcDbEntity
  8
MEGA_002077
  6
CONTINUOUS
 62
     7
 48
25.4
100
AcDbCircle
 10
35.3689987644
 20
193.042364294
 30
0.0
 40
1.492793450699999
100
AcDbArc
 50
103.1575907478
 51
180.2335821757
  0
LINE
  5
E5
330
BB
100
AcDbEntity
  8
MEGA_002077
  6
HIDDEN2
 62
     7
 48
25.4
100
AcDbLine
 10
52.8712448692
 20
198.7219941484
 30
0.0
 11
52.8711161491
 21
198.7219941484
 31
0.0
  0
LINE
  5
E6
330
BB
100
AcDbEntity
  8
MEGA_002077
  6
CONTINUOUS
 62
     7
 48
25.4
100
AcDbLine
 10
52.8711161491
 20
198.7219941484
 30
0.0
 11
52.868708148
 21
198.7219941484
 31
0.0
  0
LINE
  5
E7
330
BB
100
AcDbEntity
  8
MEGA_002077
  6
CONTINUOUS
 62
     7
 48
25.4
100
AcDbLine
 10
33.8711161491
 20
193.0362216641
 30
0.0
 11
33.8711161491
 21
186.408846705
 31
0.0
  0
LINE
  5
E8
330
BB
100
AcDbEntity
  8
MEGA_002077
  6
CONTINUOUS
 62
     7
 48
25.4
100
AcDbLine
 10
52.8711161491
 20
197.7664686108
 30
0.0
 11
52.8711161491
 21
198.7225341845
 31
0.0
  0
LINE
  5
E9
330
BB
100
AcDbEntity
  8
MEGA_002077
  6
CONTINUOUS
 62
     7
 48
25.4
100
AcDbLine
 10
52.8711161491
 20
181.6098910872
 30
0.0
 11
52.8711161491
 21
180.7225341845
 31
0.0
  0
LINE
  5
EA
330
BB
100
AcDbEntity
  8
MEGA_002077
  6
CONTINUOUS
 62
     7
 48
25.4
100
AcDbLine
 10
52.868836868
 20
180.7230742209
 30
0.0
 11
52.8711161491
 21
180.7230742207
 31
0.0
  0
LINE
  5
EB
330
BB
100
AcDbEntity
  8
MEGA_002077
  6
CONTINUOUS
 62
     7
 48
25.4
100
AcDbLine
 10
52.8711161491
 20
193.6106869884
 30
0.0
 11
52.8711161491
 21
185.8343813807
 31
0.0
  0
LINE
  5
EC
330
BB
100
AcDbEntity
  8
MEGA_002077
  6
CONTINUOUS
 62
     7
 48
25.4
100
AcDbLine
 10
52.8711161491
 20
198.7219938593
 30
0.0
 11
52.868836868
 21
198.7219941482
 31
0.0
  0
SPLINE
  5
ED
330
BB
100
AcDbEntity
  8
MEGA_002077
  6
CONTINUOUS
 62
     7
 48
25.4
100
AcDbSpline
210
0.0
220
0.0
230
1.0
 70
    24
 71
     3
 72
    11
 73
     7
 74
     0
 42
0.0000000001
 43
0.0000000001
 40
0.0
 40
0.0
 40
0.0
 40
0.0
 40
0.7309959846918606
 40
0.7309959846918606
 40
0.7309959846918606
 40
0.9999999999999999
 40
0.9999999999999999
 40
0.9999999999999999
 40
0.9999999999999999
 10
35.02542646616045
 20
184.9491476352232
 30
0.0
 10
35.02542163122481
 20
184.9491474429143
 30
0.0
 10
35.02541857048731
 20
184.949147321231
 30
0.0
 10
35.02541728424806
 20
184.9491472701889
 30
0.0
 10
35.02541681091642
 20
184.9491472514056
 30
0.0
 10
35.0254165702158
 20
184.9491472418858
 30
0.0
 10
35.02541656215127
 20
184.9491472416295
 30
0.0
  0
LINE
  5
EE
330
BB
100
AcDbEntity
  8
MEGA_002077
  6
CONTINUOUS
 62
     7
 48
25.4
100
AcDbLine
 10
52.8711161491
 20
185.8343813807
 30
0.0
 11
52.8711161491
 21
184.5963171386
 31
0.0
  0
LINE
  5
EF
330
BB
100
AcDbEntity
  8
MEGA_002077
  6
CONTINUOUS
 62
     7
 48
25.4
100
AcDbLine
 10
52.8711161491
 20
194.8487512305
 30
0.0
 11
52.8711161491
 21
193.6106869884
 31
0.0
  0
LINE
  5
F0
330
BB
100
AcDbEntity
  8
STANDARD
  6
CONTINUOUS
 62
     7
 48
25.4
100
AcDbLine
 10
66.8711161491
 20
215.5475568575
 30
0.0
 11
68.8711161491
 21
215.7225341845
 31
0.0
  0
ENDBLK
  5
F2
330
BB
100
AcDbEntity
  8
0
100
AcDbBlockEnd
  0
BLOCK
  5
FD
330
F3
100
AcDbEntity
  8
0
100
AcDbBlockBegin
  2
SE8
 70
     0
 71
     0
 10
0.0
 20
0.0
 30
0.0
  3
SE8
  1

  0
POLYLINE
  5
F5
330
F3
100
AcDbEntity
  8
DEFAULT
  6
CONTINUOUS
 62
     7
 48
25.4
100
AcDb2dPolyline
 66
     1
 10
0.0
 20
0.0
 30
0.0
 70
     1
  0
VERTEX
  5
13E
330
F5
100
AcDbEntity
  8
DEFAULT
  6
CONTINUOUS
 62
     7
100
AcDbVertex
100
AcDb2dVertex
 10
90.5030991803
 20
166.7225342106
 30
0.0
  0
VERTEX
  5
13F
330
F5
100
AcDbEntity
  8
DEFAULT
  6
CONTINUOUS
 62
     7
100
AcDbVertex
100
AcDb2dVertex
 10
90.003099176
 20
163.7225341845
 30
0.0
  0
VERTEX
  5
140
330
F5
100
AcDbEntity
  8
DEFAULT
  6
CONTINUOUS
 62
     7
100
AcDbVertex
100
AcDb2dVertex
 10
89.5030991716
 20
166.7225342106
 30
0.0
  0
VERTEX
  5
141
330
F5
100
AcDbEntity
  8
DEFAULT
  6
CONTINUOUS
 62
     7
100
AcDbVertex
100
AcDb2dVertex
 10
90.5030991803
 20
166.7225342106
 30
0.0
  0
SEQEND
  5
13D
330
F5
100
AcDbEntity
  8
DEFAULT
  6
CONTINUOUS
 62
     7
 48
25.4
  0
LINE
  5
F6
330
F3
100
AcDbEntity
  8
DEFAULT
  6
CONTINUOUS
 62
     7
 48
25.4
100
AcDbLine
 10
68.8711161491
 20
215.7225341845
 30
0.0
 11
91.503099189
 21
215.7225341845
 31
0.0
  0
LINE
  5
F7
330
F3
100
AcDbEntity
  8
DEFAULT
  6
CONTINUOUS
 62
     7
 48
25.4
100
AcDbLine
 10
68.8711161491
 20
163.7225341845
 30
0.0
 11
91.503099189
 21
163.7225341845
 31
0.0
  0
LINE
  5
F8
330
F3
100
AcDbEntity
  8
DEFAULT
  6
CONTINUOUS
 62
     7
 48
25.4
100
AcDbLine
 10
90.003099176
 20
215.7225341845
 30
0.0
 11
90.003099176
 21
163.7225331117
 31
0.0
  0
TEXT
  5
FA
330
F3
100
AcDbEntity
  8
DEFAULT
  6
CONTINUOUS
 62
     7
 48
25.4
100
AcDbText
 10
89.253099176
 20
189.7701120522
 30
0.0
 40
3.0
  1
52
 50
90.0
  7
SEACAD_SEISO_TTF
 11
86.253099176
 21
189.7701120522
 31
0.0
100
AcDbText
 73
     3
  0
TEXT
  5
FC
330
F3
100
AcDbEntity
  8
DEFAULT
  6
CONTINUOUS
 62
     7
 48
25.4
100
AcDbText
 10
89.253099176
 20
186.1295006985
 30
0.0
 40
3.0
  1
O
 50
90.0
  7
SEACAD_SEMECI1_TTF
 11
86.253099176
 21
186.1295006985
 31
0.0
100
AcDbText
 73
     3
  0
ENDBLK
  5
FE
330
F3
100
AcDbEntity
  8
0
100
AcDbBlockEnd
  0
BLOCK
  5
107
330
FF
100
AcDbEntity
  8
0
100
AcDbBlockBegin
  2
SE9
 70
     0
 71
     0
 10
0.0
 20
0.0
 30
0.0
  3
SE9
  1

  0
POLYLINE
  5
101
330
FF
100
AcDbEntity
  8
DEFAULT
  6
CONTINUOUS
 62
     7
 48
25.4
100
AcDb2dPolyline
 66
     1
 10
0.0
 20
0.0
 30
0.0
 70
     1
  0
VERTEX
  5
143
330
101
100
AcDbEntity
  8
DEFAULT
  6
CONTINUOUS
 62
     7
100
AcDbVertex
100
AcDb2dVertex
 10
178.5742177176
 20
181.6225360666
 30
0.0
  0
VERTEX
  5
144
330
101
100
AcDbEntity
  8
DEFAULT
  6
CONTINUOUS
 62
     7
100
AcDbVertex
100
AcDb2dVertex
 10
178.0742178444
 20
178.6225360186
 30
0.0
  0
VERTEX
  5
145
330
101
100
AcDbEntity
  8
DEFAULT
  6
CONTINUOUS
 62
     7
100
AcDbVertex
100
AcDb2dVertex
 10
177.5742177089
 20
181.6225360228
 30
0.0
  0
VERTEX
  5
146
330
101
100
AcDbEntity
  8
DEFAULT
  6
CONTINUOUS
 62
     7
100
AcDbVertex
100
AcDb2dVertex
 10
178.5742177176
 20
181.6225360666
 30
0.0
  0
SEQEND
  5
142
330
101
100
AcDbEntity
  8
DEFAULT
  6
CONTINUOUS
 62
     7
 48
25.4
  0
POLYLINE
  5
102
330
FF
100
AcDbEntity
  8
DEFAULT
  6
CONTINUOUS
 62
     7
 48
25.4
100
AcDb2dPolyline
 66
     1
 10
0.0
 20
0.0
 30
0.0
 70
     1
  0
VERTEX
  5
148
330
102
100
AcDbEntity
  8
DEFAULT
  6
CONTINUOUS
 62
     7
100
AcDbVertex
100
AcDb2dVertex
 10
178.5742170095
 20
197.8225360144
 30
0.0
  0
VERTEX
  5
149
330
102
100
AcDbEntity
  8
DEFAULT
  6
CONTINUOUS
 62
     7
100
AcDbVertex
100
AcDb2dVertex
 10
178.074216874
 20
200.8225360186
 30
0.0
  0
VERTEX
  5
14A
330
102
100
AcDbEntity
  8
DEFAULT
  6
CONTINUOUS
 62
     7
100
AcDbVertex
100
AcDb2dVertex
 10
177.5742170008
 20
197.8225359707
 30
0.0
  0
VERTEX
  5
14B
330
102
100
AcDbEntity
  8
DEFAULT
  6
CONTINUOUS
 62
     7
100
AcDbVertex
100
AcDb2dVertex
 10
178.5742170095
 20
197.8225360144
 30
0.0
  0
SEQEND
  5
147
330
102
100
AcDbEntity
  8
DEFAULT
  6
CONTINUOUS
 62
     7
 48
25.4
  0
LINE
  5
103
330
FF
100
AcDbEntity
  8
DEFAULT
  6
CONTINUOUS
 62
     7
 48
25.4
100
AcDbLine
 10
136.1153418902
 20
178.6225341845
 30
0.0
 11
179.5742178574
 21
178.6225360842
 31
0.0
  0
LINE
  5
104
330
FF
100
AcDbEntity
  8
DEFAULT
  6
CONTINUOUS
 62
     7
 48
25.4
100
AcDbLine
 10
136.1153409198
 20
200.8225341845
 30
0.0
 11
179.574216887
 21
200.8225360842
 31
0.0
  0
LINE
  5
105
330
FF
100
AcDbEntity
  8
DEFAULT
  6
CONTINUOUS
 62
     7
 48
25.4
100
AcDbLine
 10
178.0742178444
 20
178.6225360186
 30
0.0
 11
178.074216874
 21
200.8225355597
 31
0.0
  0
TEXT
  5
106
330
FF
100
AcDbEntity
  8
DEFAULT
  6
CONTINUOUS
 62
     7
 48
25.4
100
AcDbText
 10
177.3242173592
 20
186.6884448801
 30
0.0
 40
3.0
  1
22,2
 50
90.0
  7
SEACAD_SEISO_TTF
 11
174.3242173592
 21
186.6884448801
 31
0.0
100
AcDbText
 73
     3
  0
ENDBLK
  5
108
330
FF
100
AcDbEntity
  8
0
100
AcDbBlockEnd
  0
BLOCK
  5
112
330
109
100
AcDbEntity
  8
0
100
AcDbBlockBegin
  2
SE10
 70
     0
 71
     0
 10
0.0
 20
0.0
 30
0.0
  3
SE10
  1

  0
POLYLINE
  5
10B
330
109
100
AcDbEntity
  8
DEFAULT
  6
CONTINUOUS
 62
     7
 48
25.4
100
AcDb2dPolyline
 66
     1
 10
0.0
 20
0.0
 30
0.0
 70
     1
  0
VERTEX
  5
14D
330
10B
100
AcDbEntity
  8
DEFAULT
  6
CONTINUOUS
 62
     7
100
AcDbVertex
100
AcDb2dVertex
 10
120.1153414311
 20
128.0137983819
 30
0.0
  0
VERTEX
  5
14E
330
10B
100
AcDbEntity
  8
DEFAULT
  6
CONTINUOUS
 62
     7
100
AcDbVertex
100
AcDb2dVertex
 10
117.115341405
 20
127.5137983776
 30
0.0
  0
VERTEX
  5
14F
330
10B
100
AcDbEntity
  8
DEFAULT
  6
CONTINUOUS
 62
     7
100
AcDbVertex
100
AcDb2dVertex
 10
120.1153414311
 20
127.0137983732
 30
0.0
  0
VERTEX
  5
150
330
10B
100
AcDbEntity
  8
DEFAULT
  6
CONTINUOUS
 62
     7
100
AcDbVertex
100
AcDb2dVertex
 10
120.1153414311
 20
128.0137983819
 30
0.0
  0
SEQEND
  5
14C
330
10B
100
AcDbEntity
  8
DEFAULT
  6
CONTINUOUS
 62
     7
 48
25.4
  0
POLYLINE
  5
10C
330
109
100
AcDbEntity
  8
DEFAULT
  6
CONTINUOUS
 62
     7
 48
25.4
100
AcDb2dPolyline
 66
     1
 10
0.0
 20
0.0
 30
0.0
 70
     1
  0
VERTEX
  5
152
330
10C
100
AcDbEntity
  8
DEFAULT
  6
CONTINUOUS
 62
     7
100
AcDbVertex
100
AcDb2dVertex
 10
152.115341379
 20
128.0137983819
 30
0.0
  0
VERTEX
  5
153
330
10C
100
AcDbEntity
  8
DEFAULT
  6
CONTINUOUS
 62
     7
100
AcDbVertex
100
AcDb2dVertex
 10
155.115341405
 20
127.5137983776
 30
0.0
  0
VERTEX
  5
154
330
10C
100
AcDbEntity
  8
DEFAULT
  6
CONTINUOUS
 62
     7
100
AcDbVertex
100
AcDb2dVertex
 10
152.115341379
 20
127.0137983732
 30
0.0
  0
VERTEX
  5
155
330
10C
100
AcDbEntity
  8
DEFAULT
  6
CONTINUOUS
 62
     7
100
AcDbVertex
100
AcDb2dVertex
 10
152.115341379
 20
128.0137983819
 30
0.0
  0
SEQEND
  5
151
330
10C
100
AcDbEntity
  8
DEFAULT
  6
CONTINUOUS
 62
     7
 48
25.4
  0
LINE
  5
10D
330
109
100
AcDbEntity
  8
DEFAULT
  6
CONTINUOUS
 62
     7
 48
25.4
100
AcDbLine
 10
117.115341405
 20
125.8074198431
 30
0.0
 11
117.115341405
 21
129.0137983906
 31
0.0
  0
LINE
  5
10E
330
109
100
AcDbEntity
  8
DEFAULT
  6
CONTINUOUS
 62
     7
 48
25.4
100
AcDbLine
 10
155.115341405
 20
125.1248684294
 30
0.0
 11
155.115341405
 21
129.0137983906
 31
0.0
  0
LINE
  5
10F
330
109
100
AcDbEntity
  8
DEFAULT
  6
CONTINUOUS
 62
     7
 48
25.4
100
AcDbLine
 10
117.115341405
 20
127.5137983776
 30
0.0
 11
155.1153401832
 21
127.5137983776
 31
0.0
  0
TEXT
  5
110
330
109
100
AcDbEntity
  8
DEFAULT
  6
CONTINUOUS
 62
     7
 48
25.4
100
AcDbText
 10
136.1970101073
 20
128.2637983776
 30
0.0
 40
3.0
  1
38
  7
SEACAD_SEISO_TTF
 11
136.1970101073
 21
131.2637983776
 31
0.0
100
AcDbText
 73
     3
  0
TEXT
  5
111
330
109
100
AcDbEntity
  8
DEFAULT
  6
CONTINUOUS
 62
     7
 48
25.4
100
AcDbText
 10
132.5563987536
 20
128.2637983776
 30
0.0
 40
3.0
  1
O
  7
SEACAD_SEMECI1_TTF
 11
132.5563987536
 21
131.2637983776
 31
0.0
100
AcDbText
 73
     3
  0
ENDBLK
  5
113
330
109
100
AcDbEntity
  8
0
100
AcDbBlockEnd
  0
BLOCK
  5
11D
330
114
100
AcDbEntity
  8
0
100
AcDbBlockBegin
  2
SE11
 70
     0
 71
     0
 10
0.0
 20
0.0
 30
0.0
  3
SE11
  1

  0
POLYLINE
  5
116
330
114
100
AcDbEntity
  8
DEFAULT
  6
CONTINUOUS
 62
     7
 48
25.4
100
AcDb2dPolyline
 66
     1
 10
0.0
 20
0.0
 30
0.0
 70
     1
  0
VERTEX
  5
157
330
116
100
AcDbEntity
  8
DEFAULT
  6
CONTINUOUS
 62
     7
100
AcDbVertex
100
AcDb2dVertex
 10
110.615341379
 20
116.8654563387
 30
0.0
  0
VERTEX
  5
158
330
116
100
AcDbEntity
  8
DEFAULT
  6
CONTINUOUS
 62
     7
100
AcDbVertex
100
AcDb2dVertex
 10
113.615341405
 20
116.3654563344
 30
0.0
  0
VERTEX
  5
159
330
116
100
AcDbEntity
  8
DEFAULT
  6
CONTINUOUS
 62
     7
100
AcDbVertex
100
AcDb2dVertex
 10
110.615341379
 20
115.8654563301
 30
0.0
  0
VERTEX
  5
15A
330
116
100
AcDbEntity
  8
DEFAULT
  6
CONTINUOUS
 62
     7
100
AcDbVertex
100
AcDb2dVertex
 10
110.615341379
 20
116.8654563387
 30
0.0
  0
SEQEND
  5
156
330
116
100
AcDbEntity
  8
DEFAULT
  6
CONTINUOUS
 62
     7
 48
25.4
  0
POLYLINE
  5
117
330
114
100
AcDbEntity
  8
DEFAULT
  6
CONTINUOUS
 62
     7
 48
25.4
100
AcDb2dPolyline
 66
     1
 10
0.0
 20
0.0
 30
0.0
 70
     1
  0
VERTEX
  5
15C
330
117
100
AcDbEntity
  8
DEFAULT
  6
CONTINUOUS
 62
     7
100
AcDbVertex
100
AcDb2dVertex
 10
123.6153414311
 20
116.8654563387
 30
0.0
  0
VERTEX
  5
15D
330
117
100
AcDbEntity
  8
DEFAULT
  6
CONTINUOUS
 62
     7
100
AcDbVertex
100
AcDb2dVertex
 10
120.615341405
 20
116.3654563344
 30
0.0
  0
VERTEX
  5
15E
330
117
100
AcDbEntity
  8
DEFAULT
  6
CONTINUOUS
 62
     7
100
AcDbVertex
100
AcDb2dVertex
 10
123.6153414311
 20
115.8654563301
 30
0.0
  0
VERTEX
  5
15F
330
117
100
AcDbEntity
  8
DEFAULT
  6
CONTINUOUS
 62
     7
100
AcDbVertex
100
AcDb2dVertex
 10
123.6153414311
 20
116.8654563387
 30
0.0
  0
SEQEND
  5
15B
330
117
100
AcDbEntity
  8
DEFAULT
  6
CONTINUOUS
 62
     7
 48
25.4
  0
LINE
  5
118
330
114
100
AcDbEntity
  8
DEFAULT
  6
CONTINUOUS
 62
     7
 48
25.4
100
AcDbLine
 10
113.615341405
 20
96.7055068678
 30
0.0
 11
113.615341405
 21
117.8654563474
 31
0.0
  0
LINE
  5
119
330
114
100
AcDbEntity
  8
DEFAULT
  6
CONTINUOUS
 62
     7
 48
25.4
100
AcDbLine
 10
120.615341405
 20
96.7055068678
 30
0.0
 11
120.615341405
 21
117.8654563474
 31
0.0
  0
LINE
  5
11A
330
114
100
AcDbEntity
  8
DEFAULT
  6
CONTINUOUS
 62
     7
 48
25.4
100
AcDbLine
 10
102.7004941503
 20
116.3654563344
 30
0.0
 11
126.6153416733
 21
116.3654563344
 31
0.0
  0
TEXT
  5
11B
330
114
100
AcDbEntity
  8
DEFAULT
  6
CONTINUOUS
 62
     7
 48
25.4
100
AcDbText
 10
107.3911057269
 20
117.1154563344
 30
0.0
 40
3.0
  1
7
  7
SEACAD_SEISO_TTF
 11
107.3911057269
 21
120.1154563344
 31
0.0
100
AcDbText
 73
     3
  0
TEXT
  5
11C
330
114
100
AcDbEntity
  8
DEFAULT
  6
CONTINUOUS
 62
     7
 48
25.4
100
AcDbText
 10
103.7504943731
 20
117.1154563344
 30
0.0
 40
3.0
  1
O
  7
SEACAD_SEMECI1_TTF
 11
103.7504943731
 21
120.1154563344
 31
0.0
100
AcDbText
 73
     3
  0
ENDBLK
  5
11E
330
114
100
AcDbEntity
  8
0
100
AcDbBlockEnd
  0
BLOCK
  5
127
330
11F
100
AcDbEntity
  8
0
100
AcDbBlockBegin
  2
SE12
 70
     0
 71
     0
 10
0.0
 20
0.0
 30
0.0
  3
SE12
  1

  0
CIRCLE
  5
121
330
11F
100
AcDbEntity
  8
DEFAULT
  6
CONTINUOUS
 62
     7
 48
25.4
100
AcDbCircle
 10
93.2864076743
 20
96.7055068678
 30
0.0
 40
1.000000008692339
  0
POLYLINE
  5
122
330
11F
100
AcDbEntity
  8
DEFAULT
  6
CONTINUOUS
 62
     7
 48
25.4
100
AcDb2dPolyline
 66
     1
 10
0.0
 20
0.0
 30
0.0
 70
     1
  0
VERTEX
  5
161
330
122
100
AcDbEntity
  8
DEFAULT
  6
CONTINUOUS
 62
     7
100
AcDbVertex
100
AcDb2dVertex
 10
92.78640767
 20
104.7055068939
 30
0.0
  0
VERTEX
  5
162
330
122
100
AcDbEntity
  8
DEFAULT
  6
CONTINUOUS
 62
     7
100
AcDbVertex
100
AcDb2dVertex
 10
93.2864076743
 20
101.7055068678
 30
0.0
  0
VERTEX
  5
163
330
122
100
AcDbEntity
  8
DEFAULT
  6
CONTINUOUS
 62
     7
100
AcDbVertex
100
AcDb2dVertex
 10
93.7864076787
 20
104.7055068939
 30
0.0
  0
VERTEX
  5
164
330
122
100
AcDbEntity
  8
DEFAULT
  6
CONTINUOUS
 62
     7
100
AcDbVertex
100
AcDb2dVertex
 10
92.78640767
 20
104.7055068939
 30
0.0
  0
SEQEND
  5
160
330
122
100
AcDbEntity
  8
DEFAULT
  6
CONTINUOUS
 62
     7
 48
25.4
  0
LINE
  5
123
330
11F
100
AcDbEntity
  8
DEFAULT
  6
CONTINUOUS
 62
     7
 48
25.4
100
AcDbLine
 10
110.115341405
 20
96.7055068678
 30
0.0
 11
91.7864076613
 21
96.7055068678
 31
0.0
  0
LINE
  5
124
330
11F
100
AcDbEntity
  8
DEFAULT
  6
CONTINUOUS
 62
     7
 48
25.4
100
AcDbLine
 10
114.2727896399
 20
101.7055068678
 30
0.0
 11
91.7864076613
 21
101.7055068678
 31
0.0
  0
LINE
  5
125
330
11F
100
AcDbEntity
  8
DEFAULT
  6
CONTINUOUS
 62
     7
 48
25.4
100
AcDbLine
 10
93.2864076743
 20
90.7055068157
 30
0.0
 11
93.2864076743
 21
107.7055068082
 31
0.0
  0
TEXT
  5
126
330
11F
100
AcDbEntity
  8
DEFAULT
  6
CONTINUOUS
 62
     7
 48
25.4
100
AcDbText
 10
92.5364076743
 20
98.3532340847
 30
0.0
 40
3.0
  1
5
 50
90.0
  7
SEACAD_SEISO_TTF
 11
89.5364076743
 21
98.3532340847
 31
0.0
100
AcDbText
 73
     3
  0
ENDBLK
  5
128
330
11F
100
AcDbEntity
  8
0
100
AcDbBlockEnd
  0
BLOCK
  5
131
330
129
100
AcDbEntity
  8
0
100
AcDbBlockBegin
  2
SE13
 70
     0
 71
     0
 10
0.0
 20
0.0
 30
0.0
  3
SE13
  1

  0
CIRCLE
  5
12B
330
129
100
AcDbEntity
  8
DEFAULT
  6
CONTINUOUS
 62
     7
 48
25.4
100
AcDbCircle
 10
93.2864076743
 20
96.7055068678
 30
0.0
 40
1.000000008692339
  0
POLYLINE
  5
12C
330
129
100
AcDbEntity
  8
DEFAULT
  6
CONTINUOUS
 62
     7
 48
25.4
100
AcDb2dPolyline
 66
     1
 10
0.0
 20
0.0
 30
0.0
 70
     1
  0
VERTEX
  5
166
330
12C
100
AcDbEntity
  8
DEFAULT
  6
CONTINUOUS
 62
     7
100
AcDbVertex
100
AcDb2dVertex
 10
92.78640767
 20
87.2055068417
 30
0.0
  0
VERTEX
  5
167
330
12C
100
AcDbEntity
  8
DEFAULT
  6
CONTINUOUS
 62
     7
100
AcDbVertex
100
AcDb2dVertex
 10
93.2864076743
 20
90.2055068678
 30
0.0
  0
VERTEX
  5
168
330
12C
100
AcDbEntity
  8
DEFAULT
  6
CONTINUOUS
 62
     7
100
AcDbVertex
100
AcDb2dVertex
 10
93.7864076787
 20
87.2055068417
 30
0.0
  0
VERTEX
  5
169
330
12C
100
AcDbEntity
  8
DEFAULT
  6
CONTINUOUS
 62
     7
100
AcDbVertex
100
AcDb2dVertex
 10
92.78640767
 20
87.2055068417
 30
0.0
  0
SEQEND
  5
165
330
12C
100
AcDbEntity
  8
DEFAULT
  6
CONTINUOUS
 62
     7
 48
25.4
  0
LINE
  5
12D
330
129
100
AcDbEntity
  8
DEFAULT
  6
CONTINUOUS
 62
     7
 48
25.4
100
AcDbLine
 10
110.115341405
 20
96.7055068678
 30
0.0
 11
91.7864076613
 21
96.7055068678
 31
0.0
  0
LINE
  5
12E
330
129
100
AcDbEntity
  8
DEFAULT
  6
CONTINUOUS
 62
     7
 48
25.4
100
AcDbLine
 10
111.5494373753
 20
90.2055068678
 30
0.0
 11
91.7864076613
 21
90.2055068678
 31
0.0
  0
LINE
  5
12F
330
129
100
AcDbEntity
  8
DEFAULT
  6
CONTINUOUS
 62
     7
 48
25.4
100
AcDbLine
 10
93.2864076743
 20
102.70550692
 30
0.0
 11
93.2864076743
 21
84.2055066816
 31
0.0
  0
TEXT
  5
130
330
129
100
AcDbEntity
  8
DEFAULT
  6
CONTINUOUS
 62
     7
 48
25.4
100
AcDbText
 10
92.5364076743
 20
91.4100522553
 30
0.0
 40
3.0
  1
6,5
 50
90.0
  7
SEACAD_SEISO_TTF
 11
89.5364076743
 21
91.4100522553
 31
0.0
100
AcDbText
 73
     3
  0
ENDBLK
  5
132
330
129
100
AcDbEntity
  8
0
100
AcDbBlockEnd
  0
BLOCK
  5
13B
330
133
100
AcDbEntity
  8
0
100
AcDbBlockBegin
  2
SE14
 70
     0
 71
     0
 10
0.0
 20
0.0
 30
0.0
  3
SE14
  1

  0
POLYLINE
  5
135
330
133
100
AcDbEntity
  8
DEFAULT
  6
CONTINUOUS
 62
     7
 48
25.4
100
AcDb2dPolyline
 66
     1
 10
0.0
 20
0.0
 30
0.0
 70
     1
  0
VERTEX
  5
16B
330
135
100
AcDbEntity
  8
DEFAULT
  6
CONTINUOUS
 62
     7
100
AcDbVertex
100
AcDb2dVertex
 10
177.9151576304
 20
64.7055068939
 30
0.0
  0
VERTEX
  5
16C
330
135
100
AcDbEntity
  8
DEFAULT
  6
CONTINUOUS
 62
     7
100
AcDbVertex
100
AcDb2dVertex
 10
177.415157626
 20
61.7055068678
 30
0.0
  0
VERTEX
  5
16D
330
135
100
AcDbEntity
  8
DEFAULT
  6
CONTINUOUS
 62
     7
100
AcDbVertex
100
AcDb2dVertex
 10
176.9151576217
 20
64.7055068939
 30
0.0
  0
VERTEX
  5
16E
330
135
100
AcDbEntity
  8
DEFAULT
  6
CONTINUOUS
 62
     7
100
AcDbVertex
100
AcDb2dVertex
 10
177.9151576304
 20
64.7055068939
 30
0.0
  0
SEQEND
  5
16A
330
135
100
AcDbEntity
  8
DEFAULT
  6
CONTINUOUS
 62
     7
 48
25.4
  0
POLYLINE
  5
136
330
133
100
AcDbEntity
  8
DEFAULT
  6
CONTINUOUS
 62
     7
 48
25.4
100
AcDb2dPolyline
 66
     1
 10
0.0
 20
0.0
 30
0.0
 70
     1
  0
VERTEX
  5
170
330
136
100
AcDbEntity
  8
DEFAULT
  6
CONTINUOUS
 62
     7
100
AcDbVertex
100
AcDb2dVertex
 10
177.9151576304
 20
98.7055068417
 30
0.0
  0
VERTEX
  5
171
330
136
100
AcDbEntity
  8
DEFAULT
  6
CONTINUOUS
 62
     7
100
AcDbVertex
100
AcDb2dVertex
 10
177.415157626
 20
101.7055068678
 30
0.0
  0
VERTEX
  5
172
330
136
100
AcDbEntity
  8
DEFAULT
  6
CONTINUOUS
 62
     7
100
AcDbVertex
100
AcDb2dVertex
 10
176.9151576217
 20
98.7055068417
 30
0.0
  0
VERTEX
  5
173
330
136
100
AcDbEntity
  8
DEFAULT
  6
CONTINUOUS
 62
     7
100
AcDbVertex
100
AcDb2dVertex
 10
177.9151576304
 20
98.7055068417
 30
0.0
  0
SEQEND
  5
16F
330
136
100
AcDbEntity
  8
DEFAULT
  6
CONTINUOUS
 62
     7
 48
25.4
  0
LINE
  5
137
330
133
100
AcDbEntity
  8
DEFAULT
  6
CONTINUOUS
 62
     7
 48
25.4
100
AcDbLine
 10
136.115341405
 20
61.7055068678
 30
0.0
 11
178.9151576391
 21
61.7055068678
 31
0.0
  0
LINE
  5
138
330
133
100
AcDbEntity
  8
DEFAULT
  6
CONTINUOUS
 62
     7
 48
25.4
100
AcDbLine
 10
157.9578931702
 20
101.7055068678
 30
0.0
 11
178.9151576391
 21
101.7055068678
 31
0.0
  0
LINE
  5
139
330
133
100
AcDbEntity
  8
DEFAULT
  6
CONTINUOUS
 62
     7
 48
25.4
100
AcDbLine
 10
177.415157626
 20
61.7055068678
 30
0.0
 11
177.415157626
 21
101.7055059737
 31
0.0
  0
TEXT
  5
13A
330
133
100
AcDbEntity
  8
DEFAULT
  6
CONTINUOUS
 62
     7
 48
25.4
100
AcDbText
 10
176.665157626
 20
79.9327791481
 30
0.0
 40
3.0
  1
40
 50
90.0
  7
SEACAD_SEISO_TTF
 11
173.665157626
 21
79.9327791481
 31
0.0
100
AcDbText
 73
     3
  0
ENDBLK
  5
13C
330
133
100
AcDbEntity
  8
0
100
AcDbBlockEnd
  0
ENDSEC
  0
SECTION
  2
ENTITIES
  0
INSERT
  5
2F
330
1F
100
AcDbEntity
  8
0
100
AcDbBlockReference
  2
SE
 10
0.0
 20
0.0
 30
0.0
  0
INSERT
  5
3B
330
1F
100
AcDbEntity
  8
0
100
AcDbBlockReference
  2
SE1
 10
0.0
 20
0.0
 30
0.0
  0
INSERT
  5
40
330
1F
100
AcDbEntity
  8
0
100
AcDbBlockReference
  2
SE2
 10
0.0
 20
0.0
 30
0.0
  0
INSERT
  5
45
330
1F
100
AcDbEntity
  8
0
100
AcDbBlockReference
  2
SE3
 10
0.0
 20
0.0
 30
0.0
  0
INSERT
  5
4A
330
1F
100
AcDbEntity
  8
0
100
AcDbBlockReference
  2
SE4
 10
0.0
 20
0.0
 30
0.0
  0
INSERT
  5
4F
330
1F
100
AcDbEntity
  8
0
100
AcDbBlockReference
  2
SE5
 10
0.0
 20
0.0
 30
0.0
  0
INSERT
  5
81
330
1F
100
AcDbEntity
  8
0
100
AcDbBlockReference
  2
SE6
 10
0.0
 20
0.0
 30
0.0
  0
INSERT
  5
BC
330
1F
100
AcDbEntity
  8
0
100
AcDbBlockReference
  2
SE7
 10
0.0
 20
0.0
 30
0.0
  0
INSERT
  5
F4
330
1F
100
AcDbEntity
  8
0
100
AcDbBlockReference
  2
SE8
 10
0.0
 20
0.0
 30
0.0
  0
INSERT
  5
100
330
1F
100
AcDbEntity
  8
0
100
AcDbBlockReference
  2
SE9
 10
0.0
 20
0.0
 30
0.0
  0
INSERT
  5
10A
330
1F
100
AcDbEntity
  8
0
100
AcDbBlockReference
  2
SE10
 10
0.0
 20
0.0
 30
0.0
  0
INSERT
  5
115
330
1F
100
AcDbEntity
  8
0
100
AcDbBlockReference
  2
SE11
 10
0.0
 20
0.0
 30
0.0
  0
INSERT
  5
120
330
1F
100
AcDbEntity
  8
0
100
AcDbBlockReference
  2
SE12
 10
0.0
 20
0.0
 30
0.0
  0
INSERT
  5
12A
330
1F
100
AcDbEntity
  8
0
100
AcDbBlockReference
  2
SE13
 10
0.0
 20
0.0
 30
0.0
  0
INSERT
  5
134
330
1F
100
AcDbEntity
  8
0
100
AcDbBlockReference
  2
SE14
 10
0.0
 20
0.0
 30
0.0
  0
ENDSEC
  0
SECTION
  2
OBJECTS
  0
DICTIONARY
  5
C
330
0
100
AcDbDictionary
  3
ACAD_GROUP
350
D
  3
ACAD_LAYOUT
350
1A
  3
ACAD_MLINESTYLE
350
17
  3
ACAD_PLOTSETTINGS
350
19
  3
ACAD_TABLESTYLE
350
2A
  3
ACDBVARIABLEDICTIONARY
350
2C
1001
ACAD
1000
TREAT_AS_HARD
1070
     0
  0
DICTIONARY
  5
174
330
29
100
AcDbDictionary
  3
ACAD_XREC_ROUNDTRIP
360
175
  0
DICTIONARY
  5
D
102
{ACAD_REACTORS
330
C
102
}
330
C
100
AcDbDictionary
1001
ACAD
1000
TREAT_AS_HARD
1070
     0
  0
DICTIONARY
  5
1A
102
{ACAD_REACTORS
330
C
102
}
330
C
100
AcDbDictionary
1001
ACAD
1000
TREAT_AS_HARD
1070
     0
  0
DICTIONARY
  5
17
102
{ACAD_REACTORS
330
C
102
}
330
C
100
AcDbDictionary
  3
STANDARD
350
18
1001
ACAD
1000
TREAT_AS_HARD
1070
     0
  0
DICTIONARY
  5
19
102
{ACAD_REACTORS
330
C
102
}
330
C
100
AcDbDictionary
1001
ACAD
1000
TREAT_AS_HARD
1070
     0
  0
DICTIONARY
  5
2A
102
{ACAD_REACTORS
330
C
102
}
330
C
100
AcDbDictionary
  3
STANDARD
350
2B
1001
ACAD
1000
TREAT_AS_HARD
1070
     0
  0
DICTIONARY
  5
2C
102
{ACAD_REACTORS
330
C
102
}
330
C
100
AcDbDictionary
  3
CTABLESTYLE
350
2D
1001
ACAD
1000
TREAT_AS_HARD
1070
     0
  0
XRECORD
  5
175
102
{ACAD_REACTORS
330
174
102
}
330
174
100
AcDbXrecord
102
UCS
 74
     0
 71
     1
 10
0.0
 20
0.0
 30
0.0
 10
1.0
 20
0.0
 30
0.0
 10
0.0
 20
1.0
 30
0.0
146
0.0
 79
     0
102
VIEW
281
     0
  0
MLINESTYLE
  5
18
102
{ACAD_REACTORS
330
17
102
}
330
17
100
AcDbMlineStyle
  2
Standard
 70
     0
  3

 62
   256
 51
90.0
 52
90.0
 71
     2
 49
0.5
 62
   256
  6
BYLAYER
 49
-0.5
 62
   256
  6
BYLAYER
  0
TABLESTYLE
  5
2B
102
{ACAD_REACTORS
330
2A
102
}
330
2A
100
AcDbTableStyle
  3
Standard
 70
     0
 71
     0
 40
0.06
 41
0.06
280
     0
281
     0
  7
STANDARD
140
0.18
170
     2
 62
     0
 63
     7
283
     0
274
    -2
284
     1
 64
     0
275
    -2
285
     1
 65
     0
276
    -2
286
     1
 66
     0
277
    -2
287
     1
 67
     0
278
    -2
288
     1
 68
     0
279
    -2
289
     1
 69
     0
  7
STANDARD
140
0.25
170
     5
 62
     0
 63
     7
283
     0
274
    -2
284
     1
 64
     0
275
    -2
285
     1
 65
     0
276
    -2
286
     1
 66
     0
277
    -2
287
     1
 67
     0
278
    -2
288
     1
 68
     0
279
    -2
289
     1
 69
     0
  7
STANDARD
140
0.18
170
     5
 62
     0
 63
     7
283
     0
274
    -2
284
     1
 64
     0
275
    -2
285
     1
 65
     0
276
    -2
286
     1
 66
     0
277
    -2
287
     1
 67
     0
278
    -2
288
     1
 68
     0
279
    -2
289
     1
 69
     0
  0
DICTIONARYVAR
  5
2D
102
{ACAD_REACTORS
330
2C
102
}
330
2C
100
DictionaryVariables
280
     0
  1
Standard
  0
ENDSEC
  0
EOF
