  0
SECTION
  2
HEADER
  9
$ACADVER
  1
AC1012
  9
$DWGCODEPAGE
  3
ansi_1252
  9
$INSBASE
 10
0.0
 20
0.0
 30
0.0
  9
$EXTMIN
 10
0.0
 20
0.0
 30
0.0
  9
$EXTMAX
 10
210.0
 20
297.0
 30
0.0
  9
$LIMMIN
 10
0.0
 20
0.0
  9
$LIMMAX
 10
210.0
 20
297.0
  9
$ORTHOMODE
 70
     0
  9
$REGENMODE
 70
     1
  9
$FILLMODE
 70
     1
  9
$QTEXTMODE
 70
     0
  9
$MIRRTEXT
 70
     1
  9
$DRAGMODE
 70
     2
  9
$LTSCALE
 40
1.0
  9
$OSMODE
 70
    37
  9
$ATTMODE
 70
     1
  9
$TEXTSIZE
 40
0.2
  9
$TRACEWID
 40
0.05
  9
$TEXTSTYLE
  7
STANDARD
  9
$CLAYER
  8
0
  9
$CELTYPE
  6
BYLAYER
  9
$CECOLOR
 62
   256
  9
$CELTSCALE
 40
25.4
  9
$DELOBJ
 70
     1
  9
$DISPSILH
 70
     0
  9
$DIMSCALE
 40
1.0
  9
$DIMASZ
 40
0.18
  9
$DIMEXO
 40
0.0625
  9
$DIMDLI
 40
0.38
  9
$DIMRND
 40
0.0
  9
$DIMDLE
 40
0.0
  9
$DIMEXE
 40
0.18
  9
$DIMTP
 40
0.0
  9
$DIMTM
 40
0.0
  9
$DIMTXT
 40
0.18
  9
$DIMCEN
 40
0.09
  9
$DIMTSZ
 40
0.0
  9
$DIMTOL
 70
     0
  9
$DIMLIM
 70
     0
  9
$DIMTIH
 70
     1
  9
$DIMTOH
 70
     1
  9
$DIMSE1
 70
     0
  9
$DIMSE2
 70
     0
  9
$DIMTAD
 70
     0
  9
$DIMZIN
 70
     0
  9
$DIMBLK
  1

  9
$DIMASO
 70
     1
  9
$DIMSHO
 70
     1
  9
$DIMPOST
  1

  9
$DIMAPOST
  1

  9
$DIMALT
 70
     0
  9
$DIMALTD
 70
     2
  9
$DIMALTF
 40
25.4
  9
$DIMLFAC
 40
1.0
  9
$DIMTOFL
 70
     0
  9
$DIMTVP
 40
0.0
  9
$DIMTIX
 70
     0
  9
$DIMSOXD
 70
     0
  9
$DIMSAH
 70
     0
  9
$DIMBLK1
  1

  9
$DIMBLK2
  1

  9
$DIMSTYLE
  2
STANDARD
  9
$DIMCLRD
 70
     0
  9
$DIMCLRE
 70
     0
  9
$DIMCLRT
 70
     0
  9
$DIMTFAC
 40
1.0
  9
$DIMGAP
 40
0.09
  9
$DIMJUST
 70
     0
  9
$DIMSD1
 70
     0
  9
$DIMSD2
 70
     0
  9
$DIMTOLJ
 70
     1
  9
$DIMTZIN
 70
     0
  9
$DIMALTZ
 70
     0
  9
$DIMALTTZ
 70
     0
  9
$DIMFIT
 70
     3
  9
$DIMUPT
 70
     0
  9
$DIMUNIT
 70
     2
  9
$DIMDEC
 70
     4
  9
$DIMTDEC
 70
     4
  9
$DIMALTU
 70
     2
  9
$DIMALTTD
 70
     2
  9
$DIMTXSTY
  7
STANDARD
  9
$DIMAUNIT
 70
     0
  9
$LUNITS
 70
     2
  9
$LUPREC
 70
     4
  9
$SKETCHINC
 40
0.1
  9
$FILLETRAD
 40
0.5
  9
$AUNITS
 70
     0
  9
$AUPREC
 70
     0
  9
$MENU
  1
.
  9
$ELEVATION
 40
0.0
  9
$PELEVATION
 40
0.0
  9
$THICKNESS
 40
0.0
  9
$LIMCHECK
 70
     0
  9
$CHAMFERA
 40
0.5
  9
$CHAMFERB
 40
0.5
  9
$CHAMFERC
 40
1.0
  9
$CHAMFERD
 40
0.0
  9
$SKPOLY
 70
     0
  9
$TDCREATE
 40
2453762.542884039
  9
$TDUPDATE
 40
2453762.542884051
  9
$TDINDWG
 40
0.0000000116
  9
$TDUSRTIMER
 40
0.0000000116
  9
$USRTIMER
 70
     1
  9
$ANGBASE
 50
0.0
  9
$ANGDIR
 70
     0
  9
$PDMODE
 70
     0
  9
$PDSIZE
 40
0.0
  9
$PLINEWID
 40
0.0
  9
$COORDS
 70
     1
  9
$SPLFRAME
 70
     0
  9
$SPLINETYPE
 70
     6
  9
$SPLINESEGS
 70
     8
  9
$ATTDIA
 70
     0
  9
$ATTREQ
 70
     1
  9
$HANDLING
 70
     1
  9
$HANDSEED
  5
10C
  9
$SURFTAB1
 70
     6
  9
$SURFTAB2
 70
     6
  9
$SURFTYPE
 70
     6
  9
$SURFU
 70
     6
  9
$SURFV
 70
     6
  9
$UCSNAME
  2

  9
$UCSORG
 10
0.0
 20
0.0
 30
0.0
  9
$UCSXDIR
 10
1.0
 20
0.0
 30
0.0
  9
$UCSYDIR
 10
0.0
 20
1.0
 30
0.0
  9
$PUCSNAME
  2

  9
$PUCSORG
 10
0.0
 20
0.0
 30
0.0
  9
$PUCSXDIR
 10
1.0
 20
0.0
 30
0.0
  9
$PUCSYDIR
 10
0.0
 20
1.0
 30
0.0
  9
$USERI1
 70
     0
  9
$USERI2
 70
     0
  9
$USERI3
 70
     0
  9
$USERI4
 70
     0
  9
$USERI5
 70
     0
  9
$USERR1
 40
0.0
  9
$USERR2
 40
0.0
  9
$USERR3
 40
0.0
  9
$USERR4
 40
0.0
  9
$USERR5
 40
0.0
  9
$WORLDVIEW
 70
     1
  9
$SHADEDGE
 70
     3
  9
$SHADEDIF
 70
    70
  9
$TILEMODE
 70
     1
  9
$MAXACTVP
 70
    64
  9
$PINSBASE
 10
0.0
 20
0.0
 30
0.0
  9
$PLIMCHECK
 70
     0
  9
$PEXTMIN
 10
0.0
 20
0.0
 30
0.0
  9
$PEXTMAX
 10
210.0
 20
297.0
 30
0.0
  9
$PLIMMIN
 10
0.0
 20
0.0
  9
$PLIMMAX
 10
12.0
 20
9.0
  9
$UNITMODE
 70
     0
  9
$VISRETAIN
 70
     1
  9
$PLINEGEN
 70
     0
  9
$PSLTSCALE
 70
     1
  9
$TREEDEPTH
 70
  3020
  9
$PICKSTYLE
 70
     1
  9
$CMLSTYLE
  2
STANDARD
  9
$CMLJUST
 70
     0
  9
$CMLSCALE
 40
1.0
  9
$SAVEIMAGES
 70
     1
  0
ENDSEC
  0
SECTION
  2
CLASSES
  0
CLASS
  1
ACDBDICTIONARYWDFLT
  2
AcDbDictionaryWithDefault
  3
ObjectDBX Classes
 90
        0
280
     0
281
     0
  0
CLASS
  1
TABLESTYLE
  2
AcDbTableStyle
  3
ObjectDBX Classes
 90
     2047
280
     0
281
     0
  0
CLASS
  1
DICTIONARYVAR
  2
AcDbDictionaryVar
  3
ObjectDBX Classes
 90
        0
280
     0
281
     0
  0
CLASS
  1
XRECORD
  2
AcDbXrecord
  3
AutoCAD 2000
 90
    32768
280
     0
281
     0
  0
CLASS
  1
LWPOLYLINE
  2
AcDbPolyline
  3
AutoCAD 2000
 90
    32768
280
     0
281
     1
  0
CLASS
  1
HATCH
  2
AcDbHatch
  3
AutoCAD 2000
 90
    32768
280
     0
281
     1
  0
CLASS
  1
ACDBPLACEHOLDER
  2
AcDbPlaceHolder
  3
ObjectDBX Classes
 90
        0
280
     0
281
     0
  0
CLASS
  1
LAYOUT
  2
AcDbLayout
  3
ObjectDBX Classes
 90
        0
280
     0
281
     0
  0
ENDSEC
  0
SECTION
  2
TABLES
  0
TABLE
  2
VPORT
  5
8
330
0
100
AcDbSymbolTable
 70
     2
  0
VPORT
  5
29
102
{ACAD_XDICTIONARY
360
10A
102
}
330
8
100
AcDbSymbolTableRecord
100
AcDbViewportTableRecord
  2
*ACTIVE
 70
     0
 10
0.0
 20
0.0
 11
1.0
 21
1.0
 12
10.4299065421
 22
4.5
 13
0.0
 23
0.0
 14
0.5
 24
0.5
 15
0.5
 25
0.5
 16
0.0
 26
0.0
 36
1.0
 17
0.0
 27
0.0
 37
0.0
 40
9.0
 41
1.9729729729
 42
50.0
 43
0.0
 44
0.0
 50
0.0
 51
0.0
 71
     0
 72
   100
 73
     1
 74
     3
 75
     0
 76
     0
 77
     0
 78
     0
  0
ENDTAB
  0
TABLE
  2
LTYPE
  5
5
330
0
100
AcDbSymbolTable
 70
     2
  0
LTYPE
  5
14
330
5
100
AcDbSymbolTableRecord
100
AcDbLinetypeTableRecord
  2
BYBLOCK
 70
     0
  3

 72
    65
 73
     0
 40
0.0
  0
LTYPE
  5
15
330
5
100
AcDbSymbolTableRecord
100
AcDbLinetypeTableRecord
  2
BYLAYER
 70
     0
  3

 72
    65
 73
     0
 40
0.0
  0
LTYPE
  5
16
330
5
100
AcDbSymbolTableRecord
100
AcDbLinetypeTableRecord
  2
CONTINUOUS
 70
     0
  3
Solid line
 72
    65
 73
     0
 40
0.0
  0
LTYPE
  5
31
330
5
100
AcDbSymbolTableRecord
100
AcDbLinetypeTableRecord
  2
CENTER2
 70
     0
  3
___ _ ___ _ ___ _ ___ _ ___ _ ___ _ ___ _ ___ _
 72
    65
 73
     4
 40
1.125
 49
0.75
 74
     4
 75
     0
340
0
 46
0.0
 50
0.0
 44
0.0
 45
0.0
 49
-0.125
 74
     4
 75
     0
340
0
 46
0.0
 50
0.0
 44
0.0
 45
0.0
 49
0.125
 74
     4
 75
     0
340
0
 46
0.0
 50
0.0
 44
0.0
 45
0.0
 49
-0.125
 74
     4
 75
     0
340
0
 46
0.0
 50
0.0
 44
0.0
 45
0.0
  0
ENDTAB
  0
TABLE
  2
LAYER
  5
2
330
0
100
AcDbSymbolTable
 70
     4
  0
LAYER
  5
10
330
2
100
AcDbSymbolTableRecord
100
AcDbLayerTableRecord
  2
0
 70
     0
 62
     7
  6
CONTINUOUS
  0
LAYER
  5
30
330
2
100
AcDbSymbolTableRecord
100
AcDbLayerTableRecord
  2
STANDARD
 70
     0
 62
     7
  6
CONTINUOUS
  0
LAYER
  5
50
330
2
100
AcDbSymbolTableRecord
100
AcDbLayerTableRecord
  2
MEGA_001411
 70
     0
 62
     7
  6
CONTINUOUS
  0
LAYER
  5
53
330
2
100
AcDbSymbolTableRecord
100
AcDbLayerTableRecord
  2
MEGA_001422
 70
     0
 62
     7
  6
CONTINUOUS
  0
ENDTAB
  0
TABLE
  2
STYLE
  5
3
330
0
100
AcDbSymbolTable
 70
     3
  0
STYLE
  5
11
330
3
100
AcDbSymbolTableRecord
100
AcDbTextStyleTableRecord
  2
STANDARD
 70
     0
 40
0.0
 41
1.0
 50
0.0
 71
     0
 42
0.2
  3
txt
  4

  0
STYLE
  5
A4
330
3
100
AcDbSymbolTableRecord
100
AcDbTextStyleTableRecord
  2
SEACAD_SEISO_TTF
 70
     0
 40
0.2
 41
1.0
 50
0.0
 71
     0
 42
0.2
  3
seiso.ttf
  4

  0
STYLE
  5
B0
330
3
100
AcDbSymbolTableRecord
100
AcDbTextStyleTableRecord
  2
SEACAD_SEMECI1_TTF
 70
     0
 40
0.2
 41
1.0
 50
0.0
 71
     0
 42
0.2
  3
semeci1.ttf
  4

  0
ENDTAB
  0
TABLE
  2
VIEW
  5
6
330
0
100
AcDbSymbolTable
 70
     0
  0
ENDTAB
  0
TABLE
  2
UCS
  5
7
330
0
100
AcDbSymbolTable
 70
     0
  0
ENDTAB
  0
TABLE
  2
APPID
  5
9
330
0
100
AcDbSymbolTable
 70
     1
  0
APPID
  5
12
330
9
100
AcDbSymbolTableRecord
100
AcDbRegAppTableRecord
  2
ACAD
 70
     0
  0
ENDTAB
  0
TABLE
  2
DIMSTYLE
  5
A
330
0
100
AcDbSymbolTable
 70
     1
  0
DIMSTYLE
105
27
330
A
100
AcDbSymbolTableRecord
100
AcDbDimStyleTableRecord
  2
STANDARD
 70
     0
  3

  4

  5

  6

  7

 40
1.0
 41
0.18
 42
0.0625
 43
0.38
 44
0.18
 45
0.0
 46
0.0
 47
0.0
 48
0.0
140
0.18
141
0.09
142
0.0
143
25.4
144
1.0
145
0.0
146
1.0
147
0.09
 71
     0
 72
     0
 73
     1
 74
     1
 75
     0
 76
     0
 77
     0
 78
     0
170
     0
171
     2
172
     0
173
     0
174
     0
175
     0
176
     0
177
     0
178
     0
270
     2
271
     4
272
     4
273
     2
274
     2
340
11
275
     0
280
     0
281
     0
282
     0
283
     1
284
     0
285
     0
286
     0
287
     3
288
     0
  0
ENDTAB
  0
TABLE
  2
BLOCK_RECORD
  5
1
330
0
100
AcDbSymbolTable
 70
    15
  0
BLOCK_RECORD
  5
1F
330
1
100
AcDbSymbolTableRecord
100
AcDbBlockTableRecord
  2
*MODEL_SPACE
  0
BLOCK_RECORD
  5
1B
330
1
100
AcDbSymbolTableRecord
100
AcDbBlockTableRecord
  2
*PAPER_SPACE
  0
BLOCK_RECORD
  5
2E
330
1
100
AcDbSymbolTableRecord
100
AcDbBlockTableRecord
  2
SE
  0
BLOCK_RECORD
  5
3A
330
1
100
AcDbSymbolTableRecord
100
AcDbBlockTableRecord
  2
SE1
  0
BLOCK_RECORD
  5
3F
330
1
100
AcDbSymbolTableRecord
100
AcDbBlockTableRecord
  2
SE2
  0
BLOCK_RECORD
  5
44
330
1
100
AcDbSymbolTableRecord
100
AcDbBlockTableRecord
  2
SE3
  0
BLOCK_RECORD
  5
49
330
1
100
AcDbSymbolTableRecord
100
AcDbBlockTableRecord
  2
SE4
  0
BLOCK_RECORD
  5
4E
330
1
100
AcDbSymbolTableRecord
100
AcDbBlockTableRecord
  2
SE5
  0
BLOCK_RECORD
  5
58
330
1
100
AcDbSymbolTableRecord
100
AcDbBlockTableRecord
  2
SE6
  0
BLOCK_RECORD
  5
7D
330
1
100
AcDbSymbolTableRecord
100
AcDbBlockTableRecord
  2
SE7
  0
BLOCK_RECORD
  5
9E
330
1
100
AcDbSymbolTableRecord
100
AcDbBlockTableRecord
  2
SE8
  0
BLOCK_RECORD
  5
A8
330
1
100
AcDbSymbolTableRecord
100
AcDbBlockTableRecord
  2
SE9
  0
BLOCK_RECORD
  5
B4
330
1
100
AcDbSymbolTableRecord
100
AcDbBlockTableRecord
  2
SE10
  0
BLOCK_RECORD
  5
BF
330
1
100
AcDbSymbolTableRecord
100
AcDbBlockTableRecord
  2
SE11
  0
BLOCK_RECORD
  5
C9
330
1
100
AcDbSymbolTableRecord
100
AcDbBlockTableRecord
  2
SE12
  0
BLOCK_RECORD
  5
D3
330
1
100
AcDbSymbolTableRecord
100
AcDbBlockTableRecord
  2
SE13
  0
ENDTAB
  0
ENDSEC
  0
SECTION
  2
BLOCKS
  0
BLOCK
  5
20
330
1F
100
AcDbEntity
  8
0
100
AcDbBlockBegin
  2
*MODEL_SPACE
 70
     0
 71
     0
 10
0.0
 20
0.0
 30
0.0
  3
*MODEL_SPACE
  1

  0
ENDBLK
  5
21
330
1F
100
AcDbEntity
  8
0
100
AcDbBlockEnd
  0
BLOCK
  5
1C
330
1B
100
AcDbEntity
 67
     1
  8
0
100
AcDbBlockBegin
  2
*PAPER_SPACE
 70
     0
 71
     0
 10
0.0
 20
0.0
 30
0.0
  3
*PAPER_SPACE
  1

  0
ENDBLK
  5
1D
330
1B
100
AcDbEntity
 67
     1
  8
0
100
AcDbBlockEnd
  0
BLOCK
  5
38
330
2E
100
AcDbEntity
  8
0
100
AcDbBlockBegin
  2
SE
 70
     0
 71
     0
 10
0.0
 20
0.0
 30
0.0
  3
SE
  1

  0
LINE
  5
32
330
2E
100
AcDbEntity
  8
STANDARD
  6
CENTER2
 62
     7
 48
25.4
100
AcDbLine
 10
132.0227543712
 20
193.5636841464
 30
0.0
 11
120.0227542669
 21
193.5636841464
 31
0.0
  0
LINE
  5
33
330
2E
100
AcDbEntity
  8
STANDARD
  6
CENTER2
 62
     7
 48
25.4
100
AcDbLine
 10
126.0227543191
 20
199.5636841986
 30
0.0
 11
126.0227543191
 21
187.5636840942
 31
0.0
  0
LINE
  5
34
330
2E
100
AcDbEntity
  8
STANDARD
  6
CENTER2
 62
     7
 48
25.4
100
AcDbLine
 10
133.5227543191
 20
193.5636841464
 30
0.0
 11
153.7727543191
 21
193.5636841464
 31
0.0
  0
LINE
  5
35
330
2E
100
AcDbEntity
  8
STANDARD
  6
CENTER2
 62
     7
 48
25.4
100
AcDbLine
 10
126.0227543191
 20
201.0636841464
 30
0.0
 11
126.0227543191
 21
221.3136841464
 31
0.0
  0
LINE
  5
36
330
2E
100
AcDbEntity
  8
STANDARD
  6
CENTER2
 62
     7
 48
25.4
100
AcDbLine
 10
118.5227543191
 20
193.5636841464
 30
0.0
 11
98.2727543191
 21
193.5636841464
 31
0.0
  0
LINE
  5
37
330
2E
100
AcDbEntity
  8
STANDARD
  6
CENTER2
 62
     7
 48
25.4
100
AcDbLine
 10
126.0227543191
 20
186.0636841464
 30
0.0
 11
126.0227543191
 21
165.8136841464
 31
0.0
  0
ENDBLK
  5
39
330
2E
100
AcDbEntity
  8
0
100
AcDbBlockEnd
  0
BLOCK
  5
3D
330
3A
100
AcDbEntity
  8
0
100
AcDbBlockBegin
  2
SE1
 70
     0
 71
     0
 10
0.0
 20
0.0
 30
0.0
  3
SE1
  1

  0
LINE
  5
3C
330
3A
100
AcDbEntity
  8
STANDARD
  6
CENTER2
 62
     7
 48
25.4
100
AcDbLine
 10
55.8187338029
 20
193.5636841464
 30
0.0
 11
74.3810155895
 21
193.5636841464
 31
0.0
  0
ENDBLK
  5
3E
330
3A
100
AcDbEntity
  8
0
100
AcDbBlockEnd
  0
BLOCK
  5
42
330
3F
100
AcDbEntity
  8
0
100
AcDbBlockBegin
  2
SE2
 70
     0
 71
     0
 10
0.0
 20
0.0
 30
0.0
  3
SE2
  1

  0
LINE
  5
41
330
3F
100
AcDbEntity
  8
STANDARD
  6
CENTER2
 62
     7
 48
25.4
100
AcDbLine
 10
107.0227543191
 20
128.3152142937
 30
0.0
 11
107.0227543191
 21
141.1665804958
 31
0.0
  0
ENDBLK
  5
43
330
3F
100
AcDbEntity
  8
0
100
AcDbBlockEnd
  0
BLOCK
  5
47
330
44
100
AcDbEntity
  8
0
100
AcDbBlockBegin
  2
SE3
 70
     0
 71
     0
 10
0.0
 20
0.0
 30
0.0
  3
SE3
  1

  0
LINE
  5
46
330
44
100
AcDbEntity
  8
STANDARD
  6
CENTER2
 62
     7
 48
25.4
100
AcDbLine
 10
126.0227543191
 20
120.9281837868
 30
0.0
 11
126.0227543191
 21
139.3010545347
 31
0.0
  0
ENDBLK
  5
48
330
44
100
AcDbEntity
  8
0
100
AcDbBlockEnd
  0
BLOCK
  5
4C
330
49
100
AcDbEntity
  8
0
100
AcDbBlockBegin
  2
SE4
 70
     0
 71
     0
 10
0.0
 20
0.0
 30
0.0
  3
SE4
  1

  0
LINE
  5
4B
330
49
100
AcDbEntity
  8
STANDARD
  6
CENTER2
 62
     7
 48
25.4
100
AcDbLine
 10
145.0227543191
 20
128.5046253323
 30
0.0
 11
145.0227543191
 21
152.749238278
 31
0.0
  0
ENDBLK
  5
4D
330
49
100
AcDbEntity
  8
0
100
AcDbBlockEnd
  0
BLOCK
  5
56
330
4E
100
AcDbEntity
  8
0
100
AcDbBlockBegin
  2
SE5
 70
     0
 71
     0
 10
0.0
 20
0.0
 30
0.0
  3
SE5
  1

  0
CIRCLE
  5
51
330
4E
100
AcDbEntity
  8
MEGA_001411
  6
CONTINUOUS
 62
     7
 48
25.4
100
AcDbCircle
 10
126.0227543191
 20
193.5636841464
 30
0.0
 40
11.10000000000004
  0
ARC
  5
52
330
4E
100
AcDbEntity
  8
MEGA_001411
  6
CONTINUOUS
 62
     7
 48
25.4
100
AcDbCircle
 10
126.0227543191
 20
193.5636841464
 30
0.0
 40
26.0
100
AcDbArc
 50
275.5177343738
 51
264.4822656262
  0
CIRCLE
  5
54
330
4E
100
AcDbEntity
  8
MEGA_001422
  6
CONTINUOUS
 62
     7
 48
25.4
100
AcDbCircle
 10
126.0227543191
 20
193.5636841464
 30
0.0
 40
7.999999999999973
  0
ARC
  5
55
330
4E
100
AcDbEntity
  8
STANDARD
  6
CONTINUOUS
 62
     7
 48
25.4
100
AcDbCircle
 10
126.0227543238
 20
193.563684097
 30
0.0
 40
25.99999995030001
100
AcDbArc
 50
264.4822656053
 51
275.5177343738
  0
ENDBLK
  5
57
330
4E
100
AcDbEntity
  8
0
100
AcDbBlockEnd
  0
BLOCK
  5
7B
330
58
100
AcDbEntity
  8
0
100
AcDbBlockBegin
  2
SE6
 70
     0
 71
     0
 10
0.0
 20
0.0
 30
0.0
  3
SE6
  1

  0
LINE
  5
5A
330
58
100
AcDbEntity
  8
MEGA_001411
  6
CONTINUOUS
 62
     7
 48
25.4
100
AcDbLine
 10
100.0227543191
 20
131.2115709396
 30
0.0
 11
100.2719765357
 21
128.3629479686
 31
0.0
  0
ARC
  5
5B
330
58
100
AcDbEntity
  8
MEGA_001411
  6
CONTINUOUS
 62
     7
 48
25.4
100
AcDbCircle
 10
104.256755328
 20
128.7115709396
 30
0.0
 40
4.0
100
AcDbArc
 50
185.0
 51
270.0
  0
LINE
  5
5C
330
58
100
AcDbEntity
  8
MEGA_001411
  6
CONTINUOUS
 62
     7
 48
25.4
100
AcDbLine
 10
151.7735321024
 20
128.3629479686
 30
0.0
 11
152.0227543191
 21
131.2115709396
 31
0.0
  0
ARC
  5
5D
330
58
100
AcDbEntity
  8
MEGA_001411
  6
CONTINUOUS
 62
     7
 48
25.4
100
AcDbCircle
 10
147.7887533101
 20
128.7115709396
 30
0.0
 40
4.0
100
AcDbArc
 50
270.0
 51
355.0
  0
LINE
  5
5E
330
58
100
AcDbEntity
  8
MEGA_001411
  6
CONTINUOUS
 62
     7
 48
25.4
100
AcDbLine
 10
100.0227543191
 20
131.2115709396
 30
0.0
 11
152.0227543191
 21
131.2115709396
 31
0.0
  0
LINE
  5
5F
330
58
100
AcDbEntity
  8
MEGA_001411
  6
CONTINUOUS
 62
     7
 48
25.4
100
AcDbLine
 10
147.7887533101
 20
124.7115709396
 30
0.0
 11
104.256755328
 21
124.7115709396
 31
0.0
  0
LINE
  5
60
330
58
100
AcDbEntity
  8
MEGA_001422
  6
CONTINUOUS
 62
     7
 48
25.4
100
AcDbLine
 10
103.6805071404
 20
135.7290206879
 30
0.0
 11
103.5396053452
 21
131.6941211912
 31
0.0
  0
LINE
  5
61
330
58
100
AcDbEntity
  8
MEGA_001422
  6
CONTINUOUS
 62
     7
 48
25.4
100
AcDbLine
 10
135.8824616968
 20
136.2115709396
 30
0.0
 11
116.1630469413
 21
136.2115709396
 31
0.0
  0
LINE
  5
62
330
58
100
AcDbEntity
  8
MEGA_001422
  6
CONTINUOUS
 62
     7
 48
25.4
100
AcDbLine
 10
136.4182859607
 20
124.2115709396
 30
0.0
 11
115.6272226774
 21
124.2115709396
 31
0.0
  0
LINE
  5
63
330
58
100
AcDbEntity
  8
MEGA_001422
  6
CONTINUOUS
 62
     7
 48
25.4
100
AcDbLine
 10
136.9179813742
 20
124.7112663531
 30
0.0
 11
115.1275272639
 21
124.7112663531
 31
0.0
  0
LINE
  5
64
330
58
100
AcDbEntity
  8
MEGA_001422
  6
CONTINUOUS
 62
     7
 48
25.4
100
AcDbLine
 10
148.505903293
 20
131.6941211912
 30
0.0
 11
148.3650014977
 21
135.7290206879
 31
0.0
  0
LINE
  5
65
330
58
100
AcDbEntity
  8
MEGA_001422
  6
CONTINUOUS
 62
     7
 48
25.4
100
AcDbLine
 10
141.6805071404
 20
135.7290206879
 30
0.0
 11
141.5396053452
 21
131.6941211912
 31
0.0
  0
ARC
  5
66
330
58
100
AcDbEntity
  8
MEGA_001422
  6
CONTINUOUS
 62
     7
 48
25.4
100
AcDbCircle
 10
142.1802025539
 20
135.7115709396
 30
0.0
 40
0.5
100
AcDbArc
 50
90.0
 51
178.0
  0
ARC
  5
67
330
58
100
AcDbEntity
  8
MEGA_001422
  6
CONTINUOUS
 62
     7
 48
25.4
100
AcDbCircle
 10
149.0055987065
 20
131.7115709396
 30
0.0
 40
0.5
100
AcDbArc
 50
182.0
 51
270.0
  0
ARC
  5
68
330
58
100
AcDbEntity
  8
MEGA_001422
  6
CONTINUOUS
 62
     7
 48
25.4
100
AcDbCircle
 10
104.1802025539
 20
135.7115709396
 30
0.0
 40
0.5
100
AcDbArc
 50
90.0
 51
178.0
  0
ARC
  5
69
330
58
100
AcDbEntity
  8
MEGA_001422
  6
CONTINUOUS
 62
     7
 48
25.4
100
AcDbCircle
 10
111.0055987065
 20
131.7115709396
 30
0.0
 40
0.5
100
AcDbArc
 50
182.0
 51
270.0
  0
ARC
  5
6A
330
58
100
AcDbEntity
  8
MEGA_001422
  6
CONTINUOUS
 62
     7
 48
25.4
100
AcDbCircle
 10
137.5055987065
 20
131.7115709396
 30
0.0
 40
0.5
100
AcDbArc
 50
182.0
 51
270.0
  0
ARC
  5
6B
330
58
100
AcDbEntity
  8
MEGA_001422
  6
CONTINUOUS
 62
     7
 48
25.4
100
AcDbCircle
 10
147.8653060842
 20
135.7115709396
 30
0.0
 40
0.5
100
AcDbArc
 50
2.0
 51
90.0
  0
ARC
  5
6C
330
58
100
AcDbEntity
  8
MEGA_001422
  6
CONTINUOUS
 62
     7
 48
25.4
100
AcDbCircle
 10
141.0399099317
 20
131.7115709396
 30
0.0
 40
0.5
100
AcDbArc
 50
270.0
 51
358.0
  0
ARC
  5
6D
330
58
100
AcDbEntity
  8
MEGA_001422
  6
CONTINUOUS
 62
     7
 48
25.4
100
AcDbCircle
 10
109.8653060842
 20
135.7115709396
 30
0.0
 40
0.5
100
AcDbArc
 50
2.0
 51
90.0
  0
ARC
  5
6E
330
58
100
AcDbEntity
  8
MEGA_001422
  6
CONTINUOUS
 62
     7
 48
25.4
100
AcDbCircle
 10
103.0399099317
 20
131.7115709396
 30
0.0
 40
0.5
100
AcDbArc
 50
270.0
 51
358.0
  0
ARC
  5
6F
330
58
100
AcDbEntity
  8
MEGA_001422
  6
CONTINUOUS
 62
     7
 48
25.4
100
AcDbCircle
 10
114.5399099317
 20
131.7115709396
 30
0.0
 40
0.5
100
AcDbArc
 50
270.0
 51
358.0
  0
LINE
  5
70
330
58
100
AcDbEntity
  8
MEGA_001422
  6
CONTINUOUS
 62
     7
 48
25.4
100
AcDbLine
 10
115.1275166275
 20
124.7115709396
 30
0.0
 11
115.1275272639
 21
124.7112663531
 31
0.0
  0
ARC
  5
71
330
58
100
AcDbEntity
  8
MEGA_001422
  6
CONTINUOUS
 62
     7
 48
25.4
100
AcDbCircle
 10
135.8824616968
 20
135.2115709396
 30
0.0
 40
1.0
100
AcDbArc
 50
2.0
 51
90.0
  0
LINE
  5
72
330
58
100
AcDbEntity
  8
MEGA_001422
  6
CONTINUOUS
 62
     7
 48
25.4
100
AcDbLine
 10
136.9179813742
 20
124.7112663531
 30
0.0
 11
136.9179920106
 21
124.7115709396
 31
0.0
  0
ARC
  5
73
330
58
100
AcDbEntity
  8
MEGA_001422
  6
CONTINUOUS
 62
     7
 48
25.4
100
AcDbCircle
 10
116.1630469413
 20
135.2115709396
 30
0.0
 40
1.0
100
AcDbArc
 50
90.0
 51
178.0
  0
LINE
  5
74
330
58
100
AcDbEntity
  8
MEGA_001422
  6
CONTINUOUS
 62
     7
 48
25.4
100
AcDbLine
 10
137.005903293
 20
131.6941211912
 30
0.0
 11
136.8818525238
 21
135.2464704363
 31
0.0
  0
LINE
  5
75
330
58
100
AcDbEntity
  8
MEGA_001422
  6
CONTINUOUS
 62
     7
 48
25.4
100
AcDbLine
 10
142.1802025539
 20
136.2115709396
 30
0.0
 11
147.8653060842
 21
136.2115709396
 31
0.0
  0
LINE
  5
76
330
58
100
AcDbEntity
  8
MEGA_001422
  6
CONTINUOUS
 62
     7
 48
25.4
100
AcDbLine
 10
104.1802025539
 20
136.2115709396
 30
0.0
 11
109.8653060842
 21
136.2115709396
 31
0.0
  0
LINE
  5
77
330
58
100
AcDbEntity
  8
MEGA_001422
  6
CONTINUOUS
 62
     7
 48
25.4
100
AcDbLine
 10
115.1275272639
 20
124.7112663531
 30
0.0
 11
115.6272226774
 21
124.2115709396
 31
0.0
  0
LINE
  5
78
330
58
100
AcDbEntity
  8
MEGA_001422
  6
CONTINUOUS
 62
     7
 48
25.4
100
AcDbLine
 10
115.1636561143
 20
135.2464704363
 30
0.0
 11
115.0396053452
 21
131.6941211912
 31
0.0
  0
LINE
  5
79
330
58
100
AcDbEntity
  8
MEGA_001422
  6
CONTINUOUS
 62
     7
 48
25.4
100
AcDbLine
 10
136.4182859607
 20
124.2115709396
 30
0.0
 11
136.9179813742
 21
124.7112663531
 31
0.0
  0
LINE
  5
7A
330
58
100
AcDbEntity
  8
MEGA_001422
  6
CONTINUOUS
 62
     7
 48
25.4
100
AcDbLine
 10
110.505903293
 20
131.6941211912
 30
0.0
 11
110.3650014977
 21
135.7290206879
 31
0.0
  0
ENDBLK
  5
7C
330
58
100
AcDbEntity
  8
0
100
AcDbBlockEnd
  0
BLOCK
  5
9C
330
7D
100
AcDbEntity
  8
0
100
AcDbBlockBegin
  2
SE7
 70
     0
 71
     0
 10
0.0
 20
0.0
 30
0.0
  3
SE7
  1

  0
LINE
  5
7F
330
7D
100
AcDbEntity
  8
MEGA_001411
  6
CONTINUOUS
 62
     7
 48
25.4
100
AcDbLine
 10
66.2558932605
 20
219.5636841464
 30
0.0
 11
63.4072702895
 21
219.3144619298
 31
0.0
  0
ARC
  5
80
330
7D
100
AcDbEntity
  8
MEGA_001411
  6
CONTINUOUS
 62
     7
 48
25.4
100
AcDbCircle
 10
63.7558932605
 20
215.3296831374
 30
0.0
 40
4.0
100
AcDbArc
 50
95.0
 51
180.0
  0
LINE
  5
81
330
7D
100
AcDbEntity
  8
MEGA_001411
  6
CONTINUOUS
 62
     7
 48
25.4
100
AcDbLine
 10
63.4072702895
 20
167.812906363
 30
0.0
 11
64.2558932605
 21
167.7386614735
 31
0.0
  0
ARC
  5
82
330
7D
100
AcDbEntity
  8
MEGA_001411
  6
CONTINUOUS
 62
     7
 48
25.4
100
AcDbCircle
 10
63.7558932605
 20
171.7976851554
 30
0.0
 40
4.0
100
AcDbArc
 50
180.0
 51
265.0
  0
LINE
  5
83
330
7D
100
AcDbEntity
  8
MEGA_001411
  6
CONTINUOUS
 62
     7
 48
25.4
100
AcDbLine
 10
66.2558932605
 20
219.5636841464
 30
0.0
 11
66.2558932605
 21
167.6841555572
 31
0.0
  0
LINE
  5
84
330
7D
100
AcDbEntity
  8
MEGA_001411
  6
CONTINUOUS
 62
     7
 48
25.4
100
AcDbLine
 10
59.7558932605
 20
215.3296831374
 30
0.0
 11
59.7558932605
 21
171.7976851554
 31
0.0
  0
LINE
  5
85
330
7D
100
AcDbEntity
  8
MEGA_001422
  6
CONTINUOUS
 62
     7
 48
25.4
100
AcDbLine
 10
71.2558932605
 20
203.4233915241
 30
0.0
 11
71.2558932605
 21
196.4062359115
 31
0.0
  0
LINE
  5
86
330
7D
100
AcDbEntity
  8
MEGA_001422
  6
CONTINUOUS
 62
     7
 48
25.4
100
AcDbLine
 10
71.2558932605
 20
190.7211323813
 30
0.0
 11
71.2558932605
 21
183.7039767687
 31
0.0
  0
LINE
  5
87
330
7D
100
AcDbEntity
  8
MEGA_001422
  6
CONTINUOUS
 62
     7
 48
25.4
100
AcDbLine
 10
59.2558932605
 20
203.959215788
 30
0.0
 11
59.2558932605
 21
183.1681525048
 31
0.0
  0
LINE
  5
88
330
7D
100
AcDbEntity
  8
MEGA_001422
  6
CONTINUOUS
 62
     7
 48
25.4
100
AcDbLine
 10
59.755588674
 20
204.4589112015
 30
0.0
 11
59.755588674
 21
182.6684570913
 31
0.0
  0
LINE
  5
89
330
7D
100
AcDbEntity
  8
MEGA_001422
  6
CONTINUOUS
 62
     7
 48
25.4
100
AcDbLine
 10
66.7384435121
 20
190.0805351725
 30
0.0
 11
70.7733430088
 21
190.2214369678
 31
0.0
  0
LINE
  5
8A
330
7D
100
AcDbEntity
  8
MEGA_001422
  6
CONTINUOUS
 62
     7
 48
25.4
100
AcDbLine
 10
70.7733430088
 20
196.905931325
 30
0.0
 11
66.7384435121
 21
197.0468331203
 31
0.0
  0
ARC
  5
8B
330
7D
100
AcDbEntity
  8
MEGA_001422
  6
CONTINUOUS
 62
     7
 48
25.4
100
AcDbCircle
 10
70.7558932605
 20
196.4062359115
 30
0.0
 40
0.5
100
AcDbArc
 50
0.0
 51
88.0
  0
ARC
  5
8C
330
7D
100
AcDbEntity
  8
MEGA_001422
  6
CONTINUOUS
 62
     7
 48
25.4
100
AcDbCircle
 10
66.7558932605
 20
189.580839759
 30
0.0
 40
0.5
100
AcDbArc
 50
92.0
 51
180.0
  0
ARC
  5
8D
330
7D
100
AcDbEntity
  8
MEGA_001422
  6
CONTINUOUS
 62
     7
 48
25.4
100
AcDbCircle
 10
66.7558932605
 20
182.080839759
 30
0.0
 40
0.5
100
AcDbArc
 50
92.0
 51
180.0
  0
ARC
  5
8E
330
7D
100
AcDbEntity
  8
MEGA_001422
  6
CONTINUOUS
 62
     7
 48
25.4
100
AcDbCircle
 10
70.7558932605
 20
190.7211323813
 30
0.0
 40
0.5
100
AcDbArc
 50
272.0
 51
360.0
  0
ARC
  5
8F
330
7D
100
AcDbEntity
  8
MEGA_001422
  6
CONTINUOUS
 62
     7
 48
25.4
100
AcDbCircle
 10
66.7558932605
 20
197.5465285338
 30
0.0
 40
0.5
100
AcDbArc
 50
180.0
 51
268.0
  0
ARC
  5
90
330
7D
100
AcDbEntity
  8
MEGA_001422
  6
CONTINUOUS
 62
     7
 48
25.4
100
AcDbCircle
 10
66.7558932605
 20
205.0465285338
 30
0.0
 40
0.5
100
AcDbArc
 50
180.0
 51
268.0
  0
LINE
  5
91
330
7D
100
AcDbEntity
  8
MEGA_001422
  6
CONTINUOUS
 62
     7
 48
25.4
100
AcDbLine
 10
59.7558932605
 20
204.4589218379
 30
0.0
 11
59.755588674
 21
204.4589112015
 31
0.0
  0
ARC
  5
92
330
7D
100
AcDbEntity
  8
MEGA_001422
  6
CONTINUOUS
 62
     7
 48
25.4
100
AcDbCircle
 10
70.2558932605
 20
183.7039767687
 30
0.0
 40
1.0
100
AcDbArc
 50
272.0
 51
360.0
  0
LINE
  5
93
330
7D
100
AcDbEntity
  8
MEGA_001422
  6
CONTINUOUS
 62
     7
 48
25.4
100
AcDbLine
 10
59.755588674
 20
182.6684570913
 30
0.0
 11
59.7558932605
 21
182.6684464549
 31
0.0
  0
ARC
  5
94
330
7D
100
AcDbEntity
  8
MEGA_001422
  6
CONTINUOUS
 62
     7
 48
25.4
100
AcDbCircle
 10
70.2558932605
 20
203.4233915241
 30
0.0
 40
1.0
100
AcDbArc
 50
0.0
 51
88.0
  0
LINE
  5
95
330
7D
100
AcDbEntity
  8
MEGA_001422
  6
CONTINUOUS
 62
     7
 48
25.4
100
AcDbLine
 10
66.7384435121
 20
182.5805351725
 30
0.0
 11
70.2907927572
 21
182.7045859416
 31
0.0
  0
LINE
  5
96
330
7D
100
AcDbEntity
  8
MEGA_001422
  6
CONTINUOUS
 62
     7
 48
25.4
100
AcDbLine
 10
71.2558932605
 20
190.7211323813
 30
0.0
 11
71.2558932605
 21
196.4062359115
 31
0.0
  0
LINE
  5
97
330
7D
100
AcDbEntity
  8
MEGA_001422
  6
CONTINUOUS
 62
     7
 48
25.4
100
AcDbLine
 10
59.755588674
 20
204.4589112015
 30
0.0
 11
59.2558932605
 21
203.959215788
 31
0.0
  0
LINE
  5
98
330
7D
100
AcDbEntity
  8
MEGA_001422
  6
CONTINUOUS
 62
     7
 48
25.4
100
AcDbLine
 10
70.2907927572
 20
204.4227823512
 30
0.0
 11
66.7384435121
 21
204.5468331203
 31
0.0
  0
LINE
  5
99
330
7D
100
AcDbEntity
  8
MEGA_001422
  6
CONTINUOUS
 62
     7
 48
25.4
100
AcDbLine
 10
59.2558932605
 20
183.1681525048
 30
0.0
 11
59.755588674
 21
182.6684570913
 31
0.0
  0
LINE
  5
9A
330
7D
100
AcDbEntity
  8
STANDARD
  6
CONTINUOUS
 62
     7
 48
25.4
100
AcDbLine
 10
64.2558932605
 20
167.7386614735
 30
0.0
 11
66.2558932605
 21
167.5636841464
 31
0.0
  0
LINE
  5
9B
330
7D
100
AcDbEntity
  8
STANDARD
  6
CONTINUOUS
 62
     7
 48
25.4
100
AcDbLine
 10
66.2558932605
 20
167.6841555572
 30
0.0
 11
66.2558932605
 21
167.5636841464
 31
0.0
  0
ENDBLK
  5
9D
330
7D
100
AcDbEntity
  8
0
100
AcDbBlockEnd
  0
BLOCK
  5
A6
330
9E
100
AcDbEntity
  8
0
100
AcDbBlockBegin
  2
SE8
 70
     0
 71
     0
 10
0.0
 20
0.0
 30
0.0
  3
SE8
  1

  0
POLYLINE
  5
A0
330
9E
100
AcDbEntity
  8
STANDARD
  6
CONTINUOUS
 62
     7
 48
25.4
100
AcDb2dPolyline
 66
     1
 10
0.0
 20
0.0
 30
0.0
 70
     1
  0
VERTEX
  5
DE
330
A0
100
AcDbEntity
  8
STANDARD
  6
CONTINUOUS
 62
     7
100
AcDbVertex
100
AcDb2dVertex
 10
166.2946983893
 20
198.5636858807
 30
0.0
  0
VERTEX
  5
DF
330
A0
100
AcDbEntity
  8
STANDARD
  6
CONTINUOUS
 62
     7
100
AcDbVertex
100
AcDb2dVertex
 10
165.7946982538
 20
201.5636858849
 30
0.0
  0
VERTEX
  5
E0
330
A0
100
AcDbEntity
  8
STANDARD
  6
CONTINUOUS
 62
     7
100
AcDbVertex
100
AcDb2dVertex
 10
165.2946983806
 20
198.563685837
 30
0.0
  0
VERTEX
  5
E1
330
A0
100
AcDbEntity
  8
STANDARD
  6
CONTINUOUS
 62
     7
100
AcDbVertex
100
AcDb2dVertex
 10
166.2946983893
 20
198.5636858807
 30
0.0
  0
SEQEND
  5
DD
330
A0
100
AcDbEntity
  8
STANDARD
  6
CONTINUOUS
 62
     7
 48
25.4
  0
LINE
  5
A1
330
9E
100
AcDbEntity
  8
STANDARD
  6
CONTINUOUS
 62
     7
 48
25.4
100
AcDbLine
 10
126.0227546687
 20
185.5636841464
 30
0.0
 11
167.2946989662
 21
185.5636859505
 31
0.0
  0
LINE
  5
A2
330
9E
100
AcDbEntity
  8
STANDARD
  6
CONTINUOUS
 62
     7
 48
25.4
100
AcDbLine
 10
126.0227539694
 20
201.5636841464
 30
0.0
 11
167.2946982668
 21
201.5636859505
 31
0.0
  0
LINE
  5
A3
330
9E
100
AcDbEntity
  8
STANDARD
  6
CONTINUOUS
 62
     7
 48
25.4
100
AcDbLine
 10
165.7946989532
 20
185.5636858849
 30
0.0
 11
165.7946982538
 21
201.5636866448
 31
0.0
  0
TEXT
  5
A5
330
9E
100
AcDbEntity
  8
STANDARD
  6
CONTINUOUS
 62
     7
 48
25.4
100
AcDbText
 10
165.0446986035
 20
192.0295953558
 30
0.0
 40
3.0
  1
16
 50
90.0
  7
SEACAD_SEISO_TTF
 11
162.0446986035
 21
192.0295953558
 31
0.0
100
AcDbText
 73
     3
  0
ENDBLK
  5
A7
330
9E
100
AcDbEntity
  8
0
100
AcDbBlockEnd
  0
BLOCK
  5
B2
330
A8
100
AcDbEntity
  8
0
100
AcDbBlockBegin
  2
SE9
 70
     0
 71
     0
 10
0.0
 20
0.0
 30
0.0
  3
SE9
  1

  0
POLYLINE
  5
AA
330
A8
100
AcDbEntity
  8
STANDARD
  6
CONTINUOUS
 62
     7
 48
25.4
100
AcDb2dPolyline
 66
     1
 10
0.0
 20
0.0
 30
0.0
 70
     1
  0
VERTEX
  5
E3
330
AA
100
AcDbEntity
  8
STANDARD
  6
CONTINUOUS
 62
     7
100
AcDbVertex
100
AcDb2dVertex
 10
84.6486339317
 20
216.5636841203
 30
0.0
  0
VERTEX
  5
E4
330
AA
100
AcDbEntity
  8
STANDARD
  6
CONTINUOUS
 62
     7
100
AcDbVertex
100
AcDb2dVertex
 10
84.1486339273
 20
219.5636841464
 30
0.0
  0
VERTEX
  5
E5
330
AA
100
AcDbEntity
  8
STANDARD
  6
CONTINUOUS
 62
     7
100
AcDbVertex
100
AcDb2dVertex
 10
83.648633923
 20
216.5636841203
 30
0.0
  0
VERTEX
  5
E6
330
AA
100
AcDbEntity
  8
STANDARD
  6
CONTINUOUS
 62
     7
100
AcDbVertex
100
AcDb2dVertex
 10
84.6486339317
 20
216.5636841203
 30
0.0
  0
SEQEND
  5
E2
330
AA
100
AcDbEntity
  8
STANDARD
  6
CONTINUOUS
 62
     7
 48
25.4
  0
POLYLINE
  5
AB
330
A8
100
AcDbEntity
  8
STANDARD
  6
CONTINUOUS
 62
     7
 48
25.4
100
AcDb2dPolyline
 66
     1
 10
0.0
 20
0.0
 30
0.0
 70
     1
  0
VERTEX
  5
E8
330
AB
100
AcDbEntity
  8
STANDARD
  6
CONTINUOUS
 62
     7
100
AcDbVertex
100
AcDb2dVertex
 10
84.6486339317
 20
170.5636841725
 30
0.0
  0
VERTEX
  5
E9
330
AB
100
AcDbEntity
  8
STANDARD
  6
CONTINUOUS
 62
     7
100
AcDbVertex
100
AcDb2dVertex
 10
84.1486339273
 20
167.5636841464
 30
0.0
  0
VERTEX
  5
EA
330
AB
100
AcDbEntity
  8
STANDARD
  6
CONTINUOUS
 62
     7
100
AcDbVertex
100
AcDb2dVertex
 10
83.648633923
 20
170.5636841725
 30
0.0
  0
VERTEX
  5
EB
330
AB
100
AcDbEntity
  8
STANDARD
  6
CONTINUOUS
 62
     7
100
AcDbVertex
100
AcDb2dVertex
 10
84.6486339317
 20
170.5636841725
 30
0.0
  0
SEQEND
  5
E7
330
AB
100
AcDbEntity
  8
STANDARD
  6
CONTINUOUS
 62
     7
 48
25.4
  0
LINE
  5
AC
330
A8
100
AcDbEntity
  8
STANDARD
  6
CONTINUOUS
 62
     7
 48
25.4
100
AcDbLine
 10
66.2558932605
 20
219.5636841464
 30
0.0
 11
85.6486339404
 21
219.5636841464
 31
0.0
  0
LINE
  5
AD
330
A8
100
AcDbEntity
  8
STANDARD
  6
CONTINUOUS
 62
     7
 48
25.4
100
AcDbLine
 10
66.2558932605
 20
167.5636841464
 30
0.0
 11
85.6486339404
 21
167.5636841464
 31
0.0
  0
LINE
  5
AE
330
A8
100
AcDbEntity
  8
STANDARD
  6
CONTINUOUS
 62
     7
 48
25.4
100
AcDbLine
 10
84.1486339273
 20
219.5636841464
 30
0.0
 11
84.1486339273
 21
167.5636830735
 31
0.0
  0
TEXT
  5
AF
330
A8
100
AcDbEntity
  8
STANDARD
  6
CONTINUOUS
 62
     7
 48
25.4
100
AcDbText
 10
83.3986339273
 20
193.6112620141
 30
0.0
 40
3.0
  1
52
 50
90.0
  7
SEACAD_SEISO_TTF
 11
80.3986339273
 21
193.6112620141
 31
0.0
100
AcDbText
 73
     3
  0
TEXT
  5
B1
330
A8
100
AcDbEntity
  8
STANDARD
  6
CONTINUOUS
 62
     7
 48
25.4
100
AcDbText
 10
83.3986339273
 20
189.9706506604
 30
0.0
 40
3.0
  1
O
 50
90.0
  7
SEACAD_SEMECI1_TTF
 11
80.3986339273
 21
189.9706506604
 31
0.0
100
AcDbText
 73
     3
  0
ENDBLK
  5
B3
330
A8
100
AcDbEntity
  8
0
100
AcDbBlockEnd
  0
BLOCK
  5
BD
330
B4
100
AcDbEntity
  8
0
100
AcDbBlockBegin
  2
SE10
 70
     0
 71
     0
 10
0.0
 20
0.0
 30
0.0
  3
SE10
  1

  0
POLYLINE
  5
B6
330
B4
100
AcDbEntity
  8
STANDARD
  6
CONTINUOUS
 62
     7
 48
25.4
100
AcDb2dPolyline
 66
     1
 10
0.0
 20
0.0
 30
0.0
 70
     1
  0
VERTEX
  5
ED
330
B6
100
AcDbEntity
  8
STANDARD
  6
CONTINUOUS
 62
     7
100
AcDbVertex
100
AcDb2dVertex
 10
100.6973581404
 20
143.7786864557
 30
0.0
  0
VERTEX
  5
EE
330
B6
100
AcDbEntity
  8
STANDARD
  6
CONTINUOUS
 62
     7
100
AcDbVertex
100
AcDb2dVertex
 10
103.6973581665
 20
143.2786864513
 30
0.0
  0
VERTEX
  5
EF
330
B6
100
AcDbEntity
  8
STANDARD
  6
CONTINUOUS
 62
     7
100
AcDbVertex
100
AcDb2dVertex
 10
100.6973581404
 20
142.778686447
 30
0.0
  0
VERTEX
  5
F0
330
B6
100
AcDbEntity
  8
STANDARD
  6
CONTINUOUS
 62
     7
100
AcDbVertex
100
AcDb2dVertex
 10
100.6973581404
 20
143.7786864557
 30
0.0
  0
SEQEND
  5
EC
330
B6
100
AcDbEntity
  8
STANDARD
  6
CONTINUOUS
 62
     7
 48
25.4
  0
POLYLINE
  5
B7
330
B4
100
AcDbEntity
  8
STANDARD
  6
CONTINUOUS
 62
     7
 48
25.4
100
AcDb2dPolyline
 66
     1
 10
0.0
 20
0.0
 30
0.0
 70
     1
  0
VERTEX
  5
F2
330
B7
100
AcDbEntity
  8
STANDARD
  6
CONTINUOUS
 62
     7
100
AcDbVertex
100
AcDb2dVertex
 10
113.3481504977
 20
143.7786864557
 30
0.0
  0
VERTEX
  5
F3
330
B7
100
AcDbEntity
  8
STANDARD
  6
CONTINUOUS
 62
     7
100
AcDbVertex
100
AcDb2dVertex
 10
110.3481504716
 20
143.2786864513
 30
0.0
  0
VERTEX
  5
F4
330
B7
100
AcDbEntity
  8
STANDARD
  6
CONTINUOUS
 62
     7
100
AcDbVertex
100
AcDb2dVertex
 10
113.3481504977
 20
142.778686447
 30
0.0
  0
VERTEX
  5
F5
330
B7
100
AcDbEntity
  8
STANDARD
  6
CONTINUOUS
 62
     7
100
AcDbVertex
100
AcDb2dVertex
 10
113.3481504977
 20
143.7786864557
 30
0.0
  0
SEQEND
  5
F1
330
B7
100
AcDbEntity
  8
STANDARD
  6
CONTINUOUS
 62
     7
 48
25.4
  0
LINE
  5
B8
330
B4
100
AcDbEntity
  8
STANDARD
  6
CONTINUOUS
 62
     7
 48
25.4
100
AcDbLine
 10
103.6973581665
 20
136.2115709396
 30
0.0
 11
103.6973581665
 21
144.7786864643
 31
0.0
  0
LINE
  5
B9
330
B4
100
AcDbEntity
  8
STANDARD
  6
CONTINUOUS
 62
     7
 48
25.4
100
AcDbLine
 10
110.3481504716
 20
136.2115709396
 30
0.0
 11
110.3481504716
 21
144.7786864643
 31
0.0
  0
LINE
  5
BA
330
B4
100
AcDbEntity
  8
STANDARD
  6
CONTINUOUS
 62
     7
 48
25.4
100
AcDbLine
 10
92.6806251534
 20
143.2786864513
 30
0.0
 11
116.3481506535
 21
143.2786864513
 31
0.0
  0
TEXT
  5
BB
330
B4
100
AcDbEntity
  8
STANDARD
  6
CONTINUOUS
 62
     7
 48
25.4
100
AcDbText
 10
97.3712369628
 20
144.0286864513
 30
0.0
 40
3.0
  1
7
  7
SEACAD_SEISO_TTF
 11
97.3712369628
 21
147.0286864513
 31
0.0
100
AcDbText
 73
     3
  0
TEXT
  5
BC
330
B4
100
AcDbEntity
  8
STANDARD
  6
CONTINUOUS
 62
     7
 48
25.4
100
AcDbText
 10
93.7306256091
 20
144.0286864513
 30
0.0
 40
3.0
  1
O
  7
SEACAD_SEMECI1_TTF
 11
93.7306256091
 21
147.0286864513
 31
0.0
100
AcDbText
 73
     3
  0
ENDBLK
  5
BE
330
B4
100
AcDbEntity
  8
0
100
AcDbBlockEnd
  0
BLOCK
  5
C7
330
BF
100
AcDbEntity
  8
0
100
AcDbBlockBegin
  2
SE11
 70
     0
 71
     0
 10
0.0
 20
0.0
 30
0.0
  3
SE11
  1

  0
POLYLINE
  5
C1
330
BF
100
AcDbEntity
  8
STANDARD
  6
CONTINUOUS
 62
     7
 48
25.4
100
AcDb2dPolyline
 66
     1
 10
0.0
 20
0.0
 30
0.0
 70
     1
  0
VERTEX
  5
F7
330
C1
100
AcDbEntity
  8
STANDARD
  6
CONTINUOUS
 62
     7
100
AcDbVertex
100
AcDb2dVertex
 10
110.0227543451
 20
153.3143963173
 30
0.0
  0
VERTEX
  5
F8
330
C1
100
AcDbEntity
  8
STANDARD
  6
CONTINUOUS
 62
     7
100
AcDbVertex
100
AcDb2dVertex
 10
107.0227543191
 20
152.814396313
 30
0.0
  0
VERTEX
  5
F9
330
C1
100
AcDbEntity
  8
STANDARD
  6
CONTINUOUS
 62
     7
100
AcDbVertex
100
AcDb2dVertex
 10
110.0227543451
 20
152.3143963086
 30
0.0
  0
VERTEX
  5
FA
330
C1
100
AcDbEntity
  8
STANDARD
  6
CONTINUOUS
 62
     7
100
AcDbVertex
100
AcDb2dVertex
 10
110.0227543451
 20
153.3143963173
 30
0.0
  0
SEQEND
  5
F6
330
C1
100
AcDbEntity
  8
STANDARD
  6
CONTINUOUS
 62
     7
 48
25.4
  0
POLYLINE
  5
C2
330
BF
100
AcDbEntity
  8
STANDARD
  6
CONTINUOUS
 62
     7
 48
25.4
100
AcDb2dPolyline
 66
     1
 10
0.0
 20
0.0
 30
0.0
 70
     1
  0
VERTEX
  5
FC
330
C2
100
AcDbEntity
  8
STANDARD
  6
CONTINUOUS
 62
     7
100
AcDbVertex
100
AcDb2dVertex
 10
142.022754293
 20
153.3143963173
 30
0.0
  0
VERTEX
  5
FD
330
C2
100
AcDbEntity
  8
STANDARD
  6
CONTINUOUS
 62
     7
100
AcDbVertex
100
AcDb2dVertex
 10
145.0227543191
 20
152.814396313
 30
0.0
  0
VERTEX
  5
FE
330
C2
100
AcDbEntity
  8
STANDARD
  6
CONTINUOUS
 62
     7
100
AcDbVertex
100
AcDb2dVertex
 10
142.022754293
 20
152.3143963086
 30
0.0
  0
VERTEX
  5
FF
330
C2
100
AcDbEntity
  8
STANDARD
  6
CONTINUOUS
 62
     7
100
AcDbVertex
100
AcDb2dVertex
 10
142.022754293
 20
153.3143963173
 30
0.0
  0
SEQEND
  5
FB
330
C2
100
AcDbEntity
  8
STANDARD
  6
CONTINUOUS
 62
     7
 48
25.4
  0
LINE
  5
C3
330
BF
100
AcDbEntity
  8
STANDARD
  6
CONTINUOUS
 62
     7
 48
25.4
100
AcDbLine
 10
107.0227543191
 20
149.2784522758
 30
0.0
 11
107.0227543191
 21
154.314396326
 31
0.0
  0
LINE
  5
C4
330
BF
100
AcDbEntity
  8
STANDARD
  6
CONTINUOUS
 62
     7
 48
25.4
100
AcDbLine
 10
145.0227543191
 20
151.6127722622
 30
0.0
 11
145.0227543191
 21
154.314396326
 31
0.0
  0
LINE
  5
C5
330
BF
100
AcDbEntity
  8
STANDARD
  6
CONTINUOUS
 62
     7
 48
25.4
100
AcDbLine
 10
107.0227543191
 20
152.814396313
 30
0.0
 11
145.0227530972
 21
152.814396313
 31
0.0
  0
TEXT
  5
C6
330
BF
100
AcDbEntity
  8
STANDARD
  6
CONTINUOUS
 62
     7
 48
25.4
100
AcDbText
 10
124.2841173445
 20
153.564396313
 30
0.0
 40
3.0
  1
38
  7
SEACAD_SEISO_TTF
 11
124.2841173445
 21
156.564396313
 31
0.0
100
AcDbText
 73
     3
  0
ENDBLK
  5
C8
330
BF
100
AcDbEntity
  8
0
100
AcDbBlockEnd
  0
BLOCK
  5
D1
330
C9
100
AcDbEntity
  8
0
100
AcDbBlockBegin
  2
SE12
 70
     0
 71
     0
 10
0.0
 20
0.0
 30
0.0
  3
SE12
  1

  0
CIRCLE
  5
CB
330
C9
100
AcDbEntity
  8
STANDARD
  6
CONTINUOUS
 62
     7
 48
25.4
100
AcDbCircle
 10
88.9462145642
 20
131.2115709396
 30
0.0
 40
1.000000008692339
  0
POLYLINE
  5
CC
330
C9
100
AcDbEntity
  8
STANDARD
  6
CONTINUOUS
 62
     7
 48
25.4
100
AcDb2dPolyline
 66
     1
 10
0.0
 20
0.0
 30
0.0
 70
     1
  0
VERTEX
  5
101
330
CC
100
AcDbEntity
  8
STANDARD
  6
CONTINUOUS
 62
     7
100
AcDbVertex
100
AcDb2dVertex
 10
88.4462145598
 20
139.2115709656
 30
0.0
  0
VERTEX
  5
102
330
CC
100
AcDbEntity
  8
STANDARD
  6
CONTINUOUS
 62
     7
100
AcDbVertex
100
AcDb2dVertex
 10
88.9462145642
 20
136.2115709396
 30
0.0
  0
VERTEX
  5
103
330
CC
100
AcDbEntity
  8
STANDARD
  6
CONTINUOUS
 62
     7
100
AcDbVertex
100
AcDb2dVertex
 10
89.4462145685
 20
139.2115709656
 30
0.0
  0
VERTEX
  5
104
330
CC
100
AcDbEntity
  8
STANDARD
  6
CONTINUOUS
 62
     7
100
AcDbVertex
100
AcDb2dVertex
 10
88.4462145598
 20
139.2115709656
 30
0.0
  0
SEQEND
  5
100
330
CC
100
AcDbEntity
  8
STANDARD
  6
CONTINUOUS
 62
     7
 48
25.4
  0
LINE
  5
CD
330
C9
100
AcDbEntity
  8
STANDARD
  6
CONTINUOUS
 62
     7
 48
25.4
100
AcDbLine
 10
100.0227543191
 20
131.2115709396
 30
0.0
 11
87.4462145512
 21
131.2115709396
 31
0.0
  0
LINE
  5
CE
330
C9
100
AcDbEntity
  8
STANDARD
  6
CONTINUOUS
 62
     7
 48
25.4
100
AcDbLine
 10
104.1802025539
 20
136.2115709396
 30
0.0
 11
87.4462145512
 21
136.2115709396
 31
0.0
  0
LINE
  5
CF
330
C9
100
AcDbEntity
  8
STANDARD
  6
CONTINUOUS
 62
     7
 48
25.4
100
AcDbLine
 10
88.9462145642
 20
125.2115708874
 30
0.0
 11
88.9462145642
 21
142.21157088
 31
0.0
  0
TEXT
  5
D0
330
C9
100
AcDbEntity
  8
STANDARD
  6
CONTINUOUS
 62
     7
 48
25.4
100
AcDbText
 10
88.1962145642
 20
132.8592981564
 30
0.0
 40
3.0
  1
5
 50
90.0
  7
SEACAD_SEISO_TTF
 11
85.1962145642
 21
132.8592981564
 31
0.0
100
AcDbText
 73
     3
  0
ENDBLK
  5
D2
330
C9
100
AcDbEntity
  8
0
100
AcDbBlockEnd
  0
BLOCK
  5
DB
330
D3
100
AcDbEntity
  8
0
100
AcDbBlockBegin
  2
SE13
 70
     0
 71
     0
 10
0.0
 20
0.0
 30
0.0
  3
SE13
  1

  0
CIRCLE
  5
D5
330
D3
100
AcDbEntity
  8
STANDARD
  6
CONTINUOUS
 62
     7
 48
25.4
100
AcDbCircle
 10
88.9462145642
 20
131.2115709396
 30
0.0
 40
1.000000008692339
  0
POLYLINE
  5
D6
330
D3
100
AcDbEntity
  8
STANDARD
  6
CONTINUOUS
 62
     7
 48
25.4
100
AcDb2dPolyline
 66
     1
 10
0.0
 20
0.0
 30
0.0
 70
     1
  0
VERTEX
  5
106
330
D6
100
AcDbEntity
  8
STANDARD
  6
CONTINUOUS
 62
     7
100
AcDbVertex
100
AcDb2dVertex
 10
88.4462145598
 20
121.7115709135
 30
0.0
  0
VERTEX
  5
107
330
D6
100
AcDbEntity
  8
STANDARD
  6
CONTINUOUS
 62
     7
100
AcDbVertex
100
AcDb2dVertex
 10
88.9462145642
 20
124.7115709396
 30
0.0
  0
VERTEX
  5
108
330
D6
100
AcDbEntity
  8
STANDARD
  6
CONTINUOUS
 62
     7
100
AcDbVertex
100
AcDb2dVertex
 10
89.4462145685
 20
121.7115709135
 30
0.0
  0
VERTEX
  5
109
330
D6
100
AcDbEntity
  8
STANDARD
  6
CONTINUOUS
 62
     7
100
AcDbVertex
100
AcDb2dVertex
 10
88.4462145598
 20
121.7115709135
 30
0.0
  0
SEQEND
  5
105
330
D6
100
AcDbEntity
  8
STANDARD
  6
CONTINUOUS
 62
     7
 48
25.4
  0
LINE
  5
D7
330
D3
100
AcDbEntity
  8
STANDARD
  6
CONTINUOUS
 62
     7
 48
25.4
100
AcDbLine
 10
100.0227543191
 20
131.2115709396
 30
0.0
 11
87.4462145512
 21
131.2115709396
 31
0.0
  0
LINE
  5
D8
330
D3
100
AcDbEntity
  8
STANDARD
  6
CONTINUOUS
 62
     7
 48
25.4
100
AcDbLine
 10
104.256755328
 20
124.7115709396
 30
0.0
 11
87.4462145512
 21
124.7115709396
 31
0.0
  0
LINE
  5
D9
330
D3
100
AcDbEntity
  8
STANDARD
  6
CONTINUOUS
 62
     7
 48
25.4
100
AcDbLine
 10
88.9462145642
 20
137.2115709917
 30
0.0
 11
88.9462145642
 21
118.7115707533
 31
0.0
  0
TEXT
  5
DA
330
D3
100
AcDbEntity
  8
STANDARD
  6
CONTINUOUS
 62
     7
 48
25.4
100
AcDbText
 10
88.1962145642
 20
125.9161163271
 30
0.0
 40
3.0
  1
6,5
 50
90.0
  7
SEACAD_SEISO_TTF
 11
85.1962145642
 21
125.9161163271
 31
0.0
100
AcDbText
 73
     3
  0
ENDBLK
  5
DC
330
D3
100
AcDbEntity
  8
0
100
AcDbBlockEnd
  0
ENDSEC
  0
SECTION
  2
ENTITIES
  0
INSERT
  5
2F
330
1F
100
AcDbEntity
  8
0
100
AcDbBlockReference
  2
SE
 10
0.0
 20
0.0
 30
0.0
  0
INSERT
  5
3B
330
1F
100
AcDbEntity
  8
0
100
AcDbBlockReference
  2
SE1
 10
0.0
 20
0.0
 30
0.0
  0
INSERT
  5
40
330
1F
100
AcDbEntity
  8
0
100
AcDbBlockReference
  2
SE2
 10
0.0
 20
0.0
 30
0.0
  0
INSERT
  5
45
330
1F
100
AcDbEntity
  8
0
100
AcDbBlockReference
  2
SE3
 10
0.0
 20
0.0
 30
0.0
  0
INSERT
  5
4A
330
1F
100
AcDbEntity
  8
0
100
AcDbBlockReference
  2
SE4
 10
0.0
 20
0.0
 30
0.0
  0
INSERT
  5
4F
330
1F
100
AcDbEntity
  8
0
100
AcDbBlockReference
  2
SE5
 10
0.0
 20
0.0
 30
0.0
  0
INSERT
  5
59
330
1F
100
AcDbEntity
  8
0
100
AcDbBlockReference
  2
SE6
 10
0.0
 20
0.0
 30
0.0
  0
INSERT
  5
7E
330
1F
100
AcDbEntity
  8
0
100
AcDbBlockReference
  2
SE7
 10
0.0
 20
0.0
 30
0.0
  0
INSERT
  5
9F
330
1F
100
AcDbEntity
  8
0
100
AcDbBlockReference
  2
SE8
 10
0.0
 20
0.0
 30
0.0
  0
INSERT
  5
A9
330
1F
100
AcDbEntity
  8
0
100
AcDbBlockReference
  2
SE9
 10
0.0
 20
0.0
 30
0.0
  0
INSERT
  5
B5
330
1F
100
AcDbEntity
  8
0
100
AcDbBlockReference
  2
SE10
 10
0.0
 20
0.0
 30
0.0
  0
INSERT
  5
C0
330
1F
100
AcDbEntity
  8
0
100
AcDbBlockReference
  2
SE11
 10
0.0
 20
0.0
 30
0.0
  0
INSERT
  5
CA
330
1F
100
AcDbEntity
  8
0
100
AcDbBlockReference
  2
SE12
 10
0.0
 20
0.0
 30
0.0
  0
INSERT
  5
D4
330
1F
100
AcDbEntity
  8
0
100
AcDbBlockReference
  2
SE13
 10
0.0
 20
0.0
 30
0.0
  0
ENDSEC
  0
SECTION
  2
OBJECTS
  0
DICTIONARY
  5
C
330
0
100
AcDbDictionary
  3
ACAD_GROUP
350
D
  3
ACAD_LAYOUT
350
1A
  3
ACAD_MLINESTYLE
350
17
  3
ACAD_PLOTSETTINGS
350
19
  3
ACAD_TABLESTYLE
350
2A
  3
ACDBVARIABLEDICTIONARY
350
2C
1001
ACAD
1000
TREAT_AS_HARD
1070
     0
  0
DICTIONARY
  5
10A
330
29
100
AcDbDictionary
  3
ACAD_XREC_ROUNDTRIP
360
10B
  0
DICTIONARY
  5
D
102
{ACAD_REACTORS
330
C
102
}
330
C
100
AcDbDictionary
1001
ACAD
1000
TREAT_AS_HARD
1070
     0
  0
DICTIONARY
  5
1A
102
{ACAD_REACTORS
330
C
102
}
330
C
100
AcDbDictionary
1001
ACAD
1000
TREAT_AS_HARD
1070
     0
  0
DICTIONARY
  5
17
102
{ACAD_REACTORS
330
C
102
}
330
C
100
AcDbDictionary
  3
STANDARD
350
18
1001
ACAD
1000
TREAT_AS_HARD
1070
     0
  0
DICTIONARY
  5
19
102
{ACAD_REACTORS
330
C
102
}
330
C
100
AcDbDictionary
1001
ACAD
1000
TREAT_AS_HARD
1070
     0
  0
DICTIONARY
  5
2A
102
{ACAD_REACTORS
330
C
102
}
330
C
100
AcDbDictionary
  3
STANDARD
350
2B
1001
ACAD
1000
TREAT_AS_HARD
1070
     0
  0
DICTIONARY
  5
2C
102
{ACAD_REACTORS
330
C
102
}
330
C
100
AcDbDictionary
  3
CTABLESTYLE
350
2D
1001
ACAD
1000
TREAT_AS_HARD
1070
     0
  0
XRECORD
  5
10B
102
{ACAD_REACTORS
330
10A
102
}
330
10A
100
AcDbXrecord
102
UCS
 74
     0
 71
     1
 10
0.0
 20
0.0
 30
0.0
 10
1.0
 20
0.0
 30
0.0
 10
0.0
 20
1.0
 30
0.0
146
0.0
 79
     0
102
VIEW
281
     0
  0
MLINESTYLE
  5
18
102
{ACAD_REACTORS
330
17
102
}
330
17
100
AcDbMlineStyle
  2
Standard
 70
     0
  3

 62
   256
 51
90.0
 52
90.0
 71
     2
 49
0.5
 62
   256
  6
BYLAYER
 49
-0.5
 62
   256
  6
BYLAYER
  0
TABLESTYLE
  5
2B
102
{ACAD_REACTORS
330
2A
102
}
330
2A
100
AcDbTableStyle
  3
Standard
 70
     0
 71
     0
 40
0.06
 41
0.06
280
     0
281
     0
  7
STANDARD
140
0.18
170
     2
 62
     0
 63
     7
283
     0
274
    -2
284
     1
 64
     0
275
    -2
285
     1
 65
     0
276
    -2
286
     1
 66
     0
277
    -2
287
     1
 67
     0
278
    -2
288
     1
 68
     0
279
    -2
289
     1
 69
     0
  7
STANDARD
140
0.25
170
     5
 62
     0
 63
     7
283
     0
274
    -2
284
     1
 64
     0
275
    -2
285
     1
 65
     0
276
    -2
286
     1
 66
     0
277
    -2
287
     1
 67
     0
278
    -2
288
     1
 68
     0
279
    -2
289
     1
 69
     0
  7
STANDARD
140
0.18
170
     5
 62
     0
 63
     7
283
     0
274
    -2
284
     1
 64
     0
275
    -2
285
     1
 65
     0
276
    -2
286
     1
 66
     0
277
    -2
287
     1
 67
     0
278
    -2
288
     1
 68
     0
279
    -2
289
     1
 69
     0
  0
DICTIONARYVAR
  5
2D
102
{ACAD_REACTORS
330
2C
102
}
330
2C
100
DictionaryVariables
280
     0
  1
Standard
  0
ENDSEC
  0
EOF
