  0
SECTION
  2
HEADER
  9
$ACADVER
  1
AC1012
  9
$DWGCODEPAGE
  3
ansi_1252
  9
$INSBASE
 10
0.0
 20
0.0
 30
0.0
  9
$EXTMIN
 10
0.0
 20
0.0
 30
0.0
  9
$EXTMAX
 10
210.0
 20
297.0
 30
0.0
  9
$LIMMIN
 10
0.0
 20
0.0
  9
$LIMMAX
 10
210.0
 20
297.0
  9
$ORTHOMODE
 70
     0
  9
$REGENMODE
 70
     1
  9
$FILLMODE
 70
     1
  9
$QTEXTMODE
 70
     0
  9
$MIRRTEXT
 70
     1
  9
$DRAGMODE
 70
     2
  9
$LTSCALE
 40
1.0
  9
$OSMODE
 70
    37
  9
$ATTMODE
 70
     1
  9
$TEXTSIZE
 40
0.2
  9
$TRACEWID
 40
0.05
  9
$TEXTSTYLE
  7
STANDARD
  9
$CLAYER
  8
0
  9
$CELTYPE
  6
BYLAYER
  9
$CECOLOR
 62
   256
  9
$CELTSCALE
 40
25.4
  9
$DELOBJ
 70
     1
  9
$DISPSILH
 70
     0
  9
$DIMSCALE
 40
1.0
  9
$DIMASZ
 40
0.18
  9
$DIMEXO
 40
0.0625
  9
$DIMDLI
 40
0.38
  9
$DIMRND
 40
0.0
  9
$DIMDLE
 40
0.0
  9
$DIMEXE
 40
0.18
  9
$DIMTP
 40
0.0
  9
$DIMTM
 40
0.0
  9
$DIMTXT
 40
0.18
  9
$DIMCEN
 40
0.09
  9
$DIMTSZ
 40
0.0
  9
$DIMTOL
 70
     0
  9
$DIMLIM
 70
     0
  9
$DIMTIH
 70
     1
  9
$DIMTOH
 70
     1
  9
$DIMSE1
 70
     0
  9
$DIMSE2
 70
     0
  9
$DIMTAD
 70
     0
  9
$DIMZIN
 70
     0
  9
$DIMBLK
  1

  9
$DIMASO
 70
     1
  9
$DIMSHO
 70
     1
  9
$DIMPOST
  1

  9
$DIMAPOST
  1

  9
$DIMALT
 70
     0
  9
$DIMALTD
 70
     2
  9
$DIMALTF
 40
25.4
  9
$DIMLFAC
 40
1.0
  9
$DIMTOFL
 70
     0
  9
$DIMTVP
 40
0.0
  9
$DIMTIX
 70
     0
  9
$DIMSOXD
 70
     0
  9
$DIMSAH
 70
     0
  9
$DIMBLK1
  1

  9
$DIMBLK2
  1

  9
$DIMSTYLE
  2
STANDARD
  9
$DIMCLRD
 70
     0
  9
$DIMCLRE
 70
     0
  9
$DIMCLRT
 70
     0
  9
$DIMTFAC
 40
1.0
  9
$DIMGAP
 40
0.09
  9
$DIMJUST
 70
     0
  9
$DIMSD1
 70
     0
  9
$DIMSD2
 70
     0
  9
$DIMTOLJ
 70
     1
  9
$DIMTZIN
 70
     0
  9
$DIMALTZ
 70
     0
  9
$DIMALTTZ
 70
     0
  9
$DIMFIT
 70
     3
  9
$DIMUPT
 70
     0
  9
$DIMUNIT
 70
     2
  9
$DIMDEC
 70
     4
  9
$DIMTDEC
 70
     4
  9
$DIMALTU
 70
     2
  9
$DIMALTTD
 70
     2
  9
$DIMTXSTY
  7
STANDARD
  9
$DIMAUNIT
 70
     0
  9
$LUNITS
 70
     2
  9
$LUPREC
 70
     4
  9
$SKETCHINC
 40
0.1
  9
$FILLETRAD
 40
0.5
  9
$AUNITS
 70
     0
  9
$AUPREC
 70
     0
  9
$MENU
  1
.
  9
$ELEVATION
 40
0.0
  9
$PELEVATION
 40
0.0
  9
$THICKNESS
 40
0.0
  9
$LIMCHECK
 70
     0
  9
$CHAMFERA
 40
0.5
  9
$CHAMFERB
 40
0.5
  9
$CHAMFERC
 40
1.0
  9
$CHAMFERD
 40
0.0
  9
$SKPOLY
 70
     0
  9
$TDCREATE
 40
2453762.542918947
  9
$TDUPDATE
 40
2453762.542918958
  9
$TDINDWG
 40
0.0000000116
  9
$TDUSRTIMER
 40
0.0000000116
  9
$USRTIMER
 70
     1
  9
$ANGBASE
 50
0.0
  9
$ANGDIR
 70
     0
  9
$PDMODE
 70
     0
  9
$PDSIZE
 40
0.0
  9
$PLINEWID
 40
0.0
  9
$COORDS
 70
     1
  9
$SPLFRAME
 70
     0
  9
$SPLINETYPE
 70
     6
  9
$SPLINESEGS
 70
     8
  9
$ATTDIA
 70
     0
  9
$ATTREQ
 70
     1
  9
$HANDLING
 70
     1
  9
$HANDSEED
  5
E2
  9
$SURFTAB1
 70
     6
  9
$SURFTAB2
 70
     6
  9
$SURFTYPE
 70
     6
  9
$SURFU
 70
     6
  9
$SURFV
 70
     6
  9
$UCSNAME
  2

  9
$UCSORG
 10
0.0
 20
0.0
 30
0.0
  9
$UCSXDIR
 10
1.0
 20
0.0
 30
0.0
  9
$UCSYDIR
 10
0.0
 20
1.0
 30
0.0
  9
$PUCSNAME
  2

  9
$PUCSORG
 10
0.0
 20
0.0
 30
0.0
  9
$PUCSXDIR
 10
1.0
 20
0.0
 30
0.0
  9
$PUCSYDIR
 10
0.0
 20
1.0
 30
0.0
  9
$USERI1
 70
     0
  9
$USERI2
 70
     0
  9
$USERI3
 70
     0
  9
$USERI4
 70
     0
  9
$USERI5
 70
     0
  9
$USERR1
 40
0.0
  9
$USERR2
 40
0.0
  9
$USERR3
 40
0.0
  9
$USERR4
 40
0.0
  9
$USERR5
 40
0.0
  9
$WORLDVIEW
 70
     1
  9
$SHADEDGE
 70
     3
  9
$SHADEDIF
 70
    70
  9
$TILEMODE
 70
     1
  9
$MAXACTVP
 70
    64
  9
$PINSBASE
 10
0.0
 20
0.0
 30
0.0
  9
$PLIMCHECK
 70
     0
  9
$PEXTMIN
 10
0.0
 20
0.0
 30
0.0
  9
$PEXTMAX
 10
210.0
 20
297.0
 30
0.0
  9
$PLIMMIN
 10
0.0
 20
0.0
  9
$PLIMMAX
 10
12.0
 20
9.0
  9
$UNITMODE
 70
     0
  9
$VISRETAIN
 70
     1
  9
$PLINEGEN
 70
     0
  9
$PSLTSCALE
 70
     1
  9
$TREEDEPTH
 70
  3020
  9
$PICKSTYLE
 70
     1
  9
$CMLSTYLE
  2
STANDARD
  9
$CMLJUST
 70
     0
  9
$CMLSCALE
 40
1.0
  9
$SAVEIMAGES
 70
     1
  0
ENDSEC
  0
SECTION
  2
CLASSES
  0
CLASS
  1
ACDBDICTIONARYWDFLT
  2
AcDbDictionaryWithDefault
  3
ObjectDBX Classes
 90
        0
280
     0
281
     0
  0
CLASS
  1
TABLESTYLE
  2
AcDbTableStyle
  3
ObjectDBX Classes
 90
     2047
280
     0
281
     0
  0
CLASS
  1
DICTIONARYVAR
  2
AcDbDictionaryVar
  3
ObjectDBX Classes
 90
        0
280
     0
281
     0
  0
CLASS
  1
XRECORD
  2
AcDbXrecord
  3
AutoCAD 2000
 90
    32768
280
     0
281
     0
  0
CLASS
  1
LWPOLYLINE
  2
AcDbPolyline
  3
AutoCAD 2000
 90
    32768
280
     0
281
     1
  0
CLASS
  1
HATCH
  2
AcDbHatch
  3
AutoCAD 2000
 90
    32768
280
     0
281
     1
  0
CLASS
  1
ACDBPLACEHOLDER
  2
AcDbPlaceHolder
  3
ObjectDBX Classes
 90
        0
280
     0
281
     0
  0
CLASS
  1
LAYOUT
  2
AcDbLayout
  3
ObjectDBX Classes
 90
        0
280
     0
281
     0
  0
ENDSEC
  0
SECTION
  2
TABLES
  0
TABLE
  2
VPORT
  5
8
330
0
100
AcDbSymbolTable
 70
     2
  0
VPORT
  5
29
102
{ACAD_XDICTIONARY
360
E0
102
}
330
8
100
AcDbSymbolTableRecord
100
AcDbViewportTableRecord
  2
*ACTIVE
 70
     0
 10
0.0
 20
0.0
 11
1.0
 21
1.0
 12
10.4299065421
 22
4.5
 13
0.0
 23
0.0
 14
0.5
 24
0.5
 15
0.5
 25
0.5
 16
0.0
 26
0.0
 36
1.0
 17
0.0
 27
0.0
 37
0.0
 40
9.0
 41
1.9729729729
 42
50.0
 43
0.0
 44
0.0
 50
0.0
 51
0.0
 71
     0
 72
   100
 73
     1
 74
     3
 75
     0
 76
     0
 77
     0
 78
     0
  0
ENDTAB
  0
TABLE
  2
LTYPE
  5
5
330
0
100
AcDbSymbolTable
 70
     2
  0
LTYPE
  5
14
330
5
100
AcDbSymbolTableRecord
100
AcDbLinetypeTableRecord
  2
BYBLOCK
 70
     0
  3

 72
    65
 73
     0
 40
0.0
  0
LTYPE
  5
15
330
5
100
AcDbSymbolTableRecord
100
AcDbLinetypeTableRecord
  2
BYLAYER
 70
     0
  3

 72
    65
 73
     0
 40
0.0
  0
LTYPE
  5
16
330
5
100
AcDbSymbolTableRecord
100
AcDbLinetypeTableRecord
  2
CONTINUOUS
 70
     0
  3
Solid line
 72
    65
 73
     0
 40
0.0
  0
LTYPE
  5
31
330
5
100
AcDbSymbolTableRecord
100
AcDbLinetypeTableRecord
  2
CENTER2
 70
     0
  3
___ _ ___ _ ___ _ ___ _ ___ _ ___ _ ___ _ ___ _
 72
    65
 73
     4
 40
1.125
 49
0.75
 74
     4
 75
     0
340
0
 46
0.0
 50
0.0
 44
0.0
 45
0.0
 49
-0.125
 74
     4
 75
     0
340
0
 46
0.0
 50
0.0
 44
0.0
 45
0.0
 49
0.125
 74
     4
 75
     0
340
0
 46
0.0
 50
0.0
 44
0.0
 45
0.0
 49
-0.125
 74
     4
 75
     0
340
0
 46
0.0
 50
0.0
 44
0.0
 45
0.0
  0
ENDTAB
  0
TABLE
  2
LAYER
  5
2
330
0
100
AcDbSymbolTable
 70
     4
  0
LAYER
  5
10
330
2
100
AcDbSymbolTableRecord
100
AcDbLayerTableRecord
  2
0
 70
     0
 62
     7
  6
CONTINUOUS
  0
LAYER
  5
30
330
2
100
AcDbSymbolTableRecord
100
AcDbLayerTableRecord
  2
STANDARD
 70
     0
 62
     7
  6
CONTINUOUS
  0
LAYER
  5
50
330
2
100
AcDbSymbolTableRecord
100
AcDbLayerTableRecord
  2
MEGA_001414
 70
     0
 62
     7
  6
CONTINUOUS
  0
LAYER
  5
63
330
2
100
AcDbSymbolTableRecord
100
AcDbLayerTableRecord
  2
MEGA_001429
 70
     0
 62
     7
  6
CONTINUOUS
  0
ENDTAB
  0
TABLE
  2
STYLE
  5
3
330
0
100
AcDbSymbolTable
 70
     3
  0
STYLE
  5
11
330
3
100
AcDbSymbolTableRecord
100
AcDbTextStyleTableRecord
  2
STANDARD
 70
     0
 40
0.0
 41
1.0
 50
0.0
 71
     0
 42
0.2
  3
txt
  4

  0
STYLE
  5
8E
330
3
100
AcDbSymbolTableRecord
100
AcDbTextStyleTableRecord
  2
SEACAD_SEISO_TTF
 70
     0
 40
0.2
 41
1.0
 50
0.0
 71
     0
 42
0.2
  3
seiso.ttf
  4

  0
STYLE
  5
90
330
3
100
AcDbSymbolTableRecord
100
AcDbTextStyleTableRecord
  2
SEACAD_SEMECI1_TTF
 70
     0
 40
0.2
 41
1.0
 50
0.0
 71
     0
 42
0.2
  3
semeci1.ttf
  4

  0
ENDTAB
  0
TABLE
  2
VIEW
  5
6
330
0
100
AcDbSymbolTable
 70
     0
  0
ENDTAB
  0
TABLE
  2
UCS
  5
7
330
0
100
AcDbSymbolTable
 70
     0
  0
ENDTAB
  0
TABLE
  2
APPID
  5
9
330
0
100
AcDbSymbolTable
 70
     1
  0
APPID
  5
12
330
9
100
AcDbSymbolTableRecord
100
AcDbRegAppTableRecord
  2
ACAD
 70
     0
  0
ENDTAB
  0
TABLE
  2
DIMSTYLE
  5
A
330
0
100
AcDbSymbolTable
 70
     1
  0
DIMSTYLE
105
27
330
A
100
AcDbSymbolTableRecord
100
AcDbDimStyleTableRecord
  2
STANDARD
 70
     0
  3

  4

  5

  6

  7

 40
1.0
 41
0.18
 42
0.0625
 43
0.38
 44
0.18
 45
0.0
 46
0.0
 47
0.0
 48
0.0
140
0.18
141
0.09
142
0.0
143
25.4
144
1.0
145
0.0
146
1.0
147
0.09
 71
     0
 72
     0
 73
     1
 74
     1
 75
     0
 76
     0
 77
     0
 78
     0
170
     0
171
     2
172
     0
173
     0
174
     0
175
     0
176
     0
177
     0
178
     0
270
     2
271
     4
272
     4
273
     2
274
     2
340
11
275
     0
280
     0
281
     0
282
     0
283
     1
284
     0
285
     0
286
     0
287
     3
288
     0
  0
ENDTAB
  0
TABLE
  2
BLOCK_RECORD
  5
1
330
0
100
AcDbSymbolTable
 70
    14
  0
BLOCK_RECORD
  5
1F
330
1
100
AcDbSymbolTableRecord
100
AcDbBlockTableRecord
  2
*MODEL_SPACE
  0
BLOCK_RECORD
  5
1B
330
1
100
AcDbSymbolTableRecord
100
AcDbBlockTableRecord
  2
*PAPER_SPACE
  0
BLOCK_RECORD
  5
2E
330
1
100
AcDbSymbolTableRecord
100
AcDbBlockTableRecord
  2
SE
  0
BLOCK_RECORD
  5
35
330
1
100
AcDbSymbolTableRecord
100
AcDbBlockTableRecord
  2
SE1
  0
BLOCK_RECORD
  5
3A
330
1
100
AcDbSymbolTableRecord
100
AcDbBlockTableRecord
  2
SE2
  0
BLOCK_RECORD
  5
3F
330
1
100
AcDbSymbolTableRecord
100
AcDbBlockTableRecord
  2
SE3
  0
BLOCK_RECORD
  5
44
330
1
100
AcDbSymbolTableRecord
100
AcDbBlockTableRecord
  2
SE4
  0
BLOCK_RECORD
  5
4E
330
1
100
AcDbSymbolTableRecord
100
AcDbBlockTableRecord
  2
SE5
  0
BLOCK_RECORD
  5
5B
330
1
100
AcDbSymbolTableRecord
100
AcDbBlockTableRecord
  2
SE6
  0
BLOCK_RECORD
  5
74
330
1
100
AcDbSymbolTableRecord
100
AcDbBlockTableRecord
  2
SE7
  0
BLOCK_RECORD
  5
88
330
1
100
AcDbSymbolTableRecord
100
AcDbBlockTableRecord
  2
SE8
  0
BLOCK_RECORD
  5
94
330
1
100
AcDbSymbolTableRecord
100
AcDbBlockTableRecord
  2
SE9
  0
BLOCK_RECORD
  5
9F
330
1
100
AcDbSymbolTableRecord
100
AcDbBlockTableRecord
  2
SE10
  0
BLOCK_RECORD
  5
A9
330
1
100
AcDbSymbolTableRecord
100
AcDbBlockTableRecord
  2
SE11
  0
BLOCK_RECORD
  5
B3
330
1
100
AcDbSymbolTableRecord
100
AcDbBlockTableRecord
  2
SE12
  0
ENDTAB
  0
ENDSEC
  0
SECTION
  2
BLOCKS
  0
BLOCK
  5
20
330
1F
100
AcDbEntity
  8
0
100
AcDbBlockBegin
  2
*MODEL_SPACE
 70
     0
 71
     0
 10
0.0
 20
0.0
 30
0.0
  3
*MODEL_SPACE
  1

  0
ENDBLK
  5
21
330
1F
100
AcDbEntity
  8
0
100
AcDbBlockEnd
  0
BLOCK
  5
1C
330
1B
100
AcDbEntity
 67
     1
  8
0
100
AcDbBlockBegin
  2
*PAPER_SPACE
 70
     0
 71
     0
 10
0.0
 20
0.0
 30
0.0
  3
*PAPER_SPACE
  1

  0
ENDBLK
  5
1D
330
1B
100
AcDbEntity
 67
     1
  8
0
100
AcDbBlockEnd
  0
BLOCK
  5
33
330
2E
100
AcDbEntity
  8
0
100
AcDbBlockBegin
  2
SE
 70
     0
 71
     0
 10
0.0
 20
0.0
 30
0.0
  3
SE
  1

  0
LINE
  5
32
330
2E
100
AcDbEntity
  8
STANDARD
  6
CENTER2
 62
     7
 48
25.4
100
AcDbLine
 10
57.087941627
 20
197.9551862161
 30
0.0
 11
76.8089628628
 21
197.9551862161
 31
0.0
  0
ENDBLK
  5
34
330
2E
100
AcDbEntity
  8
0
100
AcDbBlockEnd
  0
BLOCK
  5
38
330
35
100
AcDbEntity
  8
0
100
AcDbBlockBegin
  2
SE1
 70
     0
 71
     0
 10
0.0
 20
0.0
 30
0.0
  3
SE1
  1

  0
LINE
  5
37
330
35
100
AcDbEntity
  8
STANDARD
  6
CENTER2
 62
     7
 48
25.4
100
AcDbLine
 10
113.020506338
 20
130.9187420158
 30
0.0
 11
113.020506338
 21
143.6751469851
 31
0.0
  0
ENDBLK
  5
39
330
35
100
AcDbEntity
  8
0
100
AcDbBlockEnd
  0
BLOCK
  5
3D
330
3A
100
AcDbEntity
  8
0
100
AcDbBlockBegin
  2
SE2
 70
     0
 71
     0
 10
0.0
 20
0.0
 30
0.0
  3
SE2
  1

  0
LINE
  5
3C
330
3A
100
AcDbEntity
  8
STANDARD
  6
CENTER2
 62
     7
 48
25.4
100
AcDbLine
 10
151.020506338
 20
130.9187420158
 30
0.0
 11
151.020506338
 21
155.8776211639
 31
0.0
  0
ENDBLK
  5
3E
330
3A
100
AcDbEntity
  8
0
100
AcDbBlockEnd
  0
BLOCK
  5
42
330
3F
100
AcDbEntity
  8
0
100
AcDbBlockBegin
  2
SE3
 70
     0
 71
     0
 10
0.0
 20
0.0
 30
0.0
  3
SE3
  1

  0
LINE
  5
41
330
3F
100
AcDbEntity
  8
STANDARD
  6
CENTER2
 62
     7
 48
25.4
100
AcDbLine
 10
132.020506338
 20
137.9032703702
 30
0.0
 11
132.020506338
 21
123.3179317478
 31
0.0
  0
ENDBLK
  5
43
330
3F
100
AcDbEntity
  8
0
100
AcDbBlockEnd
  0
BLOCK
  5
4C
330
44
100
AcDbEntity
  8
0
100
AcDbBlockBegin
  2
SE4
 70
     0
 71
     0
 10
0.0
 20
0.0
 30
0.0
  3
SE4
  1

  0
LINE
  5
46
330
44
100
AcDbEntity
  8
STANDARD
  6
CENTER2
 62
     7
 48
25.4
100
AcDbLine
 10
138.0205063902
 20
197.9551862161
 30
0.0
 11
126.0205062859
 21
197.9551862161
 31
0.0
  0
LINE
  5
47
330
44
100
AcDbEntity
  8
STANDARD
  6
CENTER2
 62
     7
 48
25.4
100
AcDbLine
 10
132.020506338
 20
203.9551862682
 30
0.0
 11
132.020506338
 21
191.9551861639
 31
0.0
  0
LINE
  5
48
330
44
100
AcDbEntity
  8
STANDARD
  6
CENTER2
 62
     7
 48
25.4
100
AcDbLine
 10
139.520506338
 20
197.9551862161
 30
0.0
 11
159.770506338
 21
197.9551862161
 31
0.0
  0
LINE
  5
49
330
44
100
AcDbEntity
  8
STANDARD
  6
CENTER2
 62
     7
 48
25.4
100
AcDbLine
 10
132.020506338
 20
205.4551862161
 30
0.0
 11
132.020506338
 21
225.7051862161
 31
0.0
  0
LINE
  5
4A
330
44
100
AcDbEntity
  8
STANDARD
  6
CENTER2
 62
     7
 48
25.4
100
AcDbLine
 10
124.520506338
 20
197.9551862161
 30
0.0
 11
104.270506338
 21
197.9551862161
 31
0.0
  0
LINE
  5
4B
330
44
100
AcDbEntity
  8
STANDARD
  6
CENTER2
 62
     7
 48
25.4
100
AcDbLine
 10
132.020506338
 20
190.4551862161
 30
0.0
 11
132.020506338
 21
170.2051862161
 31
0.0
  0
ENDBLK
  5
4D
330
44
100
AcDbEntity
  8
0
100
AcDbBlockEnd
  0
BLOCK
  5
59
330
4E
100
AcDbEntity
  8
0
100
AcDbBlockBegin
  2
SE5
 70
     0
 71
     0
 10
0.0
 20
0.0
 30
0.0
  3
SE5
  1

  0
ARC
  5
51
330
4E
100
AcDbEntity
  8
MEGA_001414
  6
CONTINUOUS
 62
     7
 48
25.4
100
AcDbCircle
 10
132.020506338
 20
190.9551862161
 30
0.0
 40
4.0
100
AcDbArc
 50
180.0
 51
360.0
  0
ARC
  5
52
330
4E
100
AcDbEntity
  8
MEGA_001414
  6
CONTINUOUS
 62
     7
 48
25.4
100
AcDbCircle
 10
132.020506338
 20
204.9551862161
 30
0.0
 40
4.0
100
AcDbArc
 50
308.6821874535
 51
231.3178125465
  0
LINE
  5
53
330
4E
100
AcDbEntity
  8
MEGA_001414
  6
CONTINUOUS
 62
     7
 48
25.4
100
AcDbLine
 10
136.020506338
 20
200.3326872169
 30
0.0
 11
134.520506338
 21
201.8326872169
 31
0.0
  0
LINE
  5
54
330
4E
100
AcDbEntity
  8
MEGA_001414
  6
CONTINUOUS
 62
     7
 48
25.4
100
AcDbLine
 10
136.020506338
 20
190.9551862161
 30
0.0
 11
136.020506338
 21
200.3326872169
 31
0.0
  0
LINE
  5
55
330
4E
100
AcDbEntity
  8
MEGA_001414
  6
CONTINUOUS
 62
     7
 48
25.4
100
AcDbLine
 10
128.020506338
 20
200.3326872169
 30
0.0
 11
128.020506338
 21
190.9551862161
 31
0.0
  0
LINE
  5
56
330
4E
100
AcDbEntity
  8
MEGA_001414
  6
CONTINUOUS
 62
     7
 48
25.4
100
AcDbLine
 10
129.520506338
 20
201.8326872169
 30
0.0
 11
128.020506338
 21
200.3326872169
 31
0.0
  0
ARC
  5
57
330
4E
100
AcDbEntity
  8
MEGA_001414
  6
CONTINUOUS
 62
     7
 48
25.4
100
AcDbCircle
 10
132.020506338
 20
197.9551862161
 30
0.0
 40
26.0
100
AcDbArc
 50
275.5177343738
 51
264.4822656262
  0
ARC
  5
58
330
4E
100
AcDbEntity
  8
STANDARD
  6
CONTINUOUS
 62
     7
 48
25.4
100
AcDbCircle
 10
132.0205069349
 20
197.955180037
 30
0.0
 40
25.9999937922
100
AcDbArc
 50
264.4822630076
 51
275.5177343738
  0
ENDBLK
  5
5A
330
4E
100
AcDbEntity
  8
0
100
AcDbBlockEnd
  0
BLOCK
  5
72
330
5B
100
AcDbEntity
  8
0
100
AcDbBlockBegin
  2
SE6
 70
     0
 71
     0
 10
0.0
 20
0.0
 30
0.0
  3
SE6
  1

  0
LINE
  5
5D
330
5B
100
AcDbEntity
  8
MEGA_001414
  6
CONTINUOUS
 62
     7
 48
25.4
100
AcDbLine
 10
153.786505329
 20
127.5357305472
 30
0.0
 11
110.254507347
 21
127.5357305472
 31
0.0
  0
LINE
  5
5E
330
5B
100
AcDbEntity
  8
MEGA_001414
  6
CONTINUOUS
 62
     7
 48
25.4
100
AcDbLine
 10
106.020506338
 20
134.0357305472
 30
0.0
 11
158.020506338
 21
134.0357305472
 31
0.0
  0
LINE
  5
5F
330
5B
100
AcDbEntity
  8
MEGA_001414
  6
CONTINUOUS
 62
     7
 48
25.4
100
AcDbLine
 10
157.7712841214
 20
131.1871075762
 30
0.0
 11
158.020506338
 21
134.0357305472
 31
0.0
  0
ARC
  5
60
330
5B
100
AcDbEntity
  8
MEGA_001414
  6
CONTINUOUS
 62
     7
 48
25.4
100
AcDbCircle
 10
153.786505329
 20
131.5357305472
 30
0.0
 40
4.0
100
AcDbArc
 50
270.0
 51
355.0
  0
LINE
  5
61
330
5B
100
AcDbEntity
  8
MEGA_001414
  6
CONTINUOUS
 62
     7
 48
25.4
100
AcDbLine
 10
106.020506338
 20
134.0357305472
 30
0.0
 11
106.2697285546
 21
131.1871075762
 31
0.0
  0
ARC
  5
62
330
5B
100
AcDbEntity
  8
MEGA_001414
  6
CONTINUOUS
 62
     7
 48
25.4
100
AcDbCircle
 10
110.254507347
 20
131.5357305472
 30
0.0
 40
4.0
100
AcDbArc
 50
185.0
 51
270.0
  0
LINE
  5
64
330
5B
100
AcDbEntity
  8
MEGA_001429
  6
CONTINUOUS
 62
     7
 48
25.4
100
AcDbLine
 10
116.5036553119
 20
134.5182807988
 30
0.0
 11
116.3627535167
 21
138.5531802955
 31
0.0
  0
ARC
  5
65
330
5B
100
AcDbEntity
  8
MEGA_001429
  6
CONTINUOUS
 62
     7
 48
25.4
100
AcDbCircle
 10
115.8630581032
 20
138.5357305472
 30
0.0
 40
0.5
100
AcDbArc
 50
2.0
 51
90.0
  0
ARC
  5
66
330
5B
100
AcDbEntity
  8
MEGA_001429
  6
CONTINUOUS
 62
     7
 48
25.4
100
AcDbCircle
 10
153.8630581032
 20
138.5357305472
 30
0.0
 40
0.5
100
AcDbArc
 50
2.0
 51
90.0
  0
ARC
  5
67
330
5B
100
AcDbEntity
  8
MEGA_001429
  6
CONTINUOUS
 62
     7
 48
25.4
100
AcDbCircle
 10
109.0376619506
 20
134.5357305472
 30
0.0
 40
0.5
100
AcDbArc
 50
270.0
 51
358.0
  0
ARC
  5
68
330
5B
100
AcDbEntity
  8
MEGA_001429
  6
CONTINUOUS
 62
     7
 48
25.4
100
AcDbCircle
 10
147.0376619506
 20
134.5357305472
 30
0.0
 40
0.5
100
AcDbArc
 50
270.0
 51
358.0
  0
LINE
  5
69
330
5B
100
AcDbEntity
  8
MEGA_001429
  6
CONTINUOUS
 62
     7
 48
25.4
100
AcDbLine
 10
147.6782591594
 20
138.5531802955
 30
0.0
 11
147.5373573641
 21
134.5182807988
 31
0.0
  0
ARC
  5
6A
330
5B
100
AcDbEntity
  8
MEGA_001429
  6
CONTINUOUS
 62
     7
 48
25.4
100
AcDbCircle
 10
110.1779545729
 20
138.5357305472
 30
0.0
 40
0.5
100
AcDbArc
 50
90.0
 51
178.0
  0
ARC
  5
6B
330
5B
100
AcDbEntity
  8
MEGA_001429
  6
CONTINUOUS
 62
     7
 48
25.4
100
AcDbCircle
 10
148.1779545729
 20
138.5357305472
 30
0.0
 40
0.5
100
AcDbArc
 50
90.0
 51
178.0
  0
ARC
  5
6C
330
5B
100
AcDbEntity
  8
MEGA_001429
  6
CONTINUOUS
 62
     7
 48
25.4
100
AcDbCircle
 10
117.0033507254
 20
134.5357305472
 30
0.0
 40
0.5
100
AcDbArc
 50
182.0
 51
270.0
  0
ARC
  5
6D
330
5B
100
AcDbEntity
  8
MEGA_001429
  6
CONTINUOUS
 62
     7
 48
25.4
100
AcDbCircle
 10
155.0033507254
 20
134.5357305472
 30
0.0
 40
0.5
100
AcDbArc
 50
182.0
 51
270.0
  0
LINE
  5
6E
330
5B
100
AcDbEntity
  8
MEGA_001429
  6
CONTINUOUS
 62
     7
 48
25.4
100
AcDbLine
 10
154.5036553119
 20
134.5182807988
 30
0.0
 11
154.3627535167
 21
138.5531802955
 31
0.0
  0
LINE
  5
6F
330
5B
100
AcDbEntity
  8
MEGA_001429
  6
CONTINUOUS
 62
     7
 48
25.4
100
AcDbLine
 10
148.1779545729
 20
139.0357305472
 30
0.0
 11
153.8630581032
 21
139.0357305472
 31
0.0
  0
LINE
  5
70
330
5B
100
AcDbEntity
  8
MEGA_001429
  6
CONTINUOUS
 62
     7
 48
25.4
100
AcDbLine
 10
110.1779545729
 20
139.0357305472
 30
0.0
 11
115.8630581032
 21
139.0357305472
 31
0.0
  0
LINE
  5
71
330
5B
100
AcDbEntity
  8
MEGA_001429
  6
CONTINUOUS
 62
     7
 48
25.4
100
AcDbLine
 10
109.6782591594
 20
138.5531802955
 30
0.0
 11
109.5373573641
 21
134.5182807988
 31
0.0
  0
ENDBLK
  5
73
330
5B
100
AcDbEntity
  8
0
100
AcDbBlockEnd
  0
BLOCK
  5
86
330
74
100
AcDbEntity
  8
0
100
AcDbBlockBegin
  2
SE7
 70
     0
 71
     0
 10
0.0
 20
0.0
 30
0.0
  3
SE7
  1

  0
LINE
  5
76
330
74
100
AcDbEntity
  8
MEGA_001414
  6
CONTINUOUS
 62
     7
 48
25.4
100
AcDbLine
 10
61.0928234327
 20
219.7211852071
 30
0.0
 11
61.0928234327
 21
176.189187225
 31
0.0
  0
LINE
  5
77
330
74
100
AcDbEntity
  8
MEGA_001414
  6
CONTINUOUS
 62
     7
 48
25.4
100
AcDbLine
 10
67.5928234327
 20
223.9551862161
 30
0.0
 11
67.5928234327
 21
172.0756576268
 31
0.0
  0
LINE
  5
78
330
74
100
AcDbEntity
  8
MEGA_001414
  6
CONTINUOUS
 62
     7
 48
25.4
100
AcDbLine
 10
64.7442004617
 20
172.2044084327
 30
0.0
 11
65.5928234327
 21
172.1301635431
 31
0.0
  0
ARC
  5
79
330
74
100
AcDbEntity
  8
MEGA_001414
  6
CONTINUOUS
 62
     7
 48
25.4
100
AcDbCircle
 10
65.0928234327
 20
176.189187225
 30
0.0
 40
4.0
100
AcDbArc
 50
180.0
 51
265.0
  0
LINE
  5
7A
330
74
100
AcDbEntity
  8
MEGA_001414
  6
CONTINUOUS
 62
     7
 48
25.4
100
AcDbLine
 10
67.5928234327
 20
223.9551862161
 30
0.0
 11
64.7442004617
 21
223.7059639994
 31
0.0
  0
ARC
  5
7B
330
74
100
AcDbEntity
  8
MEGA_001414
  6
CONTINUOUS
 62
     7
 48
25.4
100
AcDbCircle
 10
65.0928234327
 20
219.7211852071
 30
0.0
 40
4.0
100
AcDbArc
 50
95.0
 51
180.0
  0
ARC
  5
7C
330
74
100
AcDbEntity
  8
MEGA_001429
  6
CONTINUOUS
 62
     7
 48
25.4
100
AcDbCircle
 10
72.0928234327
 20
195.1126344509
 30
0.0
 40
0.5
100
AcDbArc
 50
272.0
 51
360.0
  0
ARC
  5
7D
330
74
100
AcDbEntity
  8
MEGA_001429
  6
CONTINUOUS
 62
     7
 48
25.4
100
AcDbCircle
 10
68.0928234327
 20
201.9380306035
 30
0.0
 40
0.5
100
AcDbArc
 50
180.0
 51
268.0
  0
LINE
  5
7E
330
74
100
AcDbEntity
  8
MEGA_001429
  6
CONTINUOUS
 62
     7
 48
25.4
100
AcDbLine
 10
72.1102731811
 20
201.2974333947
 30
0.0
 11
68.0753736843
 21
201.4383351899
 31
0.0
  0
ARC
  5
7F
330
74
100
AcDbEntity
  8
MEGA_001429
  6
CONTINUOUS
 62
     7
 48
25.4
100
AcDbCircle
 10
72.0928234327
 20
200.7977379812
 30
0.0
 40
0.5
100
AcDbArc
 50
0.0
 51
88.0
  0
ARC
  5
80
330
74
100
AcDbEntity
  8
MEGA_001429
  6
CONTINUOUS
 62
     7
 48
25.4
100
AcDbCircle
 10
68.0928234327
 20
193.9723418286
 30
0.0
 40
0.5
100
AcDbArc
 50
92.0
 51
180.0
  0
LINE
  5
81
330
74
100
AcDbEntity
  8
MEGA_001429
  6
CONTINUOUS
 62
     7
 48
25.4
100
AcDbLine
 10
68.0753736843
 20
194.4720372422
 30
0.0
 11
72.1102731811
 21
194.6129390374
 31
0.0
  0
LINE
  5
82
330
74
100
AcDbEntity
  8
MEGA_001429
  6
CONTINUOUS
 62
     7
 48
25.4
100
AcDbLine
 10
67.5928234327
 20
171.9551862161
 30
0.0
 11
67.5928234327
 21
172.052724943
 31
0.0
  0
LINE
  5
83
330
74
100
AcDbEntity
  8
MEGA_001429
  6
CONTINUOUS
 62
     7
 48
25.4
100
AcDbLine
 10
72.5928234327
 20
195.1126344509
 30
0.0
 11
72.5928234327
 21
200.7977379812
 31
0.0
  0
LINE
  5
84
330
74
100
AcDbEntity
  8
MEGA_001429
  6
CONTINUOUS
 62
     7
 48
25.4
100
AcDbLine
 10
67.5928234327
 20
172.052724943
 30
0.0
 11
67.5928234327
 21
172.0756576268
 31
0.0
  0
LINE
  5
85
330
74
100
AcDbEntity
  8
STANDARD
  6
CONTINUOUS
 62
     7
 48
25.4
100
AcDbLine
 10
65.5928234327
 20
172.1301635431
 30
0.0
 11
67.5928234327
 21
171.9551862161
 31
0.0
  0
ENDBLK
  5
87
330
74
100
AcDbEntity
  8
0
100
AcDbBlockEnd
  0
BLOCK
  5
92
330
88
100
AcDbEntity
  8
0
100
AcDbBlockBegin
  2
SE8
 70
     0
 71
     0
 10
0.0
 20
0.0
 30
0.0
  3
SE8
  1

  0
POLYLINE
  5
8A
330
88
100
AcDbEntity
  8
STANDARD
  6
CONTINUOUS
 62
     7
 48
25.4
100
AcDb2dPolyline
 66
     1
 10
0.0
 20
0.0
 30
0.0
 70
     1
  0
VERTEX
  5
BE
330
8A
100
AcDbEntity
  8
STANDARD
  6
CONTINUOUS
 62
     7
100
AcDbVertex
100
AcDb2dVertex
 10
88.0054761084
 20
220.95518619
 30
0.0
  0
VERTEX
  5
BF
330
8A
100
AcDbEntity
  8
STANDARD
  6
CONTINUOUS
 62
     7
100
AcDbVertex
100
AcDb2dVertex
 10
87.505476104
 20
223.9551862161
 30
0.0
  0
VERTEX
  5
C0
330
8A
100
AcDbEntity
  8
STANDARD
  6
CONTINUOUS
 62
     7
100
AcDbVertex
100
AcDb2dVertex
 10
87.0054760997
 20
220.95518619
 30
0.0
  0
VERTEX
  5
C1
330
8A
100
AcDbEntity
  8
STANDARD
  6
CONTINUOUS
 62
     7
100
AcDbVertex
100
AcDb2dVertex
 10
88.0054761084
 20
220.95518619
 30
0.0
  0
SEQEND
  5
BD
330
8A
100
AcDbEntity
  8
STANDARD
  6
CONTINUOUS
 62
     7
 48
25.4
  0
LINE
  5
8B
330
88
100
AcDbEntity
  8
STANDARD
  6
CONTINUOUS
 62
     7
 48
25.4
100
AcDbLine
 10
67.5928234327
 20
171.9551862161
 30
0.0
 11
89.0054761171
 21
171.9551862161
 31
0.0
  0
LINE
  5
8C
330
88
100
AcDbEntity
  8
STANDARD
  6
CONTINUOUS
 62
     7
 48
25.4
100
AcDbLine
 10
67.5928234327
 20
223.9551862161
 30
0.0
 11
89.0054761171
 21
223.9551862161
 31
0.0
  0
LINE
  5
8D
330
88
100
AcDbEntity
  8
STANDARD
  6
CONTINUOUS
 62
     7
 48
25.4
100
AcDbLine
 10
87.505476104
 20
171.9551862161
 30
0.0
 11
87.505476104
 21
223.9551872889
 31
0.0
  0
TEXT
  5
8F
330
88
100
AcDbEntity
  8
STANDARD
  6
CONTINUOUS
 62
     7
 48
25.4
100
AcDbText
 10
86.755476104
 20
198.0027651566
 30
0.0
 40
3.0
  1
52
 50
90.0
  7
SEACAD_SEISO_TTF
 11
83.755476104
 21
198.0027651566
 31
0.0
100
AcDbText
 73
     3
  0
TEXT
  5
91
330
88
100
AcDbEntity
  8
STANDARD
  6
CONTINUOUS
 62
     7
 48
25.4
100
AcDbText
 10
86.755476104
 20
194.3621538029
 30
0.0
 40
3.0
  1
O
 50
90.0
  7
SEACAD_SEMECI1_TTF
 11
83.755476104
 21
194.3621538029
 31
0.0
100
AcDbText
 73
     3
  0
ENDBLK
  5
93
330
88
100
AcDbEntity
  8
0
100
AcDbBlockEnd
  0
BLOCK
  5
9D
330
94
100
AcDbEntity
  8
0
100
AcDbBlockBegin
  2
SE9
 70
     0
 71
     0
 10
0.0
 20
0.0
 30
0.0
  3
SE9
  1

  0
POLYLINE
  5
96
330
94
100
AcDbEntity
  8
STANDARD
  6
CONTINUOUS
 62
     7
 48
25.4
100
AcDb2dPolyline
 66
     1
 10
0.0
 20
0.0
 30
0.0
 70
     1
  0
VERTEX
  5
C3
330
96
100
AcDbEntity
  8
STANDARD
  6
CONTINUOUS
 62
     7
100
AcDbVertex
100
AcDb2dVertex
 10
106.6951101594
 20
147.4420715455
 30
0.0
  0
VERTEX
  5
C4
330
96
100
AcDbEntity
  8
STANDARD
  6
CONTINUOUS
 62
     7
100
AcDbVertex
100
AcDb2dVertex
 10
109.6951101855
 20
146.9420715411
 30
0.0
  0
VERTEX
  5
C5
330
96
100
AcDbEntity
  8
STANDARD
  6
CONTINUOUS
 62
     7
100
AcDbVertex
100
AcDb2dVertex
 10
106.6951101594
 20
146.4420715368
 30
0.0
  0
VERTEX
  5
C6
330
96
100
AcDbEntity
  8
STANDARD
  6
CONTINUOUS
 62
     7
100
AcDbVertex
100
AcDb2dVertex
 10
106.6951101594
 20
147.4420715455
 30
0.0
  0
SEQEND
  5
C2
330
96
100
AcDbEntity
  8
STANDARD
  6
CONTINUOUS
 62
     7
 48
25.4
  0
POLYLINE
  5
97
330
94
100
AcDbEntity
  8
STANDARD
  6
CONTINUOUS
 62
     7
 48
25.4
100
AcDb2dPolyline
 66
     1
 10
0.0
 20
0.0
 30
0.0
 70
     1
  0
VERTEX
  5
C8
330
97
100
AcDbEntity
  8
STANDARD
  6
CONTINUOUS
 62
     7
100
AcDbVertex
100
AcDb2dVertex
 10
119.3459025166
 20
147.4420715455
 30
0.0
  0
VERTEX
  5
C9
330
97
100
AcDbEntity
  8
STANDARD
  6
CONTINUOUS
 62
     7
100
AcDbVertex
100
AcDb2dVertex
 10
116.3459024906
 20
146.9420715411
 30
0.0
  0
VERTEX
  5
CA
330
97
100
AcDbEntity
  8
STANDARD
  6
CONTINUOUS
 62
     7
100
AcDbVertex
100
AcDb2dVertex
 10
119.3459025166
 20
146.4420715368
 30
0.0
  0
VERTEX
  5
CB
330
97
100
AcDbEntity
  8
STANDARD
  6
CONTINUOUS
 62
     7
100
AcDbVertex
100
AcDb2dVertex
 10
119.3459025166
 20
147.4420715455
 30
0.0
  0
SEQEND
  5
C7
330
97
100
AcDbEntity
  8
STANDARD
  6
CONTINUOUS
 62
     7
 48
25.4
  0
LINE
  5
98
330
94
100
AcDbEntity
  8
STANDARD
  6
CONTINUOUS
 62
     7
 48
25.4
100
AcDbLine
 10
109.6951101855
 20
139.0357305472
 30
0.0
 11
109.6951101855
 21
148.4420715542
 31
0.0
  0
LINE
  5
99
330
94
100
AcDbEntity
  8
STANDARD
  6
CONTINUOUS
 62
     7
 48
25.4
100
AcDbLine
 10
116.3459024906
 20
139.0357305472
 30
0.0
 11
116.3459024906
 21
148.4420715542
 31
0.0
  0
LINE
  5
9A
330
94
100
AcDbEntity
  8
STANDARD
  6
CONTINUOUS
 62
     7
 48
25.4
100
AcDbLine
 10
99.1516473651
 20
146.9420715411
 30
0.0
 11
122.3459026724
 21
146.9420715411
 31
0.0
  0
TEXT
  5
9B
330
94
100
AcDbEntity
  8
STANDARD
  6
CONTINUOUS
 62
     7
 48
25.4
100
AcDbText
 10
103.842258476
 20
147.6920715411
 30
0.0
 40
3.0
  1
7
  7
SEACAD_SEISO_TTF
 11
103.842258476
 21
150.6920715411
 31
0.0
100
AcDbText
 73
     3
  0
TEXT
  5
9C
330
94
100
AcDbEntity
  8
STANDARD
  6
CONTINUOUS
 62
     7
 48
25.4
100
AcDbText
 10
100.2016471223
 20
147.6920715411
 30
0.0
 40
3.0
  1
O
  7
SEACAD_SEMECI1_TTF
 11
100.2016471223
 21
150.6920715411
 31
0.0
100
AcDbText
 73
     3
  0
ENDBLK
  5
9E
330
94
100
AcDbEntity
  8
0
100
AcDbBlockEnd
  0
BLOCK
  5
A7
330
9F
100
AcDbEntity
  8
0
100
AcDbBlockBegin
  2
SE10
 70
     0
 71
     0
 10
0.0
 20
0.0
 30
0.0
  3
SE10
  1

  0
POLYLINE
  5
A1
330
9F
100
AcDbEntity
  8
STANDARD
  6
CONTINUOUS
 62
     7
 48
25.4
100
AcDb2dPolyline
 66
     1
 10
0.0
 20
0.0
 30
0.0
 70
     1
  0
VERTEX
  5
CD
330
A1
100
AcDbEntity
  8
STANDARD
  6
CONTINUOUS
 62
     7
100
AcDbVertex
100
AcDb2dVertex
 10
116.0205063641
 20
156.3776208419
 30
0.0
  0
VERTEX
  5
CE
330
A1
100
AcDbEntity
  8
STANDARD
  6
CONTINUOUS
 62
     7
100
AcDbVertex
100
AcDb2dVertex
 10
113.020506338
 20
155.8776208376
 30
0.0
  0
VERTEX
  5
CF
330
A1
100
AcDbEntity
  8
STANDARD
  6
CONTINUOUS
 62
     7
100
AcDbVertex
100
AcDb2dVertex
 10
116.0205063641
 20
155.3776208332
 30
0.0
  0
VERTEX
  5
D0
330
A1
100
AcDbEntity
  8
STANDARD
  6
CONTINUOUS
 62
     7
100
AcDbVertex
100
AcDb2dVertex
 10
116.0205063641
 20
156.3776208419
 30
0.0
  0
SEQEND
  5
CC
330
A1
100
AcDbEntity
  8
STANDARD
  6
CONTINUOUS
 62
     7
 48
25.4
  0
POLYLINE
  5
A2
330
9F
100
AcDbEntity
  8
STANDARD
  6
CONTINUOUS
 62
     7
 48
25.4
100
AcDb2dPolyline
 66
     1
 10
0.0
 20
0.0
 30
0.0
 70
     1
  0
VERTEX
  5
D2
330
A2
100
AcDbEntity
  8
STANDARD
  6
CONTINUOUS
 62
     7
100
AcDbVertex
100
AcDb2dVertex
 10
148.0205063119
 20
156.3776208419
 30
0.0
  0
VERTEX
  5
D3
330
A2
100
AcDbEntity
  8
STANDARD
  6
CONTINUOUS
 62
     7
100
AcDbVertex
100
AcDb2dVertex
 10
151.020506338
 20
155.8776208376
 30
0.0
  0
VERTEX
  5
D4
330
A2
100
AcDbEntity
  8
STANDARD
  6
CONTINUOUS
 62
     7
100
AcDbVertex
100
AcDb2dVertex
 10
148.0205063119
 20
155.3776208332
 30
0.0
  0
VERTEX
  5
D5
330
A2
100
AcDbEntity
  8
STANDARD
  6
CONTINUOUS
 62
     7
100
AcDbVertex
100
AcDb2dVertex
 10
148.0205063119
 20
156.3776208419
 30
0.0
  0
SEQEND
  5
D1
330
A2
100
AcDbEntity
  8
STANDARD
  6
CONTINUOUS
 62
     7
 48
25.4
  0
LINE
  5
A3
330
9F
100
AcDbEntity
  8
STANDARD
  6
CONTINUOUS
 62
     7
 48
25.4
100
AcDbLine
 10
113.020506338
 20
151.7176869501
 30
0.0
 11
113.020506338
 21
157.3776208506
 31
0.0
  0
LINE
  5
A4
330
9F
100
AcDbEntity
  8
STANDARD
  6
CONTINUOUS
 62
     7
 48
25.4
100
AcDbLine
 10
151.020506338
 20
155.1842996095
 30
0.0
 11
151.020506338
 21
157.3776208506
 31
0.0
  0
LINE
  5
A5
330
9F
100
AcDbEntity
  8
STANDARD
  6
CONTINUOUS
 62
     7
 48
25.4
100
AcDbLine
 10
113.020506338
 20
155.8776208376
 30
0.0
 11
151.0205051161
 21
155.8776208376
 31
0.0
  0
TEXT
  5
A6
330
9F
100
AcDbEntity
  8
STANDARD
  6
CONTINUOUS
 62
     7
 48
25.4
100
AcDbText
 10
130.2818693634
 20
156.6276208376
 30
0.0
 40
3.0
  1
38
  7
SEACAD_SEISO_TTF
 11
130.2818693634
 21
159.6276208376
 31
0.0
100
AcDbText
 73
     3
  0
ENDBLK
  5
A8
330
9F
100
AcDbEntity
  8
0
100
AcDbBlockEnd
  0
BLOCK
  5
B1
330
A9
100
AcDbEntity
  8
0
100
AcDbBlockBegin
  2
SE11
 70
     0
 71
     0
 10
0.0
 20
0.0
 30
0.0
  3
SE11
  1

  0
CIRCLE
  5
AB
330
A9
100
AcDbEntity
  8
STANDARD
  6
CONTINUOUS
 62
     7
 48
25.4
100
AcDbCircle
 10
94.8846255027
 20
134.0357305472
 30
0.0
 40
1.000000008692339
  0
POLYLINE
  5
AC
330
A9
100
AcDbEntity
  8
STANDARD
  6
CONTINUOUS
 62
     7
 48
25.4
100
AcDb2dPolyline
 66
     1
 10
0.0
 20
0.0
 30
0.0
 70
     1
  0
VERTEX
  5
D7
330
AC
100
AcDbEntity
  8
STANDARD
  6
CONTINUOUS
 62
     7
100
AcDbVertex
100
AcDb2dVertex
 10
94.3846254983
 20
142.0357305733
 30
0.0
  0
VERTEX
  5
D8
330
AC
100
AcDbEntity
  8
STANDARD
  6
CONTINUOUS
 62
     7
100
AcDbVertex
100
AcDb2dVertex
 10
94.8846255027
 20
139.0357305472
 30
0.0
  0
VERTEX
  5
D9
330
AC
100
AcDbEntity
  8
STANDARD
  6
CONTINUOUS
 62
     7
100
AcDbVertex
100
AcDb2dVertex
 10
95.384625507
 20
142.0357305733
 30
0.0
  0
VERTEX
  5
DA
330
AC
100
AcDbEntity
  8
STANDARD
  6
CONTINUOUS
 62
     7
100
AcDbVertex
100
AcDb2dVertex
 10
94.3846254983
 20
142.0357305733
 30
0.0
  0
SEQEND
  5
D6
330
AC
100
AcDbEntity
  8
STANDARD
  6
CONTINUOUS
 62
     7
 48
25.4
  0
LINE
  5
AD
330
A9
100
AcDbEntity
  8
STANDARD
  6
CONTINUOUS
 62
     7
 48
25.4
100
AcDbLine
 10
106.020506338
 20
134.0357305472
 30
0.0
 11
93.3846254896
 21
134.0357305472
 31
0.0
  0
LINE
  5
AE
330
A9
100
AcDbEntity
  8
STANDARD
  6
CONTINUOUS
 62
     7
 48
25.4
100
AcDbLine
 10
110.1779545729
 20
139.0357305472
 30
0.0
 11
93.3846254896
 21
139.0357305472
 31
0.0
  0
LINE
  5
AF
330
A9
100
AcDbEntity
  8
STANDARD
  6
CONTINUOUS
 62
     7
 48
25.4
100
AcDbLine
 10
94.8846255027
 20
128.035730495
 30
0.0
 11
94.8846255027
 21
145.0357304876
 31
0.0
  0
TEXT
  5
B0
330
A9
100
AcDbEntity
  8
STANDARD
  6
CONTINUOUS
 62
     7
 48
25.4
100
AcDbText
 10
94.1346255027
 20
135.683457764
 30
0.0
 40
3.0
  1
5
 50
90.0
  7
SEACAD_SEISO_TTF
 11
91.1346255027
 21
135.683457764
 31
0.0
100
AcDbText
 73
     3
  0
ENDBLK
  5
B2
330
A9
100
AcDbEntity
  8
0
100
AcDbBlockEnd
  0
BLOCK
  5
BB
330
B3
100
AcDbEntity
  8
0
100
AcDbBlockBegin
  2
SE12
 70
     0
 71
     0
 10
0.0
 20
0.0
 30
0.0
  3
SE12
  1

  0
CIRCLE
  5
B5
330
B3
100
AcDbEntity
  8
STANDARD
  6
CONTINUOUS
 62
     7
 48
25.4
100
AcDbCircle
 10
94.8846255027
 20
134.0357305472
 30
0.0
 40
1.000000008692339
  0
POLYLINE
  5
B6
330
B3
100
AcDbEntity
  8
STANDARD
  6
CONTINUOUS
 62
     7
 48
25.4
100
AcDb2dPolyline
 66
     1
 10
0.0
 20
0.0
 30
0.0
 70
     1
  0
VERTEX
  5
DC
330
B6
100
AcDbEntity
  8
STANDARD
  6
CONTINUOUS
 62
     7
100
AcDbVertex
100
AcDb2dVertex
 10
94.3846254983
 20
124.5357305211
 30
0.0
  0
VERTEX
  5
DD
330
B6
100
AcDbEntity
  8
STANDARD
  6
CONTINUOUS
 62
     7
100
AcDbVertex
100
AcDb2dVertex
 10
94.8846255027
 20
127.5357305472
 30
0.0
  0
VERTEX
  5
DE
330
B6
100
AcDbEntity
  8
STANDARD
  6
CONTINUOUS
 62
     7
100
AcDbVertex
100
AcDb2dVertex
 10
95.384625507
 20
124.5357305211
 30
0.0
  0
VERTEX
  5
DF
330
B6
100
AcDbEntity
  8
STANDARD
  6
CONTINUOUS
 62
     7
100
AcDbVertex
100
AcDb2dVertex
 10
94.3846254983
 20
124.5357305211
 30
0.0
  0
SEQEND
  5
DB
330
B6
100
AcDbEntity
  8
STANDARD
  6
CONTINUOUS
 62
     7
 48
25.4
  0
LINE
  5
B7
330
B3
100
AcDbEntity
  8
STANDARD
  6
CONTINUOUS
 62
     7
 48
25.4
100
AcDbLine
 10
106.020506338
 20
134.0357305472
 30
0.0
 11
93.3846254896
 21
134.0357305472
 31
0.0
  0
LINE
  5
B8
330
B3
100
AcDbEntity
  8
STANDARD
  6
CONTINUOUS
 62
     7
 48
25.4
100
AcDbLine
 10
110.254507347
 20
127.5357305472
 30
0.0
 11
93.3846254896
 21
127.5357305472
 31
0.0
  0
LINE
  5
B9
330
B3
100
AcDbEntity
  8
STANDARD
  6
CONTINUOUS
 62
     7
 48
25.4
100
AcDbLine
 10
94.8846255027
 20
140.0357305993
 30
0.0
 11
94.8846255027
 21
121.5357303609
 31
0.0
  0
TEXT
  5
BA
330
B3
100
AcDbEntity
  8
STANDARD
  6
CONTINUOUS
 62
     7
 48
25.4
100
AcDbText
 10
94.1346255027
 20
128.7402759347
 30
0.0
 40
3.0
  1
6,5
 50
90.0
  7
SEACAD_SEISO_TTF
 11
91.1346255027
 21
128.7402759347
 31
0.0
100
AcDbText
 73
     3
  0
ENDBLK
  5
BC
330
B3
100
AcDbEntity
  8
0
100
AcDbBlockEnd
  0
ENDSEC
  0
SECTION
  2
ENTITIES
  0
INSERT
  5
2F
330
1F
100
AcDbEntity
  8
0
100
AcDbBlockReference
  2
SE
 10
0.0
 20
0.0
 30
0.0
  0
INSERT
  5
36
330
1F
100
AcDbEntity
  8
0
100
AcDbBlockReference
  2
SE1
 10
0.0
 20
0.0
 30
0.0
  0
INSERT
  5
3B
330
1F
100
AcDbEntity
  8
0
100
AcDbBlockReference
  2
SE2
 10
0.0
 20
0.0
 30
0.0
  0
INSERT
  5
40
330
1F
100
AcDbEntity
  8
0
100
AcDbBlockReference
  2
SE3
 10
0.0
 20
0.0
 30
0.0
  0
INSERT
  5
45
330
1F
100
AcDbEntity
  8
0
100
AcDbBlockReference
  2
SE4
 10
0.0
 20
0.0
 30
0.0
  0
INSERT
  5
4F
330
1F
100
AcDbEntity
  8
0
100
AcDbBlockReference
  2
SE5
 10
0.0
 20
0.0
 30
0.0
  0
INSERT
  5
5C
330
1F
100
AcDbEntity
  8
0
100
AcDbBlockReference
  2
SE6
 10
0.0
 20
0.0
 30
0.0
  0
INSERT
  5
75
330
1F
100
AcDbEntity
  8
0
100
AcDbBlockReference
  2
SE7
 10
0.0
 20
0.0
 30
0.0
  0
INSERT
  5
89
330
1F
100
AcDbEntity
  8
0
100
AcDbBlockReference
  2
SE8
 10
0.0
 20
0.0
 30
0.0
  0
INSERT
  5
95
330
1F
100
AcDbEntity
  8
0
100
AcDbBlockReference
  2
SE9
 10
0.0
 20
0.0
 30
0.0
  0
INSERT
  5
A0
330
1F
100
AcDbEntity
  8
0
100
AcDbBlockReference
  2
SE10
 10
0.0
 20
0.0
 30
0.0
  0
INSERT
  5
AA
330
1F
100
AcDbEntity
  8
0
100
AcDbBlockReference
  2
SE11
 10
0.0
 20
0.0
 30
0.0
  0
INSERT
  5
B4
330
1F
100
AcDbEntity
  8
0
100
AcDbBlockReference
  2
SE12
 10
0.0
 20
0.0
 30
0.0
  0
ENDSEC
  0
SECTION
  2
OBJECTS
  0
DICTIONARY
  5
C
330
0
100
AcDbDictionary
  3
ACAD_GROUP
350
D
  3
ACAD_LAYOUT
350
1A
  3
ACAD_MLINESTYLE
350
17
  3
ACAD_PLOTSETTINGS
350
19
  3
ACAD_TABLESTYLE
350
2A
  3
ACDBVARIABLEDICTIONARY
350
2C
1001
ACAD
1000
TREAT_AS_HARD
1070
     0
  0
DICTIONARY
  5
E0
330
29
100
AcDbDictionary
  3
ACAD_XREC_ROUNDTRIP
360
E1
  0
DICTIONARY
  5
D
102
{ACAD_REACTORS
330
C
102
}
330
C
100
AcDbDictionary
1001
ACAD
1000
TREAT_AS_HARD
1070
     0
  0
DICTIONARY
  5
1A
102
{ACAD_REACTORS
330
C
102
}
330
C
100
AcDbDictionary
1001
ACAD
1000
TREAT_AS_HARD
1070
     0
  0
DICTIONARY
  5
17
102
{ACAD_REACTORS
330
C
102
}
330
C
100
AcDbDictionary
  3
STANDARD
350
18
1001
ACAD
1000
TREAT_AS_HARD
1070
     0
  0
DICTIONARY
  5
19
102
{ACAD_REACTORS
330
C
102
}
330
C
100
AcDbDictionary
1001
ACAD
1000
TREAT_AS_HARD
1070
     0
  0
DICTIONARY
  5
2A
102
{ACAD_REACTORS
330
C
102
}
330
C
100
AcDbDictionary
  3
STANDARD
350
2B
1001
ACAD
1000
TREAT_AS_HARD
1070
     0
  0
DICTIONARY
  5
2C
102
{ACAD_REACTORS
330
C
102
}
330
C
100
AcDbDictionary
  3
CTABLESTYLE
350
2D
1001
ACAD
1000
TREAT_AS_HARD
1070
     0
  0
XRECORD
  5
E1
102
{ACAD_REACTORS
330
E0
102
}
330
E0
100
AcDbXrecord
102
UCS
 74
     0
 71
     1
 10
0.0
 20
0.0
 30
0.0
 10
1.0
 20
0.0
 30
0.0
 10
0.0
 20
1.0
 30
0.0
146
0.0
 79
     0
102
VIEW
281
     0
  0
MLINESTYLE
  5
18
102
{ACAD_REACTORS
330
17
102
}
330
17
100
AcDbMlineStyle
  2
Standard
 70
     0
  3

 62
   256
 51
90.0
 52
90.0
 71
     2
 49
0.5
 62
   256
  6
BYLAYER
 49
-0.5
 62
   256
  6
BYLAYER
  0
TABLESTYLE
  5
2B
102
{ACAD_REACTORS
330
2A
102
}
330
2A
100
AcDbTableStyle
  3
Standard
 70
     0
 71
     0
 40
0.06
 41
0.06
280
     0
281
     0
  7
STANDARD
140
0.18
170
     2
 62
     0
 63
     7
283
     0
274
    -2
284
     1
 64
     0
275
    -2
285
     1
 65
     0
276
    -2
286
     1
 66
     0
277
    -2
287
     1
 67
     0
278
    -2
288
     1
 68
     0
279
    -2
289
     1
 69
     0
  7
STANDARD
140
0.25
170
     5
 62
     0
 63
     7
283
     0
274
    -2
284
     1
 64
     0
275
    -2
285
     1
 65
     0
276
    -2
286
     1
 66
     0
277
    -2
287
     1
 67
     0
278
    -2
288
     1
 68
     0
279
    -2
289
     1
 69
     0
  7
STANDARD
140
0.18
170
     5
 62
     0
 63
     7
283
     0
274
    -2
284
     1
 64
     0
275
    -2
285
     1
 65
     0
276
    -2
286
     1
 66
     0
277
    -2
287
     1
 67
     0
278
    -2
288
     1
 68
     0
279
    -2
289
     1
 69
     0
  0
DICTIONARYVAR
  5
2D
102
{ACAD_REACTORS
330
2C
102
}
330
2C
100
DictionaryVariables
280
     0
  1
Standard
  0
ENDSEC
  0
EOF
