  0
SECTION
  2
HEADER
  9
$ACADVER
  1
AC1012
  9
$DWGCODEPAGE
  3
ansi_1252
  9
$INSBASE
 10
0.0
 20
0.0
 30
0.0
  9
$EXTMIN
 10
0.0
 20
0.0
 30
0.0
  9
$EXTMAX
 10
210.0
 20
297.0
 30
0.0
  9
$LIMMIN
 10
0.0
 20
0.0
  9
$LIMMAX
 10
210.0
 20
297.0
  9
$ORTHOMODE
 70
     0
  9
$REGENMODE
 70
     1
  9
$FILLMODE
 70
     1
  9
$QTEXTMODE
 70
     0
  9
$MIRRTEXT
 70
     1
  9
$DRAGMODE
 70
     2
  9
$LTSCALE
 40
1.0
  9
$OSMODE
 70
    37
  9
$ATTMODE
 70
     1
  9
$TEXTSIZE
 40
0.2
  9
$TRACEWID
 40
0.05
  9
$TEXTSTYLE
  7
STANDARD
  9
$CLAYER
  8
0
  9
$CELTYPE
  6
BYLAYER
  9
$CECOLOR
 62
   256
  9
$CELTSCALE
 40
25.4
  9
$DELOBJ
 70
     1
  9
$DISPSILH
 70
     0
  9
$DIMSCALE
 40
1.0
  9
$DIMASZ
 40
0.18
  9
$DIMEXO
 40
0.0625
  9
$DIMDLI
 40
0.38
  9
$DIMRND
 40
0.0
  9
$DIMDLE
 40
0.0
  9
$DIMEXE
 40
0.18
  9
$DIMTP
 40
0.0
  9
$DIMTM
 40
0.0
  9
$DIMTXT
 40
0.18
  9
$DIMCEN
 40
0.09
  9
$DIMTSZ
 40
0.0
  9
$DIMTOL
 70
     0
  9
$DIMLIM
 70
     0
  9
$DIMTIH
 70
     1
  9
$DIMTOH
 70
     1
  9
$DIMSE1
 70
     0
  9
$DIMSE2
 70
     0
  9
$DIMTAD
 70
     0
  9
$DIMZIN
 70
     0
  9
$DIMBLK
  1

  9
$DIMASO
 70
     1
  9
$DIMSHO
 70
     1
  9
$DIMPOST
  1

  9
$DIMAPOST
  1

  9
$DIMALT
 70
     0
  9
$DIMALTD
 70
     2
  9
$DIMALTF
 40
25.4
  9
$DIMLFAC
 40
1.0
  9
$DIMTOFL
 70
     0
  9
$DIMTVP
 40
0.0
  9
$DIMTIX
 70
     0
  9
$DIMSOXD
 70
     0
  9
$DIMSAH
 70
     0
  9
$DIMBLK1
  1

  9
$DIMBLK2
  1

  9
$DIMSTYLE
  2
STANDARD
  9
$DIMCLRD
 70
     0
  9
$DIMCLRE
 70
     0
  9
$DIMCLRT
 70
     0
  9
$DIMTFAC
 40
1.0
  9
$DIMGAP
 40
0.09
  9
$DIMJUST
 70
     0
  9
$DIMSD1
 70
     0
  9
$DIMSD2
 70
     0
  9
$DIMTOLJ
 70
     1
  9
$DIMTZIN
 70
     0
  9
$DIMALTZ
 70
     0
  9
$DIMALTTZ
 70
     0
  9
$DIMFIT
 70
     3
  9
$DIMUPT
 70
     0
  9
$DIMUNIT
 70
     2
  9
$DIMDEC
 70
     4
  9
$DIMTDEC
 70
     4
  9
$DIMALTU
 70
     2
  9
$DIMALTTD
 70
     2
  9
$DIMTXSTY
  7
STANDARD
  9
$DIMAUNIT
 70
     0
  9
$LUNITS
 70
     2
  9
$LUPREC
 70
     4
  9
$SKETCHINC
 40
0.1
  9
$FILLETRAD
 40
0.5
  9
$AUNITS
 70
     0
  9
$AUPREC
 70
     0
  9
$MENU
  1
.
  9
$ELEVATION
 40
0.0
  9
$PELEVATION
 40
0.0
  9
$THICKNESS
 40
0.0
  9
$LIMCHECK
 70
     0
  9
$CHAMFERA
 40
0.5
  9
$CHAMFERB
 40
0.5
  9
$CHAMFERC
 40
1.0
  9
$CHAMFERD
 40
0.0
  9
$SKPOLY
 70
     0
  9
$TDCREATE
 40
2453762.542953669
  9
$TDUPDATE
 40
2453762.542953681
  9
$TDINDWG
 40
0.0000000116
  9
$TDUSRTIMER
 40
0.0000000116
  9
$USRTIMER
 70
     1
  9
$ANGBASE
 50
0.0
  9
$ANGDIR
 70
     0
  9
$PDMODE
 70
     0
  9
$PDSIZE
 40
0.0
  9
$PLINEWID
 40
0.0
  9
$COORDS
 70
     1
  9
$SPLFRAME
 70
     0
  9
$SPLINETYPE
 70
     6
  9
$SPLINESEGS
 70
     8
  9
$ATTDIA
 70
     0
  9
$ATTREQ
 70
     1
  9
$HANDLING
 70
     1
  9
$HANDSEED
  5
E0
  9
$SURFTAB1
 70
     6
  9
$SURFTAB2
 70
     6
  9
$SURFTYPE
 70
     6
  9
$SURFU
 70
     6
  9
$SURFV
 70
     6
  9
$UCSNAME
  2

  9
$UCSORG
 10
0.0
 20
0.0
 30
0.0
  9
$UCSXDIR
 10
1.0
 20
0.0
 30
0.0
  9
$UCSYDIR
 10
0.0
 20
1.0
 30
0.0
  9
$PUCSNAME
  2

  9
$PUCSORG
 10
0.0
 20
0.0
 30
0.0
  9
$PUCSXDIR
 10
1.0
 20
0.0
 30
0.0
  9
$PUCSYDIR
 10
0.0
 20
1.0
 30
0.0
  9
$USERI1
 70
     0
  9
$USERI2
 70
     0
  9
$USERI3
 70
     0
  9
$USERI4
 70
     0
  9
$USERI5
 70
     0
  9
$USERR1
 40
0.0
  9
$USERR2
 40
0.0
  9
$USERR3
 40
0.0
  9
$USERR4
 40
0.0
  9
$USERR5
 40
0.0
  9
$WORLDVIEW
 70
     1
  9
$SHADEDGE
 70
     3
  9
$SHADEDIF
 70
    70
  9
$TILEMODE
 70
     1
  9
$MAXACTVP
 70
    64
  9
$PINSBASE
 10
0.0
 20
0.0
 30
0.0
  9
$PLIMCHECK
 70
     0
  9
$PEXTMIN
 10
0.0
 20
0.0
 30
0.0
  9
$PEXTMAX
 10
210.0
 20
297.0
 30
0.0
  9
$PLIMMIN
 10
0.0
 20
0.0
  9
$PLIMMAX
 10
12.0
 20
9.0
  9
$UNITMODE
 70
     0
  9
$VISRETAIN
 70
     1
  9
$PLINEGEN
 70
     0
  9
$PSLTSCALE
 70
     1
  9
$TREEDEPTH
 70
  3020
  9
$PICKSTYLE
 70
     1
  9
$CMLSTYLE
  2
STANDARD
  9
$CMLJUST
 70
     0
  9
$CMLSCALE
 40
1.0
  9
$SAVEIMAGES
 70
     1
  0
ENDSEC
  0
SECTION
  2
CLASSES
  0
CLASS
  1
ACDBDICTIONARYWDFLT
  2
AcDbDictionaryWithDefault
  3
ObjectDBX Classes
 90
        0
280
     0
281
     0
  0
CLASS
  1
TABLESTYLE
  2
AcDbTableStyle
  3
ObjectDBX Classes
 90
     2047
280
     0
281
     0
  0
CLASS
  1
DICTIONARYVAR
  2
AcDbDictionaryVar
  3
ObjectDBX Classes
 90
        0
280
     0
281
     0
  0
CLASS
  1
XRECORD
  2
AcDbXrecord
  3
AutoCAD 2000
 90
    32768
280
     0
281
     0
  0
CLASS
  1
LWPOLYLINE
  2
AcDbPolyline
  3
AutoCAD 2000
 90
    32768
280
     0
281
     1
  0
CLASS
  1
HATCH
  2
AcDbHatch
  3
AutoCAD 2000
 90
    32768
280
     0
281
     1
  0
CLASS
  1
ACDBPLACEHOLDER
  2
AcDbPlaceHolder
  3
ObjectDBX Classes
 90
        0
280
     0
281
     0
  0
CLASS
  1
LAYOUT
  2
AcDbLayout
  3
ObjectDBX Classes
 90
        0
280
     0
281
     0
  0
ENDSEC
  0
SECTION
  2
TABLES
  0
TABLE
  2
VPORT
  5
8
330
0
100
AcDbSymbolTable
 70
     2
  0
VPORT
  5
29
102
{ACAD_XDICTIONARY
360
DE
102
}
330
8
100
AcDbSymbolTableRecord
100
AcDbViewportTableRecord
  2
*ACTIVE
 70
     0
 10
0.0
 20
0.0
 11
1.0
 21
1.0
 12
10.4299065421
 22
4.5
 13
0.0
 23
0.0
 14
0.5
 24
0.5
 15
0.5
 25
0.5
 16
0.0
 26
0.0
 36
1.0
 17
0.0
 27
0.0
 37
0.0
 40
9.0
 41
1.9729729729
 42
50.0
 43
0.0
 44
0.0
 50
0.0
 51
0.0
 71
     0
 72
   100
 73
     1
 74
     3
 75
     0
 76
     0
 77
     0
 78
     0
  0
ENDTAB
  0
TABLE
  2
LTYPE
  5
5
330
0
100
AcDbSymbolTable
 70
     2
  0
LTYPE
  5
14
330
5
100
AcDbSymbolTableRecord
100
AcDbLinetypeTableRecord
  2
BYBLOCK
 70
     0
  3

 72
    65
 73
     0
 40
0.0
  0
LTYPE
  5
15
330
5
100
AcDbSymbolTableRecord
100
AcDbLinetypeTableRecord
  2
BYLAYER
 70
     0
  3

 72
    65
 73
     0
 40
0.0
  0
LTYPE
  5
16
330
5
100
AcDbSymbolTableRecord
100
AcDbLinetypeTableRecord
  2
CONTINUOUS
 70
     0
  3
Solid line
 72
    65
 73
     0
 40
0.0
  0
LTYPE
  5
31
330
5
100
AcDbSymbolTableRecord
100
AcDbLinetypeTableRecord
  2
CENTER2
 70
     0
  3
___ _ ___ _ ___ _ ___ _ ___ _ ___ _ ___ _ ___ _
 72
    65
 73
     4
 40
1.125
 49
0.75
 74
     4
 75
     0
340
0
 46
0.0
 50
0.0
 44
0.0
 45
0.0
 49
-0.125
 74
     4
 75
     0
340
0
 46
0.0
 50
0.0
 44
0.0
 45
0.0
 49
0.125
 74
     4
 75
     0
340
0
 46
0.0
 50
0.0
 44
0.0
 45
0.0
 49
-0.125
 74
     4
 75
     0
340
0
 46
0.0
 50
0.0
 44
0.0
 45
0.0
  0
ENDTAB
  0
TABLE
  2
LAYER
  5
2
330
0
100
AcDbSymbolTable
 70
     4
  0
LAYER
  5
10
330
2
100
AcDbSymbolTableRecord
100
AcDbLayerTableRecord
  2
0
 70
     0
 62
     7
  6
CONTINUOUS
  0
LAYER
  5
30
330
2
100
AcDbSymbolTableRecord
100
AcDbLayerTableRecord
  2
STANDARD
 70
     0
 62
     7
  6
CONTINUOUS
  0
LAYER
  5
50
330
2
100
AcDbSymbolTableRecord
100
AcDbLayerTableRecord
  2
MEGA_001419
 70
     0
 62
     7
  6
CONTINUOUS
  0
LAYER
  5
61
330
2
100
AcDbSymbolTableRecord
100
AcDbLayerTableRecord
  2
MEGA_001429
 70
     0
 62
     7
  6
CONTINUOUS
  0
ENDTAB
  0
TABLE
  2
STYLE
  5
3
330
0
100
AcDbSymbolTable
 70
     3
  0
STYLE
  5
11
330
3
100
AcDbSymbolTableRecord
100
AcDbTextStyleTableRecord
  2
STANDARD
 70
     0
 40
0.0
 41
1.0
 50
0.0
 71
     0
 42
0.2
  3
txt
  4

  0
STYLE
  5
8C
330
3
100
AcDbSymbolTableRecord
100
AcDbTextStyleTableRecord
  2
SEACAD_SEISO_TTF
 70
     0
 40
0.2
 41
1.0
 50
0.0
 71
     0
 42
0.2
  3
seiso.ttf
  4

  0
STYLE
  5
8E
330
3
100
AcDbSymbolTableRecord
100
AcDbTextStyleTableRecord
  2
SEACAD_SEMECI1_TTF
 70
     0
 40
0.2
 41
1.0
 50
0.0
 71
     0
 42
0.2
  3
semeci1.ttf
  4

  0
ENDTAB
  0
TABLE
  2
VIEW
  5
6
330
0
100
AcDbSymbolTable
 70
     0
  0
ENDTAB
  0
TABLE
  2
UCS
  5
7
330
0
100
AcDbSymbolTable
 70
     0
  0
ENDTAB
  0
TABLE
  2
APPID
  5
9
330
0
100
AcDbSymbolTable
 70
     1
  0
APPID
  5
12
330
9
100
AcDbSymbolTableRecord
100
AcDbRegAppTableRecord
  2
ACAD
 70
     0
  0
ENDTAB
  0
TABLE
  2
DIMSTYLE
  5
A
330
0
100
AcDbSymbolTable
 70
     1
  0
DIMSTYLE
105
27
330
A
100
AcDbSymbolTableRecord
100
AcDbDimStyleTableRecord
  2
STANDARD
 70
     0
  3

  4

  5

  6

  7

 40
1.0
 41
0.18
 42
0.0625
 43
0.38
 44
0.18
 45
0.0
 46
0.0
 47
0.0
 48
0.0
140
0.18
141
0.09
142
0.0
143
25.4
144
1.0
145
0.0
146
1.0
147
0.09
 71
     0
 72
     0
 73
     1
 74
     1
 75
     0
 76
     0
 77
     0
 78
     0
170
     0
171
     2
172
     0
173
     0
174
     0
175
     0
176
     0
177
     0
178
     0
270
     2
271
     4
272
     4
273
     2
274
     2
340
11
275
     0
280
     0
281
     0
282
     0
283
     1
284
     0
285
     0
286
     0
287
     3
288
     0
  0
ENDTAB
  0
TABLE
  2
BLOCK_RECORD
  5
1
330
0
100
AcDbSymbolTable
 70
    14
  0
BLOCK_RECORD
  5
1F
330
1
100
AcDbSymbolTableRecord
100
AcDbBlockTableRecord
  2
*MODEL_SPACE
  0
BLOCK_RECORD
  5
1B
330
1
100
AcDbSymbolTableRecord
100
AcDbBlockTableRecord
  2
*PAPER_SPACE
  0
BLOCK_RECORD
  5
2E
330
1
100
AcDbSymbolTableRecord
100
AcDbBlockTableRecord
  2
SE
  0
BLOCK_RECORD
  5
35
330
1
100
AcDbSymbolTableRecord
100
AcDbBlockTableRecord
  2
SE1
  0
BLOCK_RECORD
  5
3A
330
1
100
AcDbSymbolTableRecord
100
AcDbBlockTableRecord
  2
SE2
  0
BLOCK_RECORD
  5
3F
330
1
100
AcDbSymbolTableRecord
100
AcDbBlockTableRecord
  2
SE3
  0
BLOCK_RECORD
  5
44
330
1
100
AcDbSymbolTableRecord
100
AcDbBlockTableRecord
  2
SE4
  0
BLOCK_RECORD
  5
4E
330
1
100
AcDbSymbolTableRecord
100
AcDbBlockTableRecord
  2
SE5
  0
BLOCK_RECORD
  5
59
330
1
100
AcDbSymbolTableRecord
100
AcDbBlockTableRecord
  2
SE6
  0
BLOCK_RECORD
  5
72
330
1
100
AcDbSymbolTableRecord
100
AcDbBlockTableRecord
  2
SE7
  0
BLOCK_RECORD
  5
86
330
1
100
AcDbSymbolTableRecord
100
AcDbBlockTableRecord
  2
SE8
  0
BLOCK_RECORD
  5
92
330
1
100
AcDbSymbolTableRecord
100
AcDbBlockTableRecord
  2
SE9
  0
BLOCK_RECORD
  5
9C
330
1
100
AcDbSymbolTableRecord
100
AcDbBlockTableRecord
  2
SE10
  0
BLOCK_RECORD
  5
A6
330
1
100
AcDbSymbolTableRecord
100
AcDbBlockTableRecord
  2
SE11
  0
BLOCK_RECORD
  5
B0
330
1
100
AcDbSymbolTableRecord
100
AcDbBlockTableRecord
  2
SE12
  0
ENDTAB
  0
ENDSEC
  0
SECTION
  2
BLOCKS
  0
BLOCK
  5
20
330
1F
100
AcDbEntity
  8
0
100
AcDbBlockBegin
  2
*MODEL_SPACE
 70
     0
 71
     0
 10
0.0
 20
0.0
 30
0.0
  3
*MODEL_SPACE
  1

  0
ENDBLK
  5
21
330
1F
100
AcDbEntity
  8
0
100
AcDbBlockEnd
  0
BLOCK
  5
1C
330
1B
100
AcDbEntity
 67
     1
  8
0
100
AcDbBlockBegin
  2
*PAPER_SPACE
 70
     0
 71
     0
 10
0.0
 20
0.0
 30
0.0
  3
*PAPER_SPACE
  1

  0
ENDBLK
  5
1D
330
1B
100
AcDbEntity
 67
     1
  8
0
100
AcDbBlockEnd
  0
BLOCK
  5
33
330
2E
100
AcDbEntity
  8
0
100
AcDbBlockBegin
  2
SE
 70
     0
 71
     0
 10
0.0
 20
0.0
 30
0.0
  3
SE
  1

  0
LINE
  5
32
330
2E
100
AcDbEntity
  8
STANDARD
  6
CENTER2
 62
     7
 48
25.4
100
AcDbLine
 10
54.4109873373
 20
203.6906505581
 30
0.0
 11
76.4856464089
 21
203.6906505581
 31
0.0
  0
ENDBLK
  5
34
330
2E
100
AcDbEntity
  8
0
100
AcDbBlockEnd
  0
BLOCK
  5
38
330
35
100
AcDbEntity
  8
0
100
AcDbBlockBegin
  2
SE1
 70
     0
 71
     0
 10
0.0
 20
0.0
 30
0.0
  3
SE1
  1

  0
LINE
  5
37
330
35
100
AcDbEntity
  8
STANDARD
  6
CENTER2
 62
     7
 48
25.4
100
AcDbLine
 10
113.5155549617
 20
132.5598485987
 30
0.0
 11
113.5155549617
 21
145.9862216402
 31
0.0
  0
ENDBLK
  5
39
330
35
100
AcDbEntity
  8
0
100
AcDbBlockEnd
  0
BLOCK
  5
3D
330
3A
100
AcDbEntity
  8
0
100
AcDbBlockBegin
  2
SE2
 70
     0
 71
     0
 10
0.0
 20
0.0
 30
0.0
  3
SE2
  1

  0
LINE
  5
3C
330
3A
100
AcDbEntity
  8
STANDARD
  6
CENTER2
 62
     7
 48
25.4
100
AcDbLine
 10
151.5155549617
 20
131.973795703
 30
0.0
 11
151.5155549617
 21
157.2369532565
 31
0.0
  0
ENDBLK
  5
3E
330
3A
100
AcDbEntity
  8
0
100
AcDbBlockEnd
  0
BLOCK
  5
42
330
3F
100
AcDbEntity
  8
0
100
AcDbBlockBegin
  2
SE3
 70
     0
 71
     0
 10
0.0
 20
0.0
 30
0.0
  3
SE3
  1

  0
LINE
  5
41
330
3F
100
AcDbEntity
  8
STANDARD
  6
CENTER2
 62
     7
 48
25.4
100
AcDbLine
 10
132.5155549617
 20
124.550459024
 30
0.0
 11
132.5155549617
 21
141.3506420342
 31
0.0
  0
ENDBLK
  5
43
330
3F
100
AcDbEntity
  8
0
100
AcDbBlockEnd
  0
BLOCK
  5
4C
330
44
100
AcDbEntity
  8
0
100
AcDbBlockBegin
  2
SE4
 70
     0
 71
     0
 10
0.0
 20
0.0
 30
0.0
  3
SE4
  1

  0
LINE
  5
46
330
44
100
AcDbEntity
  8
STANDARD
  6
CENTER2
 62
     7
 48
25.4
100
AcDbLine
 10
138.5155550138
 20
203.6906505581
 30
0.0
 11
126.5155549095
 21
203.6906505581
 31
0.0
  0
LINE
  5
47
330
44
100
AcDbEntity
  8
STANDARD
  6
CENTER2
 62
     7
 48
25.4
100
AcDbLine
 10
132.5155549617
 20
209.6906506102
 30
0.0
 11
132.5155549617
 21
197.6906505059
 31
0.0
  0
LINE
  5
48
330
44
100
AcDbEntity
  8
STANDARD
  6
CENTER2
 62
     7
 48
25.4
100
AcDbLine
 10
140.0155549617
 20
203.6906505581
 30
0.0
 11
160.2655549617
 21
203.6906505581
 31
0.0
  0
LINE
  5
49
330
44
100
AcDbEntity
  8
STANDARD
  6
CENTER2
 62
     7
 48
25.4
100
AcDbLine
 10
132.5155549617
 20
211.1906505581
 30
0.0
 11
132.5155549617
 21
231.4406505581
 31
0.0
  0
LINE
  5
4A
330
44
100
AcDbEntity
  8
STANDARD
  6
CENTER2
 62
     7
 48
25.4
100
AcDbLine
 10
125.0155549617
 20
203.6906505581
 30
0.0
 11
104.7655549617
 21
203.6906505581
 31
0.0
  0
LINE
  5
4B
330
44
100
AcDbEntity
  8
STANDARD
  6
CENTER2
 62
     7
 48
25.4
100
AcDbLine
 10
132.5155549617
 20
196.1906505581
 30
0.0
 11
132.5155549617
 21
175.9406505581
 31
0.0
  0
ENDBLK
  5
4D
330
44
100
AcDbEntity
  8
0
100
AcDbBlockEnd
  0
BLOCK
  5
57
330
4E
100
AcDbEntity
  8
0
100
AcDbBlockBegin
  2
SE5
 70
     0
 71
     0
 10
0.0
 20
0.0
 30
0.0
  3
SE5
  1

  0
ARC
  5
51
330
4E
100
AcDbEntity
  8
MEGA_001419
  6
CONTINUOUS
 62
     7
 48
25.4
100
AcDbCircle
 10
132.5155549617
 20
203.6906505581
 30
0.0
 40
26.0
100
AcDbArc
 50
275.5177343738
 51
264.4822656262
  0
ARC
  5
52
330
4E
100
AcDbEntity
  8
MEGA_001419
  6
CONTINUOUS
 62
     7
 48
25.4
100
AcDbCircle
 10
132.5155549617
 20
192.1906505581
 30
0.0
 40
5.300000000000011
100
AcDbArc
 50
180.0
 51
360.0
  0
LINE
  5
53
330
4E
100
AcDbEntity
  8
MEGA_001419
  6
CONTINUOUS
 62
     7
 48
25.4
100
AcDbLine
 10
127.2155549617
 20
205.1656950422
 30
0.0
 11
127.2155549617
 21
192.1906505581
 31
0.0
  0
ARC
  5
54
330
4E
100
AcDbEntity
  8
MEGA_001419
  6
CONTINUOUS
 62
     7
 48
25.4
100
AcDbCircle
 10
132.5155549617
 20
212.1906505581
 30
0.0
 40
8.800000000000011
100
AcDbArc
 50
307.032843745
 51
232.967156255
  0
LINE
  5
55
330
4E
100
AcDbEntity
  8
MEGA_001419
  6
CONTINUOUS
 62
     7
 48
25.4
100
AcDbLine
 10
137.8155549617
 20
192.1906505581
 30
0.0
 11
137.8155549617
 21
205.1656950422
 31
0.0
  0
ARC
  5
56
330
4E
100
AcDbEntity
  8
STANDARD
  6
CONTINUOUS
 62
     7
 48
25.4
100
AcDbCircle
 10
132.5155549617
 20
203.6906505581
 30
0.0
 40
26.0
100
AcDbArc
 50
264.4822656262
 51
275.5177343738
  0
ENDBLK
  5
58
330
4E
100
AcDbEntity
  8
0
100
AcDbBlockEnd
  0
BLOCK
  5
70
330
59
100
AcDbEntity
  8
0
100
AcDbBlockBegin
  2
SE6
 70
     0
 71
     0
 10
0.0
 20
0.0
 30
0.0
  3
SE6
  1

  0
LINE
  5
5B
330
59
100
AcDbEntity
  8
MEGA_001419
  6
CONTINUOUS
 62
     7
 48
25.4
100
AcDbLine
 10
158.266332745
 20
133.075051781
 30
0.0
 11
158.5155549617
 21
135.923674752
 31
0.0
  0
ARC
  5
5C
330
59
100
AcDbEntity
  8
MEGA_001419
  6
CONTINUOUS
 62
     7
 48
25.4
100
AcDbCircle
 10
154.2815539527
 20
133.423674752
 30
0.0
 40
4.0
100
AcDbArc
 50
270.0
 51
355.0
  0
LINE
  5
5D
330
59
100
AcDbEntity
  8
MEGA_001419
  6
CONTINUOUS
 62
     7
 48
25.4
100
AcDbLine
 10
106.5155549617
 20
135.923674752
 30
0.0
 11
158.5155549617
 21
135.923674752
 31
0.0
  0
LINE
  5
5E
330
59
100
AcDbEntity
  8
MEGA_001419
  6
CONTINUOUS
 62
     7
 48
25.4
100
AcDbLine
 10
154.2815539527
 20
129.423674752
 30
0.0
 11
110.7495559706
 21
129.423674752
 31
0.0
  0
LINE
  5
5F
330
59
100
AcDbEntity
  8
MEGA_001419
  6
CONTINUOUS
 62
     7
 48
25.4
100
AcDbLine
 10
106.5155549617
 20
135.923674752
 30
0.0
 11
106.7647771783
 21
133.075051781
 31
0.0
  0
ARC
  5
60
330
59
100
AcDbEntity
  8
MEGA_001419
  6
CONTINUOUS
 62
     7
 48
25.4
100
AcDbCircle
 10
110.7495559706
 20
133.423674752
 30
0.0
 40
4.0
100
AcDbArc
 50
185.0
 51
270.0
  0
ARC
  5
62
330
59
100
AcDbEntity
  8
MEGA_001429
  6
CONTINUOUS
 62
     7
 48
25.4
100
AcDbCircle
 10
117.4983993491
 20
136.423674752
 30
0.0
 40
0.5
100
AcDbArc
 50
182.0
 51
270.0
  0
ARC
  5
63
330
59
100
AcDbEntity
  8
MEGA_001429
  6
CONTINUOUS
 62
     7
 48
25.4
100
AcDbCircle
 10
148.6730031965
 20
140.423674752
 30
0.0
 40
0.5
100
AcDbArc
 50
90.0
 51
178.0
  0
ARC
  5
64
330
59
100
AcDbEntity
  8
MEGA_001429
  6
CONTINUOUS
 62
     7
 48
25.4
100
AcDbCircle
 10
110.6730031965
 20
140.423674752
 30
0.0
 40
0.5
100
AcDbArc
 50
90.0
 51
178.0
  0
ARC
  5
65
330
59
100
AcDbEntity
  8
MEGA_001429
  6
CONTINUOUS
 62
     7
 48
25.4
100
AcDbCircle
 10
155.4983993491
 20
136.423674752
 30
0.0
 40
0.5
100
AcDbArc
 50
182.0
 51
270.0
  0
LINE
  5
66
330
59
100
AcDbEntity
  8
MEGA_001429
  6
CONTINUOUS
 62
     7
 48
25.4
100
AcDbLine
 10
154.9987039356
 20
136.4062250036
 30
0.0
 11
154.8578021403
 21
140.4411245004
 31
0.0
  0
LINE
  5
67
330
59
100
AcDbEntity
  8
MEGA_001429
  6
CONTINUOUS
 62
     7
 48
25.4
100
AcDbLine
 10
148.6730031965
 20
140.923674752
 30
0.0
 11
154.3581067268
 21
140.923674752
 31
0.0
  0
LINE
  5
68
330
59
100
AcDbEntity
  8
MEGA_001429
  6
CONTINUOUS
 62
     7
 48
25.4
100
AcDbLine
 10
110.6730031965
 20
140.923674752
 30
0.0
 11
116.3581067268
 21
140.923674752
 31
0.0
  0
LINE
  5
69
330
59
100
AcDbEntity
  8
MEGA_001429
  6
CONTINUOUS
 62
     7
 48
25.4
100
AcDbLine
 10
110.173307783
 20
140.4411245004
 30
0.0
 11
110.0324059878
 21
136.4062250036
 31
0.0
  0
LINE
  5
6A
330
59
100
AcDbEntity
  8
MEGA_001429
  6
CONTINUOUS
 62
     7
 48
25.4
100
AcDbLine
 10
116.9987039356
 20
136.4062250036
 30
0.0
 11
116.8578021403
 21
140.4411245004
 31
0.0
  0
ARC
  5
6B
330
59
100
AcDbEntity
  8
MEGA_001429
  6
CONTINUOUS
 62
     7
 48
25.4
100
AcDbCircle
 10
109.5327105743
 20
136.423674752
 30
0.0
 40
0.5
100
AcDbArc
 50
270.0
 51
358.0
  0
ARC
  5
6C
330
59
100
AcDbEntity
  8
MEGA_001429
  6
CONTINUOUS
 62
     7
 48
25.4
100
AcDbCircle
 10
154.3581067268
 20
140.423674752
 30
0.0
 40
0.5
100
AcDbArc
 50
2.0
 51
90.0
  0
ARC
  5
6D
330
59
100
AcDbEntity
  8
MEGA_001429
  6
CONTINUOUS
 62
     7
 48
25.4
100
AcDbCircle
 10
116.3581067268
 20
140.423674752
 30
0.0
 40
0.5
100
AcDbArc
 50
2.0
 51
90.0
  0
ARC
  5
6E
330
59
100
AcDbEntity
  8
MEGA_001429
  6
CONTINUOUS
 62
     7
 48
25.4
100
AcDbCircle
 10
147.5327105743
 20
136.423674752
 30
0.0
 40
0.5
100
AcDbArc
 50
270.0
 51
358.0
  0
LINE
  5
6F
330
59
100
AcDbEntity
  8
MEGA_001429
  6
CONTINUOUS
 62
     7
 48
25.4
100
AcDbLine
 10
148.173307783
 20
140.4411245004
 30
0.0
 11
148.0324059878
 21
136.4062250036
 31
0.0
  0
ENDBLK
  5
71
330
59
100
AcDbEntity
  8
0
100
AcDbBlockEnd
  0
BLOCK
  5
84
330
72
100
AcDbEntity
  8
0
100
AcDbBlockBegin
  2
SE7
 70
     0
 71
     0
 10
0.0
 20
0.0
 30
0.0
  3
SE7
  1

  0
LINE
  5
74
330
72
100
AcDbEntity
  8
MEGA_001419
  6
CONTINUOUS
 62
     7
 48
25.4
100
AcDbLine
 10
63.4641737324
 20
177.9398727747
 30
0.0
 11
64.3127967034
 21
177.8656278851
 31
0.0
  0
ARC
  5
75
330
72
100
AcDbEntity
  8
MEGA_001419
  6
CONTINUOUS
 62
     7
 48
25.4
100
AcDbCircle
 10
63.8127967034
 20
181.9246515671
 30
0.0
 40
4.0
100
AcDbArc
 50
180.0
 51
265.0
  0
LINE
  5
76
330
72
100
AcDbEntity
  8
MEGA_001419
  6
CONTINUOUS
 62
     7
 48
25.4
100
AcDbLine
 10
66.3127967034
 20
229.6906505581
 30
0.0
 11
66.3127967034
 21
177.8111219689
 31
0.0
  0
LINE
  5
77
330
72
100
AcDbEntity
  8
MEGA_001419
  6
CONTINUOUS
 62
     7
 48
25.4
100
AcDbLine
 10
59.8127967034
 20
225.4566495491
 30
0.0
 11
59.8127967034
 21
181.9246515671
 31
0.0
  0
LINE
  5
78
330
72
100
AcDbEntity
  8
MEGA_001419
  6
CONTINUOUS
 62
     7
 48
25.4
100
AcDbLine
 10
66.3127967034
 20
229.6906505581
 30
0.0
 11
63.4641737324
 21
229.4414283415
 31
0.0
  0
ARC
  5
79
330
72
100
AcDbEntity
  8
MEGA_001419
  6
CONTINUOUS
 62
     7
 48
25.4
100
AcDbCircle
 10
63.8127967034
 20
225.4566495491
 30
0.0
 40
4.0
100
AcDbArc
 50
95.0
 51
180.0
  0
ARC
  5
7A
330
72
100
AcDbEntity
  8
MEGA_001429
  6
CONTINUOUS
 62
     7
 48
25.4
100
AcDbCircle
 10
70.8127967034
 20
206.5332023232
 30
0.0
 40
0.5
100
AcDbArc
 50
0.0
 51
88.0
  0
ARC
  5
7B
330
72
100
AcDbEntity
  8
MEGA_001429
  6
CONTINUOUS
 62
     7
 48
25.4
100
AcDbCircle
 10
66.8127967034
 20
199.7078061707
 30
0.0
 40
0.5
100
AcDbArc
 50
92.0
 51
180.0
  0
LINE
  5
7C
330
72
100
AcDbEntity
  8
MEGA_001429
  6
CONTINUOUS
 62
     7
 48
25.4
100
AcDbLine
 10
66.7953469551
 20
200.2075015842
 30
0.0
 11
70.8302464518
 21
200.3484033794
 31
0.0
  0
LINE
  5
7D
330
72
100
AcDbEntity
  8
MEGA_001429
  6
CONTINUOUS
 62
     7
 48
25.4
100
AcDbLine
 10
66.3127967034
 20
177.6906505581
 30
0.0
 11
66.3127967034
 21
177.7881892851
 31
0.0
  0
LINE
  5
7E
330
72
100
AcDbEntity
  8
MEGA_001429
  6
CONTINUOUS
 62
     7
 48
25.4
100
AcDbLine
 10
71.3127967034
 20
200.8480987929
 30
0.0
 11
71.3127967034
 21
206.5332023232
 31
0.0
  0
LINE
  5
7F
330
72
100
AcDbEntity
  8
MEGA_001429
  6
CONTINUOUS
 62
     7
 48
25.4
100
AcDbLine
 10
66.3127967034
 20
177.7881892851
 30
0.0
 11
66.3127967034
 21
177.8111219689
 31
0.0
  0
ARC
  5
80
330
72
100
AcDbEntity
  8
MEGA_001429
  6
CONTINUOUS
 62
     7
 48
25.4
100
AcDbCircle
 10
70.8127967034
 20
200.8480987929
 30
0.0
 40
0.5
100
AcDbArc
 50
272.0
 51
360.0
  0
ARC
  5
81
330
72
100
AcDbEntity
  8
MEGA_001429
  6
CONTINUOUS
 62
     7
 48
25.4
100
AcDbCircle
 10
66.8127967034
 20
207.6734949455
 30
0.0
 40
0.5
100
AcDbArc
 50
180.0
 51
268.0
  0
LINE
  5
82
330
72
100
AcDbEntity
  8
MEGA_001429
  6
CONTINUOUS
 62
     7
 48
25.4
100
AcDbLine
 10
70.8302464518
 20
207.0328977367
 30
0.0
 11
66.7953469551
 21
207.173799532
 31
0.0
  0
LINE
  5
83
330
72
100
AcDbEntity
  8
STANDARD
  6
CONTINUOUS
 62
     7
 48
25.4
100
AcDbLine
 10
64.3127967034
 20
177.8656278851
 30
0.0
 11
66.3127967034
 21
177.6906505581
 31
0.0
  0
ENDBLK
  5
85
330
72
100
AcDbEntity
  8
0
100
AcDbBlockEnd
  0
BLOCK
  5
90
330
86
100
AcDbEntity
  8
0
100
AcDbBlockBegin
  2
SE8
 70
     0
 71
     0
 10
0.0
 20
0.0
 30
0.0
  3
SE8
  1

  0
POLYLINE
  5
88
330
86
100
AcDbEntity
  8
STANDARD
  6
CONTINUOUS
 62
     7
 48
25.4
100
AcDb2dPolyline
 66
     1
 10
0.0
 20
0.0
 30
0.0
 70
     1
  0
VERTEX
  5
BC
330
88
100
AcDbEntity
  8
STANDARD
  6
CONTINUOUS
 62
     7
100
AcDbVertex
100
AcDb2dVertex
 10
119.8409511403
 20
150.2507333547
 30
0.0
  0
VERTEX
  5
BD
330
88
100
AcDbEntity
  8
STANDARD
  6
CONTINUOUS
 62
     7
100
AcDbVertex
100
AcDb2dVertex
 10
116.8409511142
 20
149.7507333504
 30
0.0
  0
VERTEX
  5
BE
330
88
100
AcDbEntity
  8
STANDARD
  6
CONTINUOUS
 62
     7
100
AcDbVertex
100
AcDb2dVertex
 10
119.8409511403
 20
149.2507333461
 30
0.0
  0
VERTEX
  5
BF
330
88
100
AcDbEntity
  8
STANDARD
  6
CONTINUOUS
 62
     7
100
AcDbVertex
100
AcDb2dVertex
 10
119.8409511403
 20
150.2507333547
 30
0.0
  0
SEQEND
  5
BB
330
88
100
AcDbEntity
  8
STANDARD
  6
CONTINUOUS
 62
     7
 48
25.4
  0
LINE
  5
89
330
86
100
AcDbEntity
  8
STANDARD
  6
CONTINUOUS
 62
     7
 48
25.4
100
AcDbLine
 10
110.1901588091
 20
140.923674752
 30
0.0
 11
110.1901588091
 21
151.2507333634
 31
0.0
  0
LINE
  5
8A
330
86
100
AcDbEntity
  8
STANDARD
  6
CONTINUOUS
 62
     7
 48
25.4
100
AcDbLine
 10
116.8409511142
 20
140.923674752
 30
0.0
 11
116.8409511142
 21
151.2507333634
 31
0.0
  0
LINE
  5
8B
330
86
100
AcDbEntity
  8
STANDARD
  6
CONTINUOUS
 62
     7
 48
25.4
100
AcDbLine
 10
98.3339400092
 20
149.7507333504
 30
0.0
 11
122.8409512961
 21
149.7507333504
 31
0.0
  0
TEXT
  5
8D
330
86
100
AcDbEntity
  8
STANDARD
  6
CONTINUOUS
 62
     7
 48
25.4
100
AcDbText
 10
103.0245511201
 20
150.5007333504
 30
0.0
 40
3.0
  1
7
  7
SEACAD_SEISO_TTF
 11
103.0245511201
 21
153.5007333504
 31
0.0
100
AcDbText
 73
     3
  0
TEXT
  5
8F
330
86
100
AcDbEntity
  8
STANDARD
  6
CONTINUOUS
 62
     7
 48
25.4
100
AcDbText
 10
99.3839397664
 20
150.5007333504
 30
0.0
 40
3.0
  1
O
  7
SEACAD_SEMECI1_TTF
 11
99.3839397664
 21
153.5007333504
 31
0.0
100
AcDbText
 73
     3
  0
ENDBLK
  5
91
330
86
100
AcDbEntity
  8
0
100
AcDbBlockEnd
  0
BLOCK
  5
9A
330
92
100
AcDbEntity
  8
0
100
AcDbBlockBegin
  2
SE9
 70
     0
 71
     0
 10
0.0
 20
0.0
 30
0.0
  3
SE9
  1

  0
POLYLINE
  5
94
330
92
100
AcDbEntity
  8
STANDARD
  6
CONTINUOUS
 62
     7
 48
25.4
100
AcDb2dPolyline
 66
     1
 10
0.0
 20
0.0
 30
0.0
 70
     1
  0
VERTEX
  5
C1
330
94
100
AcDbEntity
  8
STANDARD
  6
CONTINUOUS
 62
     7
100
AcDbVertex
100
AcDb2dVertex
 10
116.5155549877
 20
159.1929295004
 30
0.0
  0
VERTEX
  5
C2
330
94
100
AcDbEntity
  8
STANDARD
  6
CONTINUOUS
 62
     7
100
AcDbVertex
100
AcDb2dVertex
 10
113.5155549617
 20
158.6929294961
 30
0.0
  0
VERTEX
  5
C3
330
94
100
AcDbEntity
  8
STANDARD
  6
CONTINUOUS
 62
     7
100
AcDbVertex
100
AcDb2dVertex
 10
116.5155549877
 20
158.1929294917
 30
0.0
  0
VERTEX
  5
C4
330
94
100
AcDbEntity
  8
STANDARD
  6
CONTINUOUS
 62
     7
100
AcDbVertex
100
AcDb2dVertex
 10
116.5155549877
 20
159.1929295004
 30
0.0
  0
SEQEND
  5
C0
330
94
100
AcDbEntity
  8
STANDARD
  6
CONTINUOUS
 62
     7
 48
25.4
  0
POLYLINE
  5
95
330
92
100
AcDbEntity
  8
STANDARD
  6
CONTINUOUS
 62
     7
 48
25.4
100
AcDb2dPolyline
 66
     1
 10
0.0
 20
0.0
 30
0.0
 70
     1
  0
VERTEX
  5
C6
330
95
100
AcDbEntity
  8
STANDARD
  6
CONTINUOUS
 62
     7
100
AcDbVertex
100
AcDb2dVertex
 10
148.5155549356
 20
159.1929295004
 30
0.0
  0
VERTEX
  5
C7
330
95
100
AcDbEntity
  8
STANDARD
  6
CONTINUOUS
 62
     7
100
AcDbVertex
100
AcDb2dVertex
 10
151.5155549617
 20
158.6929294961
 30
0.0
  0
VERTEX
  5
C8
330
95
100
AcDbEntity
  8
STANDARD
  6
CONTINUOUS
 62
     7
100
AcDbVertex
100
AcDb2dVertex
 10
148.5155549356
 20
158.1929294917
 30
0.0
  0
VERTEX
  5
C9
330
95
100
AcDbEntity
  8
STANDARD
  6
CONTINUOUS
 62
     7
100
AcDbVertex
100
AcDb2dVertex
 10
148.5155549356
 20
159.1929295004
 30
0.0
  0
SEQEND
  5
C5
330
95
100
AcDbEntity
  8
STANDARD
  6
CONTINUOUS
 62
     7
 48
25.4
  0
LINE
  5
96
330
92
100
AcDbEntity
  8
STANDARD
  6
CONTINUOUS
 62
     7
 48
25.4
100
AcDbLine
 10
113.5155549617
 20
154.7220838936
 30
0.0
 11
113.5155549617
 21
160.1929295091
 31
0.0
  0
LINE
  5
97
330
92
100
AcDbEntity
  8
STANDARD
  6
CONTINUOUS
 62
     7
 48
25.4
100
AcDbLine
 10
151.5155549617
 20
157.1045923727
 30
0.0
 11
151.5155549617
 21
160.1929295091
 31
0.0
  0
LINE
  5
98
330
92
100
AcDbEntity
  8
STANDARD
  6
CONTINUOUS
 62
     7
 48
25.4
100
AcDbLine
 10
113.5155549617
 20
158.6929294961
 30
0.0
 11
151.5155537398
 21
158.6929294961
 31
0.0
  0
TEXT
  5
99
330
92
100
AcDbEntity
  8
STANDARD
  6
CONTINUOUS
 62
     7
 48
25.4
100
AcDbText
 10
130.7769179871
 20
159.4429294961
 30
0.0
 40
3.0
  1
38
  7
SEACAD_SEISO_TTF
 11
130.7769179871
 21
162.4429294961
 31
0.0
100
AcDbText
 73
     3
  0
ENDBLK
  5
9B
330
92
100
AcDbEntity
  8
0
100
AcDbBlockEnd
  0
BLOCK
  5
A4
330
9C
100
AcDbEntity
  8
0
100
AcDbBlockBegin
  2
SE10
 70
     0
 71
     0
 10
0.0
 20
0.0
 30
0.0
  3
SE10
  1

  0
CIRCLE
  5
9E
330
9C
100
AcDbEntity
  8
STANDARD
  6
CONTINUOUS
 62
     7
 48
25.4
100
AcDbCircle
 10
95.3027208046
 20
135.923674752
 30
0.0
 40
1.000000008692339
  0
POLYLINE
  5
9F
330
9C
100
AcDbEntity
  8
STANDARD
  6
CONTINUOUS
 62
     7
 48
25.4
100
AcDb2dPolyline
 66
     1
 10
0.0
 20
0.0
 30
0.0
 70
     1
  0
VERTEX
  5
CB
330
9F
100
AcDbEntity
  8
STANDARD
  6
CONTINUOUS
 62
     7
100
AcDbVertex
100
AcDb2dVertex
 10
94.8027208003
 20
143.9236747781
 30
0.0
  0
VERTEX
  5
CC
330
9F
100
AcDbEntity
  8
STANDARD
  6
CONTINUOUS
 62
     7
100
AcDbVertex
100
AcDb2dVertex
 10
95.3027208046
 20
140.923674752
 30
0.0
  0
VERTEX
  5
CD
330
9F
100
AcDbEntity
  8
STANDARD
  6
CONTINUOUS
 62
     7
100
AcDbVertex
100
AcDb2dVertex
 10
95.802720809
 20
143.9236747781
 30
0.0
  0
VERTEX
  5
CE
330
9F
100
AcDbEntity
  8
STANDARD
  6
CONTINUOUS
 62
     7
100
AcDbVertex
100
AcDb2dVertex
 10
94.8027208003
 20
143.9236747781
 30
0.0
  0
SEQEND
  5
CA
330
9F
100
AcDbEntity
  8
STANDARD
  6
CONTINUOUS
 62
     7
 48
25.4
  0
LINE
  5
A0
330
9C
100
AcDbEntity
  8
STANDARD
  6
CONTINUOUS
 62
     7
 48
25.4
100
AcDbLine
 10
106.5155549617
 20
135.923674752
 30
0.0
 11
93.8027207916
 21
135.923674752
 31
0.0
  0
LINE
  5
A1
330
9C
100
AcDbEntity
  8
STANDARD
  6
CONTINUOUS
 62
     7
 48
25.4
100
AcDbLine
 10
110.6730031965
 20
140.923674752
 30
0.0
 11
93.8027207916
 21
140.923674752
 31
0.0
  0
LINE
  5
A2
330
9C
100
AcDbEntity
  8
STANDARD
  6
CONTINUOUS
 62
     7
 48
25.4
100
AcDbLine
 10
95.3027208046
 20
129.9236746998
 30
0.0
 11
95.3027208046
 21
146.9236746924
 31
0.0
  0
TEXT
  5
A3
330
9C
100
AcDbEntity
  8
STANDARD
  6
CONTINUOUS
 62
     7
 48
25.4
100
AcDbText
 10
94.5527208046
 20
137.5714019688
 30
0.0
 40
3.0
  1
5
 50
90.0
  7
SEACAD_SEISO_TTF
 11
91.5527208046
 21
137.5714019688
 31
0.0
100
AcDbText
 73
     3
  0
ENDBLK
  5
A5
330
9C
100
AcDbEntity
  8
0
100
AcDbBlockEnd
  0
BLOCK
  5
AE
330
A6
100
AcDbEntity
  8
0
100
AcDbBlockBegin
  2
SE11
 70
     0
 71
     0
 10
0.0
 20
0.0
 30
0.0
  3
SE11
  1

  0
CIRCLE
  5
A8
330
A6
100
AcDbEntity
  8
STANDARD
  6
CONTINUOUS
 62
     7
 48
25.4
100
AcDbCircle
 10
95.3027208046
 20
135.923674752
 30
0.0
 40
1.000000008692339
  0
POLYLINE
  5
A9
330
A6
100
AcDbEntity
  8
STANDARD
  6
CONTINUOUS
 62
     7
 48
25.4
100
AcDb2dPolyline
 66
     1
 10
0.0
 20
0.0
 30
0.0
 70
     1
  0
VERTEX
  5
D0
330
A9
100
AcDbEntity
  8
STANDARD
  6
CONTINUOUS
 62
     7
100
AcDbVertex
100
AcDb2dVertex
 10
94.8027208003
 20
126.4236747259
 30
0.0
  0
VERTEX
  5
D1
330
A9
100
AcDbEntity
  8
STANDARD
  6
CONTINUOUS
 62
     7
100
AcDbVertex
100
AcDb2dVertex
 10
95.3027208046
 20
129.423674752
 30
0.0
  0
VERTEX
  5
D2
330
A9
100
AcDbEntity
  8
STANDARD
  6
CONTINUOUS
 62
     7
100
AcDbVertex
100
AcDb2dVertex
 10
95.802720809
 20
126.4236747259
 30
0.0
  0
VERTEX
  5
D3
330
A9
100
AcDbEntity
  8
STANDARD
  6
CONTINUOUS
 62
     7
100
AcDbVertex
100
AcDb2dVertex
 10
94.8027208003
 20
126.4236747259
 30
0.0
  0
SEQEND
  5
CF
330
A9
100
AcDbEntity
  8
STANDARD
  6
CONTINUOUS
 62
     7
 48
25.4
  0
LINE
  5
AA
330
A6
100
AcDbEntity
  8
STANDARD
  6
CONTINUOUS
 62
     7
 48
25.4
100
AcDbLine
 10
106.5155549617
 20
135.923674752
 30
0.0
 11
93.8027207916
 21
135.923674752
 31
0.0
  0
LINE
  5
AB
330
A6
100
AcDbEntity
  8
STANDARD
  6
CONTINUOUS
 62
     7
 48
25.4
100
AcDbLine
 10
110.7495559706
 20
129.423674752
 30
0.0
 11
93.8027207916
 21
129.423674752
 31
0.0
  0
LINE
  5
AC
330
A6
100
AcDbEntity
  8
STANDARD
  6
CONTINUOUS
 62
     7
 48
25.4
100
AcDbLine
 10
95.3027208046
 20
141.9236748042
 30
0.0
 11
95.3027208046
 21
123.4236745657
 31
0.0
  0
TEXT
  5
AD
330
A6
100
AcDbEntity
  8
STANDARD
  6
CONTINUOUS
 62
     7
 48
25.4
100
AcDbText
 10
94.5527208046
 20
130.6282201395
 30
0.0
 40
3.0
  1
6,5
 50
90.0
  7
SEACAD_SEISO_TTF
 11
91.5527208046
 21
130.6282201395
 31
0.0
100
AcDbText
 73
     3
  0
ENDBLK
  5
AF
330
A6
100
AcDbEntity
  8
0
100
AcDbBlockEnd
  0
BLOCK
  5
B9
330
B0
100
AcDbEntity
  8
0
100
AcDbBlockBegin
  2
SE12
 70
     0
 71
     0
 10
0.0
 20
0.0
 30
0.0
  3
SE12
  1

  0
POLYLINE
  5
B2
330
B0
100
AcDbEntity
  8
STANDARD
  6
CONTINUOUS
 62
     7
 48
25.4
100
AcDb2dPolyline
 66
     1
 10
0.0
 20
0.0
 30
0.0
 70
     1
  0
VERTEX
  5
D5
330
B2
100
AcDbEntity
  8
STANDARD
  6
CONTINUOUS
 62
     7
100
AcDbVertex
100
AcDb2dVertex
 10
87.1071761507
 20
180.6906505842
 30
0.0
  0
VERTEX
  5
D6
330
B2
100
AcDbEntity
  8
STANDARD
  6
CONTINUOUS
 62
     7
100
AcDbVertex
100
AcDb2dVertex
 10
86.6071761463
 20
177.6906505581
 30
0.0
  0
VERTEX
  5
D7
330
B2
100
AcDbEntity
  8
STANDARD
  6
CONTINUOUS
 62
     7
100
AcDbVertex
100
AcDb2dVertex
 10
86.107176142
 20
180.6906505842
 30
0.0
  0
VERTEX
  5
D8
330
B2
100
AcDbEntity
  8
STANDARD
  6
CONTINUOUS
 62
     7
100
AcDbVertex
100
AcDb2dVertex
 10
87.1071761507
 20
180.6906505842
 30
0.0
  0
SEQEND
  5
D4
330
B2
100
AcDbEntity
  8
STANDARD
  6
CONTINUOUS
 62
     7
 48
25.4
  0
POLYLINE
  5
B3
330
B0
100
AcDbEntity
  8
STANDARD
  6
CONTINUOUS
 62
     7
 48
25.4
100
AcDb2dPolyline
 66
     1
 10
0.0
 20
0.0
 30
0.0
 70
     1
  0
VERTEX
  5
DA
330
B3
100
AcDbEntity
  8
STANDARD
  6
CONTINUOUS
 62
     7
100
AcDbVertex
100
AcDb2dVertex
 10
87.1071761507
 20
226.690650532
 30
0.0
  0
VERTEX
  5
DB
330
B3
100
AcDbEntity
  8
STANDARD
  6
CONTINUOUS
 62
     7
100
AcDbVertex
100
AcDb2dVertex
 10
86.6071761463
 20
229.6906505581
 30
0.0
  0
VERTEX
  5
DC
330
B3
100
AcDbEntity
  8
STANDARD
  6
CONTINUOUS
 62
     7
100
AcDbVertex
100
AcDb2dVertex
 10
86.107176142
 20
226.690650532
 30
0.0
  0
VERTEX
  5
DD
330
B3
100
AcDbEntity
  8
STANDARD
  6
CONTINUOUS
 62
     7
100
AcDbVertex
100
AcDb2dVertex
 10
87.1071761507
 20
226.690650532
 30
0.0
  0
SEQEND
  5
D9
330
B3
100
AcDbEntity
  8
STANDARD
  6
CONTINUOUS
 62
     7
 48
25.4
  0
LINE
  5
B4
330
B0
100
AcDbEntity
  8
STANDARD
  6
CONTINUOUS
 62
     7
 48
25.4
100
AcDbLine
 10
66.3127967034
 20
177.6906505581
 30
0.0
 11
88.1071761594
 21
177.6906505581
 31
0.0
  0
LINE
  5
B5
330
B0
100
AcDbEntity
  8
STANDARD
  6
CONTINUOUS
 62
     7
 48
25.4
100
AcDbLine
 10
66.3127967034
 20
229.6906505581
 30
0.0
 11
88.1071761594
 21
229.6906505581
 31
0.0
  0
LINE
  5
B6
330
B0
100
AcDbEntity
  8
STANDARD
  6
CONTINUOUS
 62
     7
 48
25.4
100
AcDbLine
 10
86.6071761463
 20
177.6906505581
 30
0.0
 11
86.6071761463
 21
229.690651631
 31
0.0
  0
TEXT
  5
B7
330
B0
100
AcDbEntity
  8
STANDARD
  6
CONTINUOUS
 62
     7
 48
25.4
100
AcDbText
 10
85.8571761463
 20
203.7382294986
 30
0.0
 40
3.0
  1
52
 50
90.0
  7
SEACAD_SEISO_TTF
 11
82.8571761463
 21
203.7382294986
 31
0.0
100
AcDbText
 73
     3
  0
TEXT
  5
B8
330
B0
100
AcDbEntity
  8
STANDARD
  6
CONTINUOUS
 62
     7
 48
25.4
100
AcDbText
 10
85.8571761463
 20
200.0976181449
 30
0.0
 40
3.0
  1
O
 50
90.0
  7
SEACAD_SEMECI1_TTF
 11
82.8571761463
 21
200.0976181449
 31
0.0
100
AcDbText
 73
     3
  0
ENDBLK
  5
BA
330
B0
100
AcDbEntity
  8
0
100
AcDbBlockEnd
  0
ENDSEC
  0
SECTION
  2
ENTITIES
  0
INSERT
  5
2F
330
1F
100
AcDbEntity
  8
0
100
AcDbBlockReference
  2
SE
 10
0.0
 20
0.0
 30
0.0
  0
INSERT
  5
36
330
1F
100
AcDbEntity
  8
0
100
AcDbBlockReference
  2
SE1
 10
0.0
 20
0.0
 30
0.0
  0
INSERT
  5
3B
330
1F
100
AcDbEntity
  8
0
100
AcDbBlockReference
  2
SE2
 10
0.0
 20
0.0
 30
0.0
  0
INSERT
  5
40
330
1F
100
AcDbEntity
  8
0
100
AcDbBlockReference
  2
SE3
 10
0.0
 20
0.0
 30
0.0
  0
INSERT
  5
45
330
1F
100
AcDbEntity
  8
0
100
AcDbBlockReference
  2
SE4
 10
0.0
 20
0.0
 30
0.0
  0
INSERT
  5
4F
330
1F
100
AcDbEntity
  8
0
100
AcDbBlockReference
  2
SE5
 10
0.0
 20
0.0
 30
0.0
  0
INSERT
  5
5A
330
1F
100
AcDbEntity
  8
0
100
AcDbBlockReference
  2
SE6
 10
0.0
 20
0.0
 30
0.0
  0
INSERT
  5
73
330
1F
100
AcDbEntity
  8
0
100
AcDbBlockReference
  2
SE7
 10
0.0
 20
0.0
 30
0.0
  0
INSERT
  5
87
330
1F
100
AcDbEntity
  8
0
100
AcDbBlockReference
  2
SE8
 10
0.0
 20
0.0
 30
0.0
  0
INSERT
  5
93
330
1F
100
AcDbEntity
  8
0
100
AcDbBlockReference
  2
SE9
 10
0.0
 20
0.0
 30
0.0
  0
INSERT
  5
9D
330
1F
100
AcDbEntity
  8
0
100
AcDbBlockReference
  2
SE10
 10
0.0
 20
0.0
 30
0.0
  0
INSERT
  5
A7
330
1F
100
AcDbEntity
  8
0
100
AcDbBlockReference
  2
SE11
 10
0.0
 20
0.0
 30
0.0
  0
INSERT
  5
B1
330
1F
100
AcDbEntity
  8
0
100
AcDbBlockReference
  2
SE12
 10
0.0
 20
0.0
 30
0.0
  0
ENDSEC
  0
SECTION
  2
OBJECTS
  0
DICTIONARY
  5
C
330
0
100
AcDbDictionary
  3
ACAD_GROUP
350
D
  3
ACAD_LAYOUT
350
1A
  3
ACAD_MLINESTYLE
350
17
  3
ACAD_PLOTSETTINGS
350
19
  3
ACAD_TABLESTYLE
350
2A
  3
ACDBVARIABLEDICTIONARY
350
2C
1001
ACAD
1000
TREAT_AS_HARD
1070
     0
  0
DICTIONARY
  5
DE
330
29
100
AcDbDictionary
  3
ACAD_XREC_ROUNDTRIP
360
DF
  0
DICTIONARY
  5
D
102
{ACAD_REACTORS
330
C
102
}
330
C
100
AcDbDictionary
1001
ACAD
1000
TREAT_AS_HARD
1070
     0
  0
DICTIONARY
  5
1A
102
{ACAD_REACTORS
330
C
102
}
330
C
100
AcDbDictionary
1001
ACAD
1000
TREAT_AS_HARD
1070
     0
  0
DICTIONARY
  5
17
102
{ACAD_REACTORS
330
C
102
}
330
C
100
AcDbDictionary
  3
STANDARD
350
18
1001
ACAD
1000
TREAT_AS_HARD
1070
     0
  0
DICTIONARY
  5
19
102
{ACAD_REACTORS
330
C
102
}
330
C
100
AcDbDictionary
1001
ACAD
1000
TREAT_AS_HARD
1070
     0
  0
DICTIONARY
  5
2A
102
{ACAD_REACTORS
330
C
102
}
330
C
100
AcDbDictionary
  3
STANDARD
350
2B
1001
ACAD
1000
TREAT_AS_HARD
1070
     0
  0
DICTIONARY
  5
2C
102
{ACAD_REACTORS
330
C
102
}
330
C
100
AcDbDictionary
  3
CTABLESTYLE
350
2D
1001
ACAD
1000
TREAT_AS_HARD
1070
     0
  0
XRECORD
  5
DF
102
{ACAD_REACTORS
330
DE
102
}
330
DE
100
AcDbXrecord
102
UCS
 74
     0
 71
     1
 10
0.0
 20
0.0
 30
0.0
 10
1.0
 20
0.0
 30
0.0
 10
0.0
 20
1.0
 30
0.0
146
0.0
 79
     0
102
VIEW
281
     0
  0
MLINESTYLE
  5
18
102
{ACAD_REACTORS
330
17
102
}
330
17
100
AcDbMlineStyle
  2
Standard
 70
     0
  3

 62
   256
 51
90.0
 52
90.0
 71
     2
 49
0.5
 62
   256
  6
BYLAYER
 49
-0.5
 62
   256
  6
BYLAYER
  0
TABLESTYLE
  5
2B
102
{ACAD_REACTORS
330
2A
102
}
330
2A
100
AcDbTableStyle
  3
Standard
 70
     0
 71
     0
 40
0.06
 41
0.06
280
     0
281
     0
  7
STANDARD
140
0.18
170
     2
 62
     0
 63
     7
283
     0
274
    -2
284
     1
 64
     0
275
    -2
285
     1
 65
     0
276
    -2
286
     1
 66
     0
277
    -2
287
     1
 67
     0
278
    -2
288
     1
 68
     0
279
    -2
289
     1
 69
     0
  7
STANDARD
140
0.25
170
     5
 62
     0
 63
     7
283
     0
274
    -2
284
     1
 64
     0
275
    -2
285
     1
 65
     0
276
    -2
286
     1
 66
     0
277
    -2
287
     1
 67
     0
278
    -2
288
     1
 68
     0
279
    -2
289
     1
 69
     0
  7
STANDARD
140
0.18
170
     5
 62
     0
 63
     7
283
     0
274
    -2
284
     1
 64
     0
275
    -2
285
     1
 65
     0
276
    -2
286
     1
 66
     0
277
    -2
287
     1
 67
     0
278
    -2
288
     1
 68
     0
279
    -2
289
     1
 69
     0
  0
DICTIONARYVAR
  5
2D
102
{ACAD_REACTORS
330
2C
102
}
330
2C
100
DictionaryVariables
280
     0
  1
Standard
  0
ENDSEC
  0
EOF
