  0
SECTION
  2
HEADER
  9
$ACADVER
  1
AC1012
  9
$DWGCODEPAGE
  3
ansi_1252
  9
$INSBASE
 10
0.0
 20
0.0
 30
0.0
  9
$EXTMIN
 10
0.0
 20
0.0
 30
0.0
  9
$EXTMAX
 10
210.0
 20
297.0
 30
0.0
  9
$LIMMIN
 10
0.0
 20
0.0
  9
$LIMMAX
 10
210.0
 20
297.0
  9
$ORTHOMODE
 70
     0
  9
$REGENMODE
 70
     1
  9
$FILLMODE
 70
     1
  9
$QTEXTMODE
 70
     0
  9
$MIRRTEXT
 70
     1
  9
$DRAGMODE
 70
     2
  9
$LTSCALE
 40
1.0
  9
$OSMODE
 70
    37
  9
$ATTMODE
 70
     1
  9
$TEXTSIZE
 40
0.2
  9
$TRACEWID
 40
0.05
  9
$TEXTSTYLE
  7
STANDARD
  9
$CLAYER
  8
0
  9
$CELTYPE
  6
BYLAYER
  9
$CECOLOR
 62
   256
  9
$CELTSCALE
 40
25.4
  9
$DELOBJ
 70
     1
  9
$DISPSILH
 70
     0
  9
$DIMSCALE
 40
1.0
  9
$DIMASZ
 40
0.18
  9
$DIMEXO
 40
0.0625
  9
$DIMDLI
 40
0.38
  9
$DIMRND
 40
0.0
  9
$DIMDLE
 40
0.0
  9
$DIMEXE
 40
0.18
  9
$DIMTP
 40
0.0
  9
$DIMTM
 40
0.0
  9
$DIMTXT
 40
0.18
  9
$DIMCEN
 40
0.09
  9
$DIMTSZ
 40
0.0
  9
$DIMTOL
 70
     0
  9
$DIMLIM
 70
     0
  9
$DIMTIH
 70
     1
  9
$DIMTOH
 70
     1
  9
$DIMSE1
 70
     0
  9
$DIMSE2
 70
     0
  9
$DIMTAD
 70
     0
  9
$DIMZIN
 70
     0
  9
$DIMBLK
  1

  9
$DIMASO
 70
     1
  9
$DIMSHO
 70
     1
  9
$DIMPOST
  1

  9
$DIMAPOST
  1

  9
$DIMALT
 70
     0
  9
$DIMALTD
 70
     2
  9
$DIMALTF
 40
25.4
  9
$DIMLFAC
 40
1.0
  9
$DIMTOFL
 70
     0
  9
$DIMTVP
 40
0.0
  9
$DIMTIX
 70
     0
  9
$DIMSOXD
 70
     0
  9
$DIMSAH
 70
     0
  9
$DIMBLK1
  1

  9
$DIMBLK2
  1

  9
$DIMSTYLE
  2
STANDARD
  9
$DIMCLRD
 70
     0
  9
$DIMCLRE
 70
     0
  9
$DIMCLRT
 70
     0
  9
$DIMTFAC
 40
1.0
  9
$DIMGAP
 40
0.09
  9
$DIMJUST
 70
     0
  9
$DIMSD1
 70
     0
  9
$DIMSD2
 70
     0
  9
$DIMTOLJ
 70
     1
  9
$DIMTZIN
 70
     0
  9
$DIMALTZ
 70
     0
  9
$DIMALTTZ
 70
     0
  9
$DIMFIT
 70
     3
  9
$DIMUPT
 70
     0
  9
$DIMUNIT
 70
     2
  9
$DIMDEC
 70
     4
  9
$DIMTDEC
 70
     4
  9
$DIMALTU
 70
     2
  9
$DIMALTTD
 70
     2
  9
$DIMTXSTY
  7
STANDARD
  9
$DIMAUNIT
 70
     0
  9
$LUNITS
 70
     2
  9
$LUPREC
 70
     4
  9
$SKETCHINC
 40
0.1
  9
$FILLETRAD
 40
0.5
  9
$AUNITS
 70
     0
  9
$AUPREC
 70
     0
  9
$MENU
  1
.
  9
$ELEVATION
 40
0.0
  9
$PELEVATION
 40
0.0
  9
$THICKNESS
 40
0.0
  9
$LIMCHECK
 70
     0
  9
$CHAMFERA
 40
0.5
  9
$CHAMFERB
 40
0.5
  9
$CHAMFERC
 40
1.0
  9
$CHAMFERD
 40
0.0
  9
$SKPOLY
 70
     0
  9
$TDCREATE
 40
2453762.544141991
  9
$TDUPDATE
 40
2453762.544142002
  9
$TDINDWG
 40
0.0000000116
  9
$TDUSRTIMER
 40
0.0000000116
  9
$USRTIMER
 70
     1
  9
$ANGBASE
 50
0.0
  9
$ANGDIR
 70
     0
  9
$PDMODE
 70
     0
  9
$PDSIZE
 40
0.0
  9
$PLINEWID
 40
0.0
  9
$COORDS
 70
     1
  9
$SPLFRAME
 70
     0
  9
$SPLINETYPE
 70
     6
  9
$SPLINESEGS
 70
     8
  9
$ATTDIA
 70
     0
  9
$ATTREQ
 70
     1
  9
$HANDLING
 70
     1
  9
$HANDSEED
  5
168
  9
$SURFTAB1
 70
     6
  9
$SURFTAB2
 70
     6
  9
$SURFTYPE
 70
     6
  9
$SURFU
 70
     6
  9
$SURFV
 70
     6
  9
$UCSNAME
  2

  9
$UCSORG
 10
0.0
 20
0.0
 30
0.0
  9
$UCSXDIR
 10
1.0
 20
0.0
 30
0.0
  9
$UCSYDIR
 10
0.0
 20
1.0
 30
0.0
  9
$PUCSNAME
  2

  9
$PUCSORG
 10
0.0
 20
0.0
 30
0.0
  9
$PUCSXDIR
 10
1.0
 20
0.0
 30
0.0
  9
$PUCSYDIR
 10
0.0
 20
1.0
 30
0.0
  9
$USERI1
 70
     0
  9
$USERI2
 70
     0
  9
$USERI3
 70
     0
  9
$USERI4
 70
     0
  9
$USERI5
 70
     0
  9
$USERR1
 40
0.0
  9
$USERR2
 40
0.0
  9
$USERR3
 40
0.0
  9
$USERR4
 40
0.0
  9
$USERR5
 40
0.0
  9
$WORLDVIEW
 70
     1
  9
$SHADEDGE
 70
     3
  9
$SHADEDIF
 70
    70
  9
$TILEMODE
 70
     1
  9
$MAXACTVP
 70
    64
  9
$PINSBASE
 10
0.0
 20
0.0
 30
0.0
  9
$PLIMCHECK
 70
     0
  9
$PEXTMIN
 10
0.0
 20
0.0
 30
0.0
  9
$PEXTMAX
 10
210.0
 20
297.0
 30
0.0
  9
$PLIMMIN
 10
0.0
 20
0.0
  9
$PLIMMAX
 10
12.0
 20
9.0
  9
$UNITMODE
 70
     0
  9
$VISRETAIN
 70
     1
  9
$PLINEGEN
 70
     0
  9
$PSLTSCALE
 70
     1
  9
$TREEDEPTH
 70
  3020
  9
$PICKSTYLE
 70
     1
  9
$CMLSTYLE
  2
STANDARD
  9
$CMLJUST
 70
     0
  9
$CMLSCALE
 40
1.0
  9
$SAVEIMAGES
 70
     1
  0
ENDSEC
  0
SECTION
  2
CLASSES
  0
CLASS
  1
ACDBDICTIONARYWDFLT
  2
AcDbDictionaryWithDefault
  3
ObjectDBX Classes
 90
        0
280
     0
281
     0
  0
CLASS
  1
TABLESTYLE
  2
AcDbTableStyle
  3
ObjectDBX Classes
 90
     2047
280
     0
281
     0
  0
CLASS
  1
DICTIONARYVAR
  2
AcDbDictionaryVar
  3
ObjectDBX Classes
 90
        0
280
     0
281
     0
  0
CLASS
  1
XRECORD
  2
AcDbXrecord
  3
AutoCAD 2000
 90
    32768
280
     0
281
     0
  0
CLASS
  1
LWPOLYLINE
  2
AcDbPolyline
  3
AutoCAD 2000
 90
    32768
280
     0
281
     1
  0
CLASS
  1
HATCH
  2
AcDbHatch
  3
AutoCAD 2000
 90
    32768
280
     0
281
     1
  0
CLASS
  1
ACDBPLACEHOLDER
  2
AcDbPlaceHolder
  3
ObjectDBX Classes
 90
        0
280
     0
281
     0
  0
CLASS
  1
LAYOUT
  2
AcDbLayout
  3
ObjectDBX Classes
 90
        0
280
     0
281
     0
  0
ENDSEC
  0
SECTION
  2
TABLES
  0
TABLE
  2
VPORT
  5
8
330
0
100
AcDbSymbolTable
 70
     2
  0
VPORT
  5
29
102
{ACAD_XDICTIONARY
360
166
102
}
330
8
100
AcDbSymbolTableRecord
100
AcDbViewportTableRecord
  2
*ACTIVE
 70
     0
 10
0.0
 20
0.0
 11
1.0
 21
1.0
 12
10.4299065421
 22
4.5
 13
0.0
 23
0.0
 14
0.5
 24
0.5
 15
0.5
 25
0.5
 16
0.0
 26
0.0
 36
1.0
 17
0.0
 27
0.0
 37
0.0
 40
9.0
 41
1.9729729729
 42
50.0
 43
0.0
 44
0.0
 50
0.0
 51
0.0
 71
     0
 72
   100
 73
     1
 74
     3
 75
     0
 76
     0
 77
     0
 78
     0
  0
ENDTAB
  0
TABLE
  2
LTYPE
  5
5
330
0
100
AcDbSymbolTable
 70
     2
  0
LTYPE
  5
14
330
5
100
AcDbSymbolTableRecord
100
AcDbLinetypeTableRecord
  2
BYBLOCK
 70
     0
  3

 72
    65
 73
     0
 40
0.0
  0
LTYPE
  5
15
330
5
100
AcDbSymbolTableRecord
100
AcDbLinetypeTableRecord
  2
BYLAYER
 70
     0
  3

 72
    65
 73
     0
 40
0.0
  0
LTYPE
  5
16
330
5
100
AcDbSymbolTableRecord
100
AcDbLinetypeTableRecord
  2
CONTINUOUS
 70
     0
  3
Solid line
 72
    65
 73
     0
 40
0.0
  0
LTYPE
  5
31
330
5
100
AcDbSymbolTableRecord
100
AcDbLinetypeTableRecord
  2
CENTER2
 70
     0
  3
___ _ ___ _ ___ _ ___ _ ___ _ ___ _ ___ _ ___ _
 72
    65
 73
     4
 40
1.125
 49
0.75
 74
     4
 75
     0
340
0
 46
0.0
 50
0.0
 44
0.0
 45
0.0
 49
-0.125
 74
     4
 75
     0
340
0
 46
0.0
 50
0.0
 44
0.0
 45
0.0
 49
0.125
 74
     4
 75
     0
340
0
 46
0.0
 50
0.0
 44
0.0
 45
0.0
 49
-0.125
 74
     4
 75
     0
340
0
 46
0.0
 50
0.0
 44
0.0
 45
0.0
  0
ENDTAB
  0
TABLE
  2
LAYER
  5
2
330
0
100
AcDbSymbolTable
 70
     6
  0
LAYER
  5
10
330
2
100
AcDbSymbolTableRecord
100
AcDbLayerTableRecord
  2
0
 70
     0
 62
     7
  6
CONTINUOUS
  0
LAYER
  5
30
330
2
100
AcDbSymbolTableRecord
100
AcDbLayerTableRecord
  2
DEFAULT
 70
     0
 62
     7
  6
CONTINUOUS
  0
LAYER
  5
5A
330
2
100
AcDbSymbolTableRecord
100
AcDbLayerTableRecord
  2
MEGA_002117
 70
     0
 62
     7
  6
CONTINUOUS
  0
LAYER
  5
6C
330
2
100
AcDbSymbolTableRecord
100
AcDbLayerTableRecord
  2
MEGA_001123
 70
     0
 62
     7
  6
CONTINUOUS
  0
LAYER
  5
6F
330
2
100
AcDbSymbolTableRecord
100
AcDbLayerTableRecord
  2
MEGA_001468
 70
     0
 62
     7
  6
CONTINUOUS
  0
LAYER
  5
71
330
2
100
AcDbSymbolTableRecord
100
AcDbLayerTableRecord
  2
STANDARD
 70
     0
 62
     7
  6
CONTINUOUS
  0
ENDTAB
  0
TABLE
  2
STYLE
  5
3
330
0
100
AcDbSymbolTable
 70
     3
  0
STYLE
  5
11
330
3
100
AcDbSymbolTableRecord
100
AcDbTextStyleTableRecord
  2
STANDARD
 70
     0
 40
0.0
 41
1.0
 50
0.0
 71
     0
 42
0.2
  3
txt
  4

  0
STYLE
  5
C4
330
3
100
AcDbSymbolTableRecord
100
AcDbTextStyleTableRecord
  2
SEACAD_SEISO_TTF
 70
     0
 40
0.2
 41
1.0
 50
0.0
 71
     0
 42
0.2
  3
seiso.ttf
  4

  0
STYLE
  5
C6
330
3
100
AcDbSymbolTableRecord
100
AcDbTextStyleTableRecord
  2
SEACAD_SEMECI1_TTF
 70
     0
 40
0.2
 41
1.0
 50
0.0
 71
     0
 42
0.2
  3
semeci1.ttf
  4

  0
ENDTAB
  0
TABLE
  2
VIEW
  5
6
330
0
100
AcDbSymbolTable
 70
     0
  0
ENDTAB
  0
TABLE
  2
UCS
  5
7
330
0
100
AcDbSymbolTable
 70
     0
  0
ENDTAB
  0
TABLE
  2
APPID
  5
9
330
0
100
AcDbSymbolTable
 70
     1
  0
APPID
  5
12
330
9
100
AcDbSymbolTableRecord
100
AcDbRegAppTableRecord
  2
ACAD
 70
     0
  0
ENDTAB
  0
TABLE
  2
DIMSTYLE
  5
A
330
0
100
AcDbSymbolTable
 70
     1
  0
DIMSTYLE
105
27
330
A
100
AcDbSymbolTableRecord
100
AcDbDimStyleTableRecord
  2
STANDARD
 70
     0
  3

  4

  5

  6

  7

 40
1.0
 41
0.18
 42
0.0625
 43
0.38
 44
0.18
 45
0.0
 46
0.0
 47
0.0
 48
0.0
140
0.18
141
0.09
142
0.0
143
25.4
144
1.0
145
0.0
146
1.0
147
0.09
 71
     0
 72
     0
 73
     1
 74
     1
 75
     0
 76
     0
 77
     0
 78
     0
170
     0
171
     2
172
     0
173
     0
174
     0
175
     0
176
     0
177
     0
178
     0
270
     2
271
     4
272
     4
273
     2
274
     2
340
11
275
     0
280
     0
281
     0
282
     0
283
     1
284
     0
285
     0
286
     0
287
     3
288
     0
  0
ENDTAB
  0
TABLE
  2
BLOCK_RECORD
  5
1
330
0
100
AcDbSymbolTable
 70
    19
  0
BLOCK_RECORD
  5
1F
330
1
100
AcDbSymbolTableRecord
100
AcDbBlockTableRecord
  2
*MODEL_SPACE
  0
BLOCK_RECORD
  5
1B
330
1
100
AcDbSymbolTableRecord
100
AcDbBlockTableRecord
  2
*PAPER_SPACE
  0
BLOCK_RECORD
  5
2E
330
1
100
AcDbSymbolTableRecord
100
AcDbBlockTableRecord
  2
SE
  0
BLOCK_RECORD
  5
3A
330
1
100
AcDbSymbolTableRecord
100
AcDbBlockTableRecord
  2
SE1
  0
BLOCK_RECORD
  5
44
330
1
100
AcDbSymbolTableRecord
100
AcDbBlockTableRecord
  2
SE2
  0
BLOCK_RECORD
  5
49
330
1
100
AcDbSymbolTableRecord
100
AcDbBlockTableRecord
  2
SE3
  0
BLOCK_RECORD
  5
4E
330
1
100
AcDbSymbolTableRecord
100
AcDbBlockTableRecord
  2
SE4
  0
BLOCK_RECORD
  5
53
330
1
100
AcDbSymbolTableRecord
100
AcDbBlockTableRecord
  2
SE5
  0
BLOCK_RECORD
  5
58
330
1
100
AcDbSymbolTableRecord
100
AcDbBlockTableRecord
  2
SE6
  0
BLOCK_RECORD
  5
75
330
1
100
AcDbSymbolTableRecord
100
AcDbBlockTableRecord
  2
SE7
  0
BLOCK_RECORD
  5
9C
330
1
100
AcDbSymbolTableRecord
100
AcDbBlockTableRecord
  2
SE8
  0
BLOCK_RECORD
  5
BE
330
1
100
AcDbSymbolTableRecord
100
AcDbBlockTableRecord
  2
SE9
  0
BLOCK_RECORD
  5
CA
330
1
100
AcDbSymbolTableRecord
100
AcDbBlockTableRecord
  2
SE10
  0
BLOCK_RECORD
  5
D4
330
1
100
AcDbSymbolTableRecord
100
AcDbBlockTableRecord
  2
SE11
  0
BLOCK_RECORD
  5
DE
330
1
100
AcDbSymbolTableRecord
100
AcDbBlockTableRecord
  2
SE12
  0
BLOCK_RECORD
  5
E9
330
1
100
AcDbSymbolTableRecord
100
AcDbBlockTableRecord
  2
SE13
  0
BLOCK_RECORD
  5
F3
330
1
100
AcDbSymbolTableRecord
100
AcDbBlockTableRecord
  2
SE14
  0
BLOCK_RECORD
  5
FD
330
1
100
AcDbSymbolTableRecord
100
AcDbBlockTableRecord
  2
SE15
  0
BLOCK_RECORD
  5
107
330
1
100
AcDbSymbolTableRecord
100
AcDbBlockTableRecord
  2
SE16
  0
BLOCK_RECORD
  5
111
330
1
100
AcDbSymbolTableRecord
100
AcDbBlockTableRecord
  2
SE17
  0
ENDTAB
  0
ENDSEC
  0
SECTION
  2
BLOCKS
  0
BLOCK
  5
20
330
1F
100
AcDbEntity
  8
0
100
AcDbBlockBegin
  2
*MODEL_SPACE
 70
     0
 71
     0
 10
0.0
 20
0.0
 30
0.0
  3
*MODEL_SPACE
  1

  0
ENDBLK
  5
21
330
1F
100
AcDbEntity
  8
0
100
AcDbBlockEnd
  0
BLOCK
  5
1C
330
1B
100
AcDbEntity
 67
     1
  8
0
100
AcDbBlockBegin
  2
*PAPER_SPACE
 70
     0
 71
     0
 10
0.0
 20
0.0
 30
0.0
  3
*PAPER_SPACE
  1

  0
ENDBLK
  5
1D
330
1B
100
AcDbEntity
 67
     1
  8
0
100
AcDbBlockEnd
  0
BLOCK
  5
38
330
2E
100
AcDbEntity
  8
0
100
AcDbBlockBegin
  2
SE
 70
     0
 71
     0
 10
0.0
 20
0.0
 30
0.0
  3
SE
  1

  0
LINE
  5
32
330
2E
100
AcDbEntity
  8
DEFAULT
  6
CENTER2
 62
     7
 48
25.4
100
AcDbLine
 10
138.9427447158
 20
201.3971162701
 30
0.0
 11
126.9427446115
 21
201.3971162701
 31
0.0
  0
LINE
  5
33
330
2E
100
AcDbEntity
  8
DEFAULT
  6
CENTER2
 62
     7
 48
25.4
100
AcDbLine
 10
132.9427446636
 20
207.3971163223
 30
0.0
 11
132.9427446636
 21
195.397116218
 31
0.0
  0
LINE
  5
34
330
2E
100
AcDbEntity
  8
DEFAULT
  6
CENTER2
 62
     7
 48
25.4
100
AcDbLine
 10
140.4427446636
 20
201.3971162701
 30
0.0
 11
137.1927446636
 21
201.3971162701
 31
0.0
  0
LINE
  5
35
330
2E
100
AcDbEntity
  8
DEFAULT
  6
CENTER2
 62
     7
 48
25.4
100
AcDbLine
 10
132.9427446636
 20
208.8971162701
 30
0.0
 11
132.9427446636
 21
205.6471162701
 31
0.0
  0
LINE
  5
36
330
2E
100
AcDbEntity
  8
DEFAULT
  6
CENTER2
 62
     7
 48
25.4
100
AcDbLine
 10
125.4427446636
 20
201.3971162701
 30
0.0
 11
128.6927446636
 21
201.3971162701
 31
0.0
  0
LINE
  5
37
330
2E
100
AcDbEntity
  8
DEFAULT
  6
CENTER2
 62
     7
 48
25.4
100
AcDbLine
 10
132.9427446636
 20
193.8971162701
 30
0.0
 11
132.9427446636
 21
197.1471162701
 31
0.0
  0
ENDBLK
  5
39
330
2E
100
AcDbEntity
  8
0
100
AcDbBlockEnd
  0
BLOCK
  5
42
330
3A
100
AcDbEntity
  8
0
100
AcDbBlockBegin
  2
SE1
 70
     0
 71
     0
 10
0.0
 20
0.0
 30
0.0
  3
SE1
  1

  0
LINE
  5
3C
330
3A
100
AcDbEntity
  8
DEFAULT
  6
CENTER2
 62
     7
 48
25.4
100
AcDbLine
 10
138.9427447158
 20
190.3971162701
 30
0.0
 11
126.9427446115
 21
190.3971162701
 31
0.0
  0
LINE
  5
3D
330
3A
100
AcDbEntity
  8
DEFAULT
  6
CENTER2
 62
     7
 48
25.4
100
AcDbLine
 10
132.9427446636
 20
196.3971163223
 30
0.0
 11
132.9427446636
 21
184.397116218
 31
0.0
  0
LINE
  5
3E
330
3A
100
AcDbEntity
  8
DEFAULT
  6
CENTER2
 62
     7
 48
25.4
100
AcDbLine
 10
140.4427446636
 20
190.3971162701
 30
0.0
 11
160.6927446636
 21
190.3971162701
 31
0.0
  0
LINE
  5
3F
330
3A
100
AcDbEntity
  8
DEFAULT
  6
CENTER2
 62
     7
 48
25.4
100
AcDbLine
 10
132.9427446636
 20
197.8971162701
 30
0.0
 11
132.9427446636
 21
218.1471162701
 31
0.0
  0
LINE
  5
40
330
3A
100
AcDbEntity
  8
DEFAULT
  6
CENTER2
 62
     7
 48
25.4
100
AcDbLine
 10
125.4427446636
 20
190.3971162701
 30
0.0
 11
105.1927446636
 21
190.3971162701
 31
0.0
  0
LINE
  5
41
330
3A
100
AcDbEntity
  8
DEFAULT
  6
CENTER2
 62
     7
 48
25.4
100
AcDbLine
 10
132.9427446636
 20
182.8971162701
 30
0.0
 11
132.9427446636
 21
162.6471162701
 31
0.0
  0
ENDBLK
  5
43
330
3A
100
AcDbEntity
  8
0
100
AcDbBlockEnd
  0
BLOCK
  5
47
330
44
100
AcDbEntity
  8
0
100
AcDbBlockBegin
  2
SE2
 70
     0
 71
     0
 10
0.0
 20
0.0
 30
0.0
  3
SE2
  1

  0
LINE
  5
46
330
44
100
AcDbEntity
  8
DEFAULT
  6
CENTER2
 62
     7
 48
25.4
100
AcDbLine
 10
65.2320618953
 20
190.3971162701
 30
0.0
 11
41.4895801187
 21
190.3971162701
 31
0.0
  0
ENDBLK
  5
48
330
44
100
AcDbEntity
  8
0
100
AcDbBlockEnd
  0
BLOCK
  5
4C
330
49
100
AcDbEntity
  8
0
100
AcDbBlockBegin
  2
SE3
 70
     0
 71
     0
 10
0.0
 20
0.0
 30
0.0
  3
SE3
  1

  0
LINE
  5
4B
330
49
100
AcDbEntity
  8
DEFAULT
  6
CENTER2
 62
     7
 48
25.4
100
AcDbLine
 10
113.9427446636
 20
91.8183084346
 30
0.0
 11
113.9427446636
 21
117.0069737658
 31
0.0
  0
ENDBLK
  5
4D
330
49
100
AcDbEntity
  8
0
100
AcDbBlockEnd
  0
BLOCK
  5
51
330
4E
100
AcDbEntity
  8
0
100
AcDbBlockBegin
  2
SE4
 70
     0
 71
     0
 10
0.0
 20
0.0
 30
0.0
  3
SE4
  1

  0
LINE
  5
50
330
4E
100
AcDbEntity
  8
DEFAULT
  6
CENTER2
 62
     7
 48
25.4
100
AcDbLine
 10
151.9427446636
 20
92.0504663886
 30
0.0
 11
151.9427446636
 21
118.5917486645
 31
0.0
  0
ENDBLK
  5
52
330
4E
100
AcDbEntity
  8
0
100
AcDbBlockEnd
  0
BLOCK
  5
56
330
53
100
AcDbEntity
  8
0
100
AcDbBlockBegin
  2
SE5
 70
     0
 71
     0
 10
0.0
 20
0.0
 30
0.0
  3
SE5
  1

  0
LINE
  5
55
330
53
100
AcDbEntity
  8
DEFAULT
  6
CENTER2
 62
     7
 48
25.4
100
AcDbLine
 10
132.9427446636
 20
81.4872794821
 30
0.0
 11
132.9427446636
 21
100.5242317092
 31
0.0
  0
ENDBLK
  5
57
330
53
100
AcDbEntity
  8
0
100
AcDbBlockEnd
  0
BLOCK
  5
73
330
58
100
AcDbEntity
  8
0
100
AcDbBlockBegin
  2
SE6
 70
     0
 71
     0
 10
0.0
 20
0.0
 30
0.0
  3
SE6
  1

  0
CIRCLE
  5
5B
330
58
100
AcDbEntity
  8
MEGA_002117
  6
CONTINUOUS
 62
     7
 48
25.4
100
AcDbCircle
 10
132.9427446636
 20
190.3971162701
 30
0.0
 40
8.0
  0
ARC
  5
5C
330
58
100
AcDbEntity
  8
MEGA_002117
  6
CONTINUOUS
 62
     7
 48
25.4
100
AcDbCircle
 10
131.8044933127
 20
190.3971162701
 30
0.0
 40
7.498563497899994
100
AcDbArc
 50
350.5806404883
 51
9.4193595117
  0
ARC
  5
5D
330
58
100
AcDbEntity
  8
MEGA_002117
  6
CONTINUOUS
 62
     7
 48
25.4
100
AcDbCircle
 10
134.0809960146
 20
190.3971162701
 30
0.0
 40
7.498563497899994
100
AcDbArc
 50
170.5806404883
 51
189.4193595117
  0
SPLINE
  5
5E
330
58
100
AcDbEntity
  8
MEGA_002117
  6
CONTINUOUS
 62
     7
 48
25.4
100
AcDbSpline
210
0.0
220
0.0
230
1.0
 70
     8
 71
     3
 72
    11
 73
     7
 74
     0
 42
0.0000000001
 43
0.0000000001
 40
0.0
 40
0.0
 40
0.0
 40
0.0
 40
0.5
 40
0.5
 40
0.5
 40
1.0
 40
1.0
 40
1.0
 40
1.0
 10
126.9231573720011
 20
191.3971162701203
 30
0.0
 10
126.860589920361
 20
191.3971162701203
 30
0.0
 10
126.7986519719442
 20
191.416360926113
 30
0.0
 10
126.7505101548549
 20
191.4569169651742
 30
0.0
 10
126.7023683377657
 20
191.4974730042354
 30
0.0
 10
126.673104072006
 20
191.5613089703491
 30
0.0
 10
126.6835362517523
 20
191.6243259459707
 30
0.0
  0
SPLINE
  5
5F
330
58
100
AcDbEntity
  8
MEGA_002117
  6
CONTINUOUS
 62
     7
 48
25.4
100
AcDbSpline
210
0.0
220
0.0
230
1.0
 70
     8
 71
     3
 72
    11
 73
     7
 74
     0
 42
0.0000000001
 43
0.0000000001
 40
0.0
 40
0.0
 40
0.0
 40
0.0
 40
0.5
 40
0.5
 40
0.5
 40
1.0
 40
1.0
 40
1.0
 40
1.0
 10
139.2019530755313
 20
191.6243259459707
 30
0.0
 10
139.2123437242011
 20
191.5615598443647
 30
0.0
 10
139.1828174387986
 20
191.4972920095044
 30
0.0
 10
139.1351358004709
 20
191.4570490355747
 30
0.0
 10
139.0874541621431
 20
191.4168060616451
 30
0.0
 10
139.0247698088879
 20
191.3971162701203
 30
0.0
 10
138.9623319552824
 20
191.3971162701203
 30
0.0
  0
SPLINE
  5
60
330
58
100
AcDbEntity
  8
MEGA_002117
  6
CONTINUOUS
 62
     7
 48
25.4
100
AcDbSpline
210
0.0
220
0.0
230
1.0
 70
     8
 71
     3
 72
    11
 73
     7
 74
     0
 42
0.0000000001
 43
0.0000000001
 40
0.0
 40
0.0
 40
0.0
 40
0.0
 40
0.5
 40
0.5
 40
0.5
 40
1.0
 40
1.0
 40
1.0
 40
1.0
 10
138.9623319552824
 20
189.3971162701203
 30
0.0
 10
139.0248994069226
 20
189.3971162701203
 30
0.0
 10
139.0868373553394
 20
189.3778716141276
 30
0.0
 10
139.1349791724286
 20
189.3373155750663
 30
0.0
 10
139.1831209895179
 20
189.2967595360051
 30
0.0
 10
139.2123852552776
 20
189.2329235698914
 30
0.0
 10
139.2019530755313
 20
189.1699065942698
 30
0.0
  0
SPLINE
  5
61
330
58
100
AcDbEntity
  8
MEGA_002117
  6
CONTINUOUS
 62
     7
 48
25.4
100
AcDbSpline
210
0.0
220
0.0
230
1.0
 70
     8
 71
     3
 72
    11
 73
     7
 74
     0
 42
0.0000000001
 43
0.0000000001
 40
0.0
 40
0.0
 40
0.0
 40
0.0
 40
0.5
 40
0.5
 40
0.5
 40
1.0
 40
1.0
 40
1.0
 40
1.0
 10
126.6835362517523
 20
189.1699065942698
 30
0.0
 10
126.6731456030825
 20
189.2326726958759
 30
0.0
 10
126.7026718884849
 20
189.2969405307362
 30
0.0
 10
126.7503535268127
 20
189.3371835046658
 30
0.0
 10
126.7980351651405
 20
189.3774264785955
 30
0.0
 10
126.8607195183956
 20
189.3971162701203
 30
0.0
 10
126.9231573720011
 20
189.3971162701203
 30
0.0
  0
LINE
  5
62
330
58
100
AcDbEntity
  8
MEGA_002117
  6
CONTINUOUS
 62
     7
 48
25.4
100
AcDbLine
 10
137.8017854934
 20
189.3971162701
 30
0.0
 11
138.9623319553
 21
189.3971162701
 31
0.0
  0
LINE
  5
63
330
58
100
AcDbEntity
  8
MEGA_002117
  6
CONTINUOUS
 62
     7
 48
25.4
100
AcDbLine
 10
128.3025048631
 20
189.3971162701
 30
0.0
 11
137.5829844642
 21
189.3971162701
 31
0.0
  0
LINE
  5
64
330
58
100
AcDbEntity
  8
MEGA_002117
  6
CONTINUOUS
 62
     7
 48
25.4
100
AcDbLine
 10
137.5829844642
 20
189.3971162701
 30
0.0
 11
137.8017854934
 21
189.3971162701
 31
0.0
  0
LINE
  5
65
330
58
100
AcDbEntity
  8
MEGA_002117
  6
CONTINUOUS
 62
     7
 48
25.4
100
AcDbLine
 10
128.0837038339
 20
189.3971162701
 30
0.0
 11
128.3025048631
 21
189.3971162701
 31
0.0
  0
LINE
  5
66
330
58
100
AcDbEntity
  8
MEGA_002117
  6
CONTINUOUS
 62
     7
 48
25.4
100
AcDbLine
 10
126.923157372
 20
189.3971162701
 30
0.0
 11
128.0837038339
 21
189.3971162701
 31
0.0
  0
LINE
  5
67
330
58
100
AcDbEntity
  8
MEGA_002117
  6
CONTINUOUS
 62
     7
 48
25.4
100
AcDbLine
 10
128.0837038339
 20
191.3971162701
 30
0.0
 11
126.923157372
 21
191.3971162701
 31
0.0
  0
LINE
  5
68
330
58
100
AcDbEntity
  8
MEGA_002117
  6
CONTINUOUS
 62
     7
 48
25.4
100
AcDbLine
 10
138.9623319553
 20
191.3971162701
 30
0.0
 11
137.8017854934
 21
191.3971162701
 31
0.0
  0
LINE
  5
69
330
58
100
AcDbEntity
  8
MEGA_002117
  6
CONTINUOUS
 62
     7
 48
25.4
100
AcDbLine
 10
137.8017854934
 20
191.3971162701
 30
0.0
 11
137.5829844642
 21
191.3971162701
 31
0.0
  0
LINE
  5
6A
330
58
100
AcDbEntity
  8
MEGA_002117
  6
CONTINUOUS
 62
     7
 48
25.4
100
AcDbLine
 10
137.5829844642
 20
191.3971162701
 30
0.0
 11
128.3025048631
 21
191.3971162701
 31
0.0
  0
LINE
  5
6B
330
58
100
AcDbEntity
  8
MEGA_002117
  6
CONTINUOUS
 62
     7
 48
25.4
100
AcDbLine
 10
128.3025048631
 20
191.3971162701
 30
0.0
 11
128.0837038339
 21
191.3971162701
 31
0.0
  0
CIRCLE
  5
6D
330
58
100
AcDbEntity
  8
MEGA_001123
  6
CONTINUOUS
 62
     7
 48
25.4
100
AcDbCircle
 10
132.9427446636
 20
201.3971162701
 30
0.0
 40
2.5
  0
ARC
  5
6E
330
58
100
AcDbEntity
  8
MEGA_001123
  6
CONTINUOUS
 62
     7
 48
25.4
100
AcDbCircle
 10
132.9427446636
 20
190.3971162701
 30
0.0
 40
26.0
100
AcDbArc
 50
275.0751066988
 51
264.9248933012
  0
ARC
  5
70
330
58
100
AcDbEntity
  8
MEGA_001468
  6
CONTINUOUS
 62
     7
 48
25.4
100
AcDbCircle
 10
132.9427446636
 20
190.3971162701
 30
0.0
 40
26.0
100
AcDbArc
 50
265.0355017466
 51
274.9644982534
  0
ARC
  5
72
330
58
100
AcDbEntity
  8
STANDARD
  6
CONTINUOUS
 62
     7
 48
25.4
100
AcDbCircle
 10
132.942744664
 20
190.3971190124
 30
0.0
 40
26.0000027296
100
AcDbArc
 50
264.4822662066
 51
275.517733792
  0
ENDBLK
  5
74
330
58
100
AcDbEntity
  8
0
100
AcDbBlockEnd
  0
BLOCK
  5
9A
330
75
100
AcDbEntity
  8
0
100
AcDbBlockBegin
  2
SE7
 70
     0
 71
     0
 10
0.0
 20
0.0
 30
0.0
  3
SE7
  1

  0
LINE
  5
77
330
75
100
AcDbEntity
  8
MEGA_002117
  6
CONTINUOUS
 62
     7
 48
25.4
100
AcDbLine
 10
126.6835362518
 20
85.6668079939
 30
0.0
 11
126.5823923457
 21
85.6485100046
 31
0.0
  0
LINE
  5
78
330
75
100
AcDbEntity
  8
MEGA_002117
  6
CONTINUOUS
 62
     7
 48
25.4
100
AcDbLine
 10
139.2019530755
 20
85.6668079939
 30
0.0
 11
139.3030969816
 21
85.6485100046
 31
0.0
  0
SPLINE
  5
79
330
75
100
AcDbEntity
  8
MEGA_002117
  6
CONTINUOUS
 62
     7
 48
25.4
100
AcDbSpline
210
0.0
220
0.0
230
1.0
 70
     8
 71
     3
 72
     8
 73
     4
 74
     0
 42
0.0000000001
 43
0.0000000001
 40
0.0
 40
0.0
 40
0.0
 40
0.0
 40
1.0
 40
1.0
 40
1.0
 40
1.0
 10
139.2019530755313
 20
85.66680799387386
 30
0.0
 10
139.2034538468996
 20
85.66653648865518
 30
0.0
 10
139.2041218945649
 20
85.66641622515436
 30
0.0
 10
139.2040227886615
 20
85.66643488327166
 30
0.0
  0
LINE
  5
7A
330
75
100
AcDbEntity
  8
MEGA_002117
  6
CONTINUOUS
 62
     7
 48
25.4
100
AcDbLine
 10
137.5829844642
 20
84.2884278287
 30
0.0
 11
128.3025048631
 21
84.2884278287
 31
0.0
  0
ARC
  5
7B
330
75
100
AcDbEntity
  8
MEGA_002117
  6
CONTINUOUS
 62
     7
 48
25.4
100
AcDbCircle
 10
137.5826789335
 20
84.7953347971
 30
0.0
 40
0.5069070604999979
100
AcDbArc
 50
270.034534187
 51
314.6757162541
  0
LINE
  5
7C
330
75
100
AcDbEntity
  8
MEGA_002117
  6
CONTINUOUS
 62
     7
 48
25.4
100
AcDbLine
 10
139.3026149956
 20
85.6482981607
 30
0.0
 11
140.7962980542
 21
87.1419812193
 31
0.0
  0
ARC
  5
7D
330
75
100
AcDbEntity
  8
MEGA_002117
  6
CONTINUOUS
 62
     7
 48
25.4
100
AcDbCircle
 10
140.4427446636
 20
87.4955346098
 30
0.0
 40
0.5
100
AcDbArc
 50
315.0
 51
360.0
  0
LINE
  5
7E
330
75
100
AcDbEntity
  8
MEGA_002117
  6
CONTINUOUS
 62
     7
 48
25.4
100
AcDbLine
 10
124.9427446636
 20
89.8884278287
 30
0.0
 11
124.9427446636
 21
87.4955346098
 31
0.0
  0
LINE
  5
7F
330
75
100
AcDbEntity
  8
MEGA_002117
  6
CONTINUOUS
 62
     7
 48
25.4
100
AcDbLine
 10
125.089191273
 20
87.1419812193
 30
0.0
 11
126.5828743316
 21
85.6482981607
 31
0.0
  0
ARC
  5
80
330
75
100
AcDbEntity
  8
MEGA_002117
  6
CONTINUOUS
 62
     7
 48
25.4
100
AcDbCircle
 10
283.0290108784
 20
244.4001447272
 30
0.0
 40
222.8021332411
100
AcDbArc
 50
225.4342190915
 51
225.8879076392
  0
ARC
  5
81
330
75
100
AcDbEntity
  8
MEGA_002117
  6
CONTINUOUS
 62
     7
 48
25.4
100
AcDbCircle
 10
128.2953454895
 20
84.7862900944
 30
0.0
 40
0.4966609159999962
100
AcDbArc
 50
225.2047403235
 51
270.8300880239
  0
ARC
  5
82
330
75
100
AcDbEntity
  8
MEGA_002117
  6
CONTINUOUS
 62
     7
 48
25.4
100
AcDbCircle
 10
9.8469933097
 20
217.0771657471
 30
0.0
 40
184.3988958164
100
AcDbArc
 50
314.0002067685
 51
314.548359632
  0
ARC
  5
83
330
75
100
AcDbEntity
  8
MEGA_002117
  6
CONTINUOUS
 62
     7
 48
25.4
100
AcDbCircle
 10
137.5903538931
 20
84.7867011929
 30
0.0
 40
0.4969247360000111
100
AcDbArc
 50
269.9992632496
 51
314.7451834109
  0
ARC
  5
84
330
75
100
AcDbEntity
  8
MEGA_002117
  6
CONTINUOUS
 62
     7
 48
25.4
100
AcDbCircle
 10
247.2632870237
 20
208.0504023387
 30
0.0
 40
171.8094746589
100
AcDbArc
 50
225.4254112685
 51
226.0137322667
  0
ARC
  5
85
330
75
100
AcDbEntity
  8
MEGA_002117
  6
CONTINUOUS
 62
     7
 48
25.4
100
AcDbCircle
 10
125.4427446636
 20
87.4955346098
 30
0.0
 40
0.5
100
AcDbArc
 50
180.0
 51
225.0
  0
LINE
  5
86
330
75
100
AcDbEntity
  8
MEGA_002117
  6
CONTINUOUS
 62
     7
 48
25.4
100
AcDbLine
 10
140.9427446636
 20
87.4955346098
 30
0.0
 11
140.9427446636
 21
89.8884278287
 31
0.0
  0
ARC
  5
87
330
75
100
AcDbEntity
  8
MEGA_002117
  6
CONTINUOUS
 62
     7
 48
25.4
100
AcDbCircle
 10
128.3028482239
 20
84.7954267842
 30
0.0
 40
0.5069990718000099
100
AcDbArc
 50
225.328552642
 51
269.9611969169
  0
LINE
  5
88
330
75
100
AcDbEntity
  8
MEGA_001123
  6
CONTINUOUS
 62
     7
 48
25.4
100
AcDbLine
 10
158.693522447
 20
93.5398048577
 30
0.0
 11
158.9427446636
 21
96.3884278287
 31
0.0
  0
LINE
  5
89
330
75
100
AcDbEntity
  8
MEGA_001123
  6
CONTINUOUS
 62
     7
 48
25.4
100
AcDbLine
 10
106.9427446636
 20
96.3884278287
 30
0.0
 11
107.1919668803
 21
93.5398048577
 31
0.0
  0
LINE
  5
8A
330
75
100
AcDbEntity
  8
MEGA_001123
  6
CONTINUOUS
 62
     7
 48
25.4
100
AcDbLine
 10
111.1767456726
 20
89.8884278287
 30
0.0
 11
154.7087436547
 21
89.8884278287
 31
0.0
  0
LINE
  5
8B
330
75
100
AcDbEntity
  8
MEGA_001123
  6
CONTINUOUS
 62
     7
 48
25.4
100
AcDbLine
 10
158.9427446636
 20
96.3884278287
 30
0.0
 11
135.2427446636
 21
96.3884278287
 31
0.0
  0
LINE
  5
8C
330
75
100
AcDbEntity
  8
MEGA_001123
  6
CONTINUOUS
 62
     7
 48
25.4
100
AcDbLine
 10
130.6427446636
 20
96.3884278287
 30
0.0
 11
106.9427446636
 21
96.3884278287
 31
0.0
  0
ARC
  5
8D
330
75
100
AcDbEntity
  8
MEGA_001123
  6
CONTINUOUS
 62
     7
 48
25.4
100
AcDbCircle
 10
154.7087436547
 20
93.8884278287
 30
0.0
 40
4.0
100
AcDbArc
 50
270.0
 51
355.0
  0
ARC
  5
8E
330
75
100
AcDbEntity
  8
MEGA_001123
  6
CONTINUOUS
 62
     7
 48
25.4
100
AcDbCircle
 10
111.1767456726
 20
93.8884278287
 30
0.0
 40
4.0
100
AcDbArc
 50
185.0
 51
270.0
  0
LINE
  5
8F
330
75
100
AcDbEntity
  8
MEGA_001123
  6
CONTINUOUS
 62
     7
 48
25.4
100
AcDbLine
 10
130.6421875231
 20
96.3884278287
 30
0.0
 11
135.2431220768
 21
96.3884278287
 31
0.0
  0
LINE
  5
90
330
75
100
AcDbEntity
  8
MEGA_001468
  6
CONTINUOUS
 62
     7
 48
25.4
100
AcDbLine
 10
148.600497485
 20
99.905877577
 30
0.0
 11
148.4776654331
 21
96.3884278287
 31
0.0
  0
LINE
  5
91
330
75
100
AcDbEntity
  8
MEGA_001468
  6
CONTINUOUS
 62
     7
 48
25.4
100
AcDbLine
 10
155.4078238942
 20
96.3884278287
 30
0.0
 11
155.2849918423
 21
99.905877577
 31
0.0
  0
LINE
  5
92
330
75
100
AcDbEntity
  8
MEGA_001468
  6
CONTINUOUS
 62
     7
 48
25.4
100
AcDbLine
 10
110.600497485
 20
99.905877577
 30
0.0
 11
110.4776654331
 21
96.3884278287
 31
0.0
  0
LINE
  5
93
330
75
100
AcDbEntity
  8
MEGA_001468
  6
CONTINUOUS
 62
     7
 48
25.4
100
AcDbLine
 10
117.4078238942
 20
96.3884278287
 30
0.0
 11
117.2849918423
 21
99.905877577
 31
0.0
  0
LINE
  5
94
330
75
100
AcDbEntity
  8
MEGA_001468
  6
CONTINUOUS
 62
     7
 48
25.4
100
AcDbLine
 10
154.7852964288
 20
100.3884278287
 30
0.0
 11
149.1001928985
 21
100.3884278287
 31
0.0
  0
LINE
  5
95
330
75
100
AcDbEntity
  8
MEGA_001468
  6
CONTINUOUS
 62
     7
 48
25.4
100
AcDbLine
 10
116.7852964288
 20
100.3884278287
 30
0.0
 11
111.1001928985
 21
100.3884278287
 31
0.0
  0
ARC
  5
96
330
75
100
AcDbEntity
  8
MEGA_001468
  6
CONTINUOUS
 62
     7
 48
25.4
100
AcDbCircle
 10
154.7852964288
 20
99.8884278287
 30
0.0
 40
0.5
100
AcDbArc
 50
2.0
 51
90.0
  0
ARC
  5
97
330
75
100
AcDbEntity
  8
MEGA_001468
  6
CONTINUOUS
 62
     7
 48
25.4
100
AcDbCircle
 10
116.7852964288
 20
99.8884278287
 30
0.0
 40
0.5
100
AcDbArc
 50
2.0
 51
90.0
  0
ARC
  5
98
330
75
100
AcDbEntity
  8
MEGA_001468
  6
CONTINUOUS
 62
     7
 48
25.4
100
AcDbCircle
 10
149.1001928985
 20
99.8884278287
 30
0.0
 40
0.5
100
AcDbArc
 50
90.0
 51
178.0
  0
ARC
  5
99
330
75
100
AcDbEntity
  8
MEGA_001468
  6
CONTINUOUS
 62
     7
 48
25.4
100
AcDbCircle
 10
111.1001928985
 20
99.8884278287
 30
0.0
 40
0.5
100
AcDbArc
 50
90.0
 51
178.0
  0
ENDBLK
  5
9B
330
75
100
AcDbEntity
  8
0
100
AcDbBlockEnd
  0
BLOCK
  5
BC
330
9C
100
AcDbEntity
  8
0
100
AcDbBlockBegin
  2
SE8
 70
     0
 71
     0
 10
0.0
 20
0.0
 30
0.0
  3
SE8
  1

  0
ARC
  5
9E
330
9C
100
AcDbEntity
  8
MEGA_002117
  6
CONTINUOUS
 62
     7
 48
25.4
100
AcDbCircle
 10
45.3693998475
 20
189.1971162701
 30
0.0
 40
0.2000000000000028
100
AcDbArc
 50
90.0
 51
180.0
  0
ARC
  5
9F
330
9C
100
AcDbEntity
  8
MEGA_002117
  6
CONTINUOUS
 62
     7
 48
25.4
100
AcDbCircle
 10
87.6650842528
 20
190.3971162701
 30
0.0
 40
41.13561415070001
100
AcDbArc
 50
178.2904261717
 51
181.7095738283
  0
ARC
  5
A0
330
9C
100
AcDbEntity
  8
MEGA_002117
  6
CONTINUOUS
 62
     7
 48
25.4
100
AcDbCircle
 10
45.3693998475
 20
191.5971162701
 30
0.0
 40
0.2000000000000028
100
AcDbArc
 50
180.0
 51
270.0
  0
LINE
  5
A1
330
9C
100
AcDbEntity
  8
MEGA_002117
  6
CONTINUOUS
 62
     7
 48
25.4
100
AcDbLine
 10
45.1693998475
 20
195.1900094889
 30
0.0
 11
45.1693998475
 21
191.5971162701
 31
0.0
  0
LINE
  5
A2
330
9C
100
AcDbEntity
  8
MEGA_002117
  6
CONTINUOUS
 62
     7
 48
25.4
100
AcDbLine
 10
45.4572678132
 20
191.3971162701
 30
0.0
 11
45.3693998475
 21
191.3971162701
 31
0.0
  0
LINE
  5
A3
330
9C
100
AcDbEntity
  8
MEGA_002117
  6
CONTINUOUS
 62
     7
 48
25.4
100
AcDbLine
 10
46.541605527
 20
191.3971162701
 30
0.0
 11
45.4572678132
 21
191.3971162701
 31
0.0
  0
LINE
  5
A4
330
9C
100
AcDbEntity
  8
MEGA_002117
  6
CONTINUOUS
 62
     7
 48
25.4
100
AcDbLine
 10
45.1693998475
 20
185.6042230513
 30
0.0
 11
45.1693998475
 21
189.1971162701
 31
0.0
  0
LINE
  5
A5
330
9C
100
AcDbEntity
  8
MEGA_002117
  6
CONTINUOUS
 62
     7
 48
25.4
100
AcDbLine
 10
45.4572678132
 20
189.3971162701
 30
0.0
 11
46.5416055497
 21
189.3971162701
 31
0.0
  0
LINE
  5
A6
330
9C
100
AcDbEntity
  8
MEGA_002117
  6
CONTINUOUS
 62
     7
 48
25.4
100
AcDbLine
 10
45.3693998475
 20
189.3971162701
 30
0.0
 11
45.4572678132
 21
189.3971162701
 31
0.0
  0
LINE
  5
A7
330
9C
100
AcDbEntity
  8
MEGA_002117
  6
CONTINUOUS
 62
     7
 48
25.4
100
AcDbLine
 10
45.3158464569
 20
185.2506696607
 30
0.0
 11
48.0229532381
 21
182.5435628795
 31
0.0
  0
ARC
  5
A8
330
9C
100
AcDbEntity
  8
MEGA_002117
  6
CONTINUOUS
 62
     7
 48
25.4
100
AcDbCircle
 10
48.3765066287
 20
182.8971162701
 30
0.0
 40
0.5
100
AcDbArc
 50
225.0
 51
270.0
  0
LINE
  5
A9
330
9C
100
AcDbEntity
  8
MEGA_002117
  6
CONTINUOUS
 62
     7
 48
25.4
100
AcDbLine
 10
50.7693998475
 20
198.3971162701
 30
0.0
 11
48.3765066287
 21
198.3971162701
 31
0.0
  0
LINE
  5
AA
330
9C
100
AcDbEntity
  8
MEGA_002117
  6
CONTINUOUS
 62
     7
 48
25.4
100
AcDbLine
 10
48.0229532381
 20
198.2506696607
 30
0.0
 11
45.3158464569
 21
195.5435628795
 31
0.0
  0
ARC
  5
AB
330
9C
100
AcDbEntity
  8
MEGA_002117
  6
CONTINUOUS
 62
     7
 48
25.4
100
AcDbCircle
 10
45.6693998475
 20
195.1900094889
 30
0.0
 40
0.5
100
AcDbArc
 50
135.0
 51
180.0
  0
ARC
  5
AC
330
9C
100
AcDbEntity
  8
MEGA_002117
  6
CONTINUOUS
 62
     7
 48
25.4
100
AcDbCircle
 10
45.6693998475
 20
185.6042230513
 30
0.0
 40
0.5
100
AcDbArc
 50
180.0
 51
225.0
  0
ARC
  5
AD
330
9C
100
AcDbEntity
  8
MEGA_002117
  6
CONTINUOUS
 62
     7
 48
25.4
100
AcDbCircle
 10
48.3765066287
 20
197.8971162701
 30
0.0
 40
0.5
100
AcDbArc
 50
90.0
 51
135.0
  0
LINE
  5
AE
330
9C
100
AcDbEntity
  8
MEGA_002117
  6
CONTINUOUS
 62
     7
 48
25.4
100
AcDbLine
 10
48.3765066287
 20
182.3971162701
 30
0.0
 11
50.7693998475
 21
182.3971162701
 31
0.0
  0
LINE
  5
AF
330
9C
100
AcDbEntity
  8
MEGA_001123
  6
CONTINUOUS
 62
     7
 48
25.4
100
AcDbLine
 10
54.4207768765
 20
164.6463384867
 30
0.0
 11
57.2693998475
 21
164.3971162701
 31
0.0
  0
ARC
  5
B0
330
9C
100
AcDbEntity
  8
MEGA_001123
  6
CONTINUOUS
 62
     7
 48
25.4
100
AcDbCircle
 10
54.7693998475
 20
168.6311172791
 30
0.0
 40
4.0
100
AcDbArc
 50
180.0
 51
265.0
  0
LINE
  5
B1
330
9C
100
AcDbEntity
  8
MEGA_001123
  6
CONTINUOUS
 62
     7
 48
25.4
100
AcDbLine
 10
55.2693998475
 20
216.2221389431
 30
0.0
 11
54.4207768765
 21
216.1478940535
 31
0.0
  0
ARC
  5
B2
330
9C
100
AcDbEntity
  8
MEGA_001123
  6
CONTINUOUS
 62
     7
 48
25.4
100
AcDbCircle
 10
54.7693998475
 20
212.1631152611
 30
0.0
 40
4.0
100
AcDbArc
 50
95.0
 51
180.0
  0
LINE
  5
B3
330
9C
100
AcDbEntity
  8
MEGA_001123
  6
CONTINUOUS
 62
     7
 48
25.4
100
AcDbLine
 10
50.7693998475
 20
168.6311172791
 30
0.0
 11
50.7693998475
 21
212.1631152611
 31
0.0
  0
LINE
  5
B4
330
9C
100
AcDbEntity
  8
MEGA_001123
  6
CONTINUOUS
 62
     7
 48
25.4
100
AcDbLine
 10
57.2693998475
 20
216.2951856962
 30
0.0
 11
57.2693998475
 21
164.3971162701
 31
0.0
  0
LINE
  5
B5
330
9C
100
AcDbEntity
  8
MEGA_001468
  6
CONTINUOUS
 62
     7
 48
25.4
100
AcDbLine
 10
60.7868495959
 20
193.7393634488
 30
0.0
 11
56.7519500992
 21
193.880265244
 31
0.0
  0
LINE
  5
B6
330
9C
100
AcDbEntity
  8
MEGA_001468
  6
CONTINUOUS
 62
     7
 48
25.4
100
AcDbLine
 10
57.2693998475
 20
186.9320370396
 30
0.0
 11
60.7868495959
 21
187.0548690915
 31
0.0
  0
ARC
  5
B7
330
9C
100
AcDbEntity
  8
MEGA_001468
  6
CONTINUOUS
 62
     7
 48
25.4
100
AcDbCircle
 10
60.7693998475
 20
187.554564505
 30
0.0
 40
0.5
100
AcDbArc
 50
272.0
 51
360.0
  0
ARC
  5
B8
330
9C
100
AcDbEntity
  8
MEGA_001468
  6
CONTINUOUS
 62
     7
 48
25.4
100
AcDbCircle
 10
60.7693998475
 20
193.2396680353
 30
0.0
 40
0.5
100
AcDbArc
 50
0.0
 51
88.0
  0
LINE
  5
B9
330
9C
100
AcDbEntity
  8
MEGA_001468
  6
CONTINUOUS
 62
     7
 48
25.4
100
AcDbLine
 10
61.2693998475
 20
187.554564505
 30
0.0
 11
61.2693998475
 21
193.2396680353
 31
0.0
  0
LINE
  5
BA
330
9C
100
AcDbEntity
  8
STANDARD
  6
CONTINUOUS
 62
     7
 48
25.4
100
AcDbLine
 10
55.2693998475
 20
216.2221389431
 30
0.0
 11
57.2693998475
 21
216.3971162701
 31
0.0
  0
LINE
  5
BB
330
9C
100
AcDbEntity
  8
STANDARD
  6
CONTINUOUS
 62
     7
 48
25.4
100
AcDbLine
 10
57.2693998475
 20
216.3971162701
 30
0.0
 11
57.2693998475
 21
216.2951856962
 31
0.0
  0
ENDBLK
  5
BD
330
9C
100
AcDbEntity
  8
0
100
AcDbBlockEnd
  0
BLOCK
  5
C8
330
BE
100
AcDbEntity
  8
0
100
AcDbBlockBegin
  2
SE9
 70
     0
 71
     0
 10
0.0
 20
0.0
 30
0.0
  3
SE9
  1

  0
POLYLINE
  5
C0
330
BE
100
AcDbEntity
  8
DEFAULT
  6
CONTINUOUS
 62
     7
 48
25.4
100
AcDb2dPolyline
 66
     1
 10
0.0
 20
0.0
 30
0.0
 70
     1
  0
VERTEX
  5
11C
330
C0
100
AcDbEntity
  8
DEFAULT
  6
CONTINUOUS
 62
     7
100
AcDbVertex
100
AcDb2dVertex
 10
80.4242945913
 20
167.3971162962
 30
0.0
  0
VERTEX
  5
11D
330
C0
100
AcDbEntity
  8
DEFAULT
  6
CONTINUOUS
 62
     7
100
AcDbVertex
100
AcDb2dVertex
 10
79.9242945869
 20
164.3971162701
 30
0.0
  0
VERTEX
  5
11E
330
C0
100
AcDbEntity
  8
DEFAULT
  6
CONTINUOUS
 62
     7
100
AcDbVertex
100
AcDb2dVertex
 10
79.4242945826
 20
167.3971162962
 30
0.0
  0
VERTEX
  5
11F
330
C0
100
AcDbEntity
  8
DEFAULT
  6
CONTINUOUS
 62
     7
100
AcDbVertex
100
AcDb2dVertex
 10
80.4242945913
 20
167.3971162962
 30
0.0
  0
SEQEND
  5
11B
330
C0
100
AcDbEntity
  8
DEFAULT
  6
CONTINUOUS
 62
     7
 48
25.4
  0
LINE
  5
C1
330
BE
100
AcDbEntity
  8
DEFAULT
  6
CONTINUOUS
 62
     7
 48
25.4
100
AcDbLine
 10
57.2693998475
 20
216.3971162701
 30
0.0
 11
81.4242946
 21
216.3971162701
 31
0.0
  0
LINE
  5
C2
330
BE
100
AcDbEntity
  8
DEFAULT
  6
CONTINUOUS
 62
     7
 48
25.4
100
AcDbLine
 10
57.2693998475
 20
164.3971162701
 30
0.0
 11
81.4242946
 21
164.3971162701
 31
0.0
  0
LINE
  5
C3
330
BE
100
AcDbEntity
  8
DEFAULT
  6
CONTINUOUS
 62
     7
 48
25.4
100
AcDbLine
 10
79.9242945869
 20
216.3971162701
 30
0.0
 11
79.9242945869
 21
164.3971151972
 31
0.0
  0
TEXT
  5
C5
330
BE
100
AcDbEntity
  8
DEFAULT
  6
CONTINUOUS
 62
     7
 48
25.4
100
AcDbText
 10
79.1742945869
 20
190.4446941378
 30
0.0
 40
3.0
  1
52
 50
90.0
  7
SEACAD_SEISO_TTF
 11
76.1742945869
 21
190.4446941378
 31
0.0
100
AcDbText
 73
     3
  0
TEXT
  5
C7
330
BE
100
AcDbEntity
  8
DEFAULT
  6
CONTINUOUS
 62
     7
 48
25.4
100
AcDbText
 10
79.1742945869
 20
186.8040827841
 30
0.0
 40
3.0
  1
O
 50
90.0
  7
SEACAD_SEMECI1_TTF
 11
76.1742945869
 21
186.8040827841
 31
0.0
100
AcDbText
 73
     3
  0
ENDBLK
  5
C9
330
BE
100
AcDbEntity
  8
0
100
AcDbBlockEnd
  0
BLOCK
  5
D2
330
CA
100
AcDbEntity
  8
0
100
AcDbBlockBegin
  2
SE10
 70
     0
 71
     0
 10
0.0
 20
0.0
 30
0.0
  3
SE10
  1

  0
POLYLINE
  5
CC
330
CA
100
AcDbEntity
  8
DEFAULT
  6
CONTINUOUS
 62
     7
 48
25.4
100
AcDb2dPolyline
 66
     1
 10
0.0
 20
0.0
 30
0.0
 70
     1
  0
VERTEX
  5
121
330
CC
100
AcDbEntity
  8
DEFAULT
  6
CONTINUOUS
 62
     7
100
AcDbVertex
100
AcDb2dVertex
 10
174.0744375245
 20
198.397116244
 30
0.0
  0
VERTEX
  5
122
330
CC
100
AcDbEntity
  8
DEFAULT
  6
CONTINUOUS
 62
     7
100
AcDbVertex
100
AcDb2dVertex
 10
173.5744375202
 20
201.3971162701
 30
0.0
  0
VERTEX
  5
123
330
CC
100
AcDbEntity
  8
DEFAULT
  6
CONTINUOUS
 62
     7
100
AcDbVertex
100
AcDb2dVertex
 10
173.0744375158
 20
198.397116244
 30
0.0
  0
VERTEX
  5
124
330
CC
100
AcDbEntity
  8
DEFAULT
  6
CONTINUOUS
 62
     7
100
AcDbVertex
100
AcDb2dVertex
 10
174.0744375245
 20
198.397116244
 30
0.0
  0
SEQEND
  5
120
330
CC
100
AcDbEntity
  8
DEFAULT
  6
CONTINUOUS
 62
     7
 48
25.4
  0
POLYLINE
  5
CD
330
CA
100
AcDbEntity
  8
DEFAULT
  6
CONTINUOUS
 62
     7
 48
25.4
100
AcDb2dPolyline
 66
     1
 10
0.0
 20
0.0
 30
0.0
 70
     1
  0
VERTEX
  5
126
330
CD
100
AcDbEntity
  8
DEFAULT
  6
CONTINUOUS
 62
     7
100
AcDbVertex
100
AcDb2dVertex
 10
174.0744375245
 20
193.3971162962
 30
0.0
  0
VERTEX
  5
127
330
CD
100
AcDbEntity
  8
DEFAULT
  6
CONTINUOUS
 62
     7
100
AcDbVertex
100
AcDb2dVertex
 10
173.5744375202
 20
190.3971162701
 30
0.0
  0
VERTEX
  5
128
330
CD
100
AcDbEntity
  8
DEFAULT
  6
CONTINUOUS
 62
     7
100
AcDbVertex
100
AcDb2dVertex
 10
173.0744375158
 20
193.3971162962
 30
0.0
  0
VERTEX
  5
129
330
CD
100
AcDbEntity
  8
DEFAULT
  6
CONTINUOUS
 62
     7
100
AcDbVertex
100
AcDb2dVertex
 10
174.0744375245
 20
193.3971162962
 30
0.0
  0
SEQEND
  5
125
330
CD
100
AcDbEntity
  8
DEFAULT
  6
CONTINUOUS
 62
     7
 48
25.4
  0
LINE
  5
CE
330
CA
100
AcDbEntity
  8
DEFAULT
  6
CONTINUOUS
 62
     7
 48
25.4
100
AcDbLine
 10
141.1974990207
 20
201.3971162701
 30
0.0
 11
175.0744375332
 21
201.3971162701
 31
0.0
  0
LINE
  5
CF
330
CA
100
AcDbEntity
  8
DEFAULT
  6
CONTINUOUS
 62
     7
 48
25.4
100
AcDbLine
 10
159.9420412841
 20
190.3971162701
 30
0.0
 11
175.0744375332
 21
190.3971162701
 31
0.0
  0
LINE
  5
D0
330
CA
100
AcDbEntity
  8
DEFAULT
  6
CONTINUOUS
 62
     7
 48
25.4
100
AcDbLine
 10
173.5744375202
 20
201.3971162701
 30
0.0
 11
173.5744375202
 21
190.3971163297
 31
0.0
  0
TEXT
  5
D1
330
CA
100
AcDbEntity
  8
DEFAULT
  6
CONTINUOUS
 62
     7
 48
25.4
100
AcDbText
 10
172.8244375202
 20
194.6698435726
 30
0.0
 40
3.0
  1
11
 50
90.0
  7
SEACAD_SEISO_TTF
 11
169.8244375202
 21
194.6698435726
 31
0.0
100
AcDbText
 73
     3
  0
ENDBLK
  5
D3
330
CA
100
AcDbEntity
  8
0
100
AcDbBlockEnd
  0
BLOCK
  5
DC
330
D4
100
AcDbEntity
  8
0
100
AcDbBlockBegin
  2
SE11
 70
     0
 71
     0
 10
0.0
 20
0.0
 30
0.0
  3
SE11
  1

  0
POLYLINE
  5
D6
330
D4
100
AcDbEntity
  8
DEFAULT
  6
CONTINUOUS
 62
     7
 48
25.4
100
AcDb2dPolyline
 66
     1
 10
0.0
 20
0.0
 30
0.0
 70
     1
  0
VERTEX
  5
12B
330
D6
100
AcDbEntity
  8
DEFAULT
  6
CONTINUOUS
 62
     7
100
AcDbVertex
100
AcDb2dVertex
 10
116.9427446897
 20
124.8841365072
 30
0.0
  0
VERTEX
  5
12C
330
D6
100
AcDbEntity
  8
DEFAULT
  6
CONTINUOUS
 62
     7
100
AcDbVertex
100
AcDb2dVertex
 10
113.9427446636
 20
124.3841365029
 30
0.0
  0
VERTEX
  5
12D
330
D6
100
AcDbEntity
  8
DEFAULT
  6
CONTINUOUS
 62
     7
100
AcDbVertex
100
AcDb2dVertex
 10
116.9427446897
 20
123.8841364985
 30
0.0
  0
VERTEX
  5
12E
330
D6
100
AcDbEntity
  8
DEFAULT
  6
CONTINUOUS
 62
     7
100
AcDbVertex
100
AcDb2dVertex
 10
116.9427446897
 20
124.8841365072
 30
0.0
  0
SEQEND
  5
12A
330
D6
100
AcDbEntity
  8
DEFAULT
  6
CONTINUOUS
 62
     7
 48
25.4
  0
POLYLINE
  5
D7
330
D4
100
AcDbEntity
  8
DEFAULT
  6
CONTINUOUS
 62
     7
 48
25.4
100
AcDb2dPolyline
 66
     1
 10
0.0
 20
0.0
 30
0.0
 70
     1
  0
VERTEX
  5
130
330
D7
100
AcDbEntity
  8
DEFAULT
  6
CONTINUOUS
 62
     7
100
AcDbVertex
100
AcDb2dVertex
 10
148.9427446376
 20
124.8841365072
 30
0.0
  0
VERTEX
  5
131
330
D7
100
AcDbEntity
  8
DEFAULT
  6
CONTINUOUS
 62
     7
100
AcDbVertex
100
AcDb2dVertex
 10
151.9427446636
 20
124.3841365029
 30
0.0
  0
VERTEX
  5
132
330
D7
100
AcDbEntity
  8
DEFAULT
  6
CONTINUOUS
 62
     7
100
AcDbVertex
100
AcDb2dVertex
 10
148.9427446376
 20
123.8841364985
 30
0.0
  0
VERTEX
  5
133
330
D7
100
AcDbEntity
  8
DEFAULT
  6
CONTINUOUS
 62
     7
100
AcDbVertex
100
AcDb2dVertex
 10
148.9427446376
 20
124.8841365072
 30
0.0
  0
SEQEND
  5
12F
330
D7
100
AcDbEntity
  8
DEFAULT
  6
CONTINUOUS
 62
     7
 48
25.4
  0
LINE
  5
D8
330
D4
100
AcDbEntity
  8
DEFAULT
  6
CONTINUOUS
 62
     7
 48
25.4
100
AcDbLine
 10
113.9427446636
 20
116.2145860542
 30
0.0
 11
113.9427446636
 21
125.8841365159
 31
0.0
  0
LINE
  5
D9
330
D4
100
AcDbEntity
  8
DEFAULT
  6
CONTINUOUS
 62
     7
 48
25.4
100
AcDbLine
 10
151.9427446636
 20
116.5315412034
 30
0.0
 11
151.9427446636
 21
125.8841365159
 31
0.0
  0
LINE
  5
DA
330
D4
100
AcDbEntity
  8
DEFAULT
  6
CONTINUOUS
 62
     7
 48
25.4
100
AcDbLine
 10
113.9427446636
 20
124.3841365029
 30
0.0
 11
151.9427434417
 21
124.3841365029
 31
0.0
  0
TEXT
  5
DB
330
D4
100
AcDbEntity
  8
DEFAULT
  6
CONTINUOUS
 62
     7
 48
25.4
100
AcDbText
 10
131.2041076891
 20
125.1341365029
 30
0.0
 40
3.0
  1
38
  7
SEACAD_SEISO_TTF
 11
131.2041076891
 21
128.1341365029
 31
0.0
100
AcDbText
 73
     3
  0
ENDBLK
  5
DD
330
D4
100
AcDbEntity
  8
0
100
AcDbBlockEnd
  0
BLOCK
  5
E7
330
DE
100
AcDbEntity
  8
0
100
AcDbBlockBegin
  2
SE12
 70
     0
 71
     0
 10
0.0
 20
0.0
 30
0.0
  3
SE12
  1

  0
POLYLINE
  5
E0
330
DE
100
AcDbEntity
  8
DEFAULT
  6
CONTINUOUS
 62
     7
 48
25.4
100
AcDb2dPolyline
 66
     1
 10
0.0
 20
0.0
 30
0.0
 70
     1
  0
VERTEX
  5
135
330
E0
100
AcDbEntity
  8
DEFAULT
  6
CONTINUOUS
 62
     7
100
AcDbVertex
100
AcDb2dVertex
 10
107.4595956637
 20
115.217009363
 30
0.0
  0
VERTEX
  5
136
330
E0
100
AcDbEntity
  8
DEFAULT
  6
CONTINUOUS
 62
     7
100
AcDbVertex
100
AcDb2dVertex
 10
110.4595956897
 20
114.7170093587
 30
0.0
  0
VERTEX
  5
137
330
E0
100
AcDbEntity
  8
DEFAULT
  6
CONTINUOUS
 62
     7
100
AcDbVertex
100
AcDb2dVertex
 10
107.4595956637
 20
114.2170093543
 30
0.0
  0
VERTEX
  5
138
330
E0
100
AcDbEntity
  8
DEFAULT
  6
CONTINUOUS
 62
     7
100
AcDbVertex
100
AcDb2dVertex
 10
107.4595956637
 20
115.217009363
 30
0.0
  0
SEQEND
  5
134
330
E0
100
AcDbEntity
  8
DEFAULT
  6
CONTINUOUS
 62
     7
 48
25.4
  0
POLYLINE
  5
E1
330
DE
100
AcDbEntity
  8
DEFAULT
  6
CONTINUOUS
 62
     7
 48
25.4
100
AcDb2dPolyline
 66
     1
 10
0.0
 20
0.0
 30
0.0
 70
     1
  0
VERTEX
  5
13A
330
E1
100
AcDbEntity
  8
DEFAULT
  6
CONTINUOUS
 62
     7
100
AcDbVertex
100
AcDb2dVertex
 10
120.4258936636
 20
115.217009363
 30
0.0
  0
VERTEX
  5
13B
330
E1
100
AcDbEntity
  8
DEFAULT
  6
CONTINUOUS
 62
     7
100
AcDbVertex
100
AcDb2dVertex
 10
117.4258936375
 20
114.7170093587
 30
0.0
  0
VERTEX
  5
13C
330
E1
100
AcDbEntity
  8
DEFAULT
  6
CONTINUOUS
 62
     7
100
AcDbVertex
100
AcDb2dVertex
 10
120.4258936636
 20
114.2170093543
 30
0.0
  0
VERTEX
  5
13D
330
E1
100
AcDbEntity
  8
DEFAULT
  6
CONTINUOUS
 62
     7
100
AcDbVertex
100
AcDb2dVertex
 10
120.4258936636
 20
115.217009363
 30
0.0
  0
SEQEND
  5
139
330
E1
100
AcDbEntity
  8
DEFAULT
  6
CONTINUOUS
 62
     7
 48
25.4
  0
LINE
  5
E2
330
DE
100
AcDbEntity
  8
DEFAULT
  6
CONTINUOUS
 62
     7
 48
25.4
100
AcDbLine
 10
110.4595956897
 20
96.4920978855
 30
0.0
 11
110.4595956897
 21
116.2170093717
 31
0.0
  0
LINE
  5
E3
330
DE
100
AcDbEntity
  8
DEFAULT
  6
CONTINUOUS
 62
     7
 48
25.4
100
AcDbLine
 10
117.4258936375
 20
96.6505754018
 30
0.0
 11
117.4258936375
 21
116.2170093717
 31
0.0
  0
LINE
  5
E4
330
DE
100
AcDbEntity
  8
DEFAULT
  6
CONTINUOUS
 62
     7
 48
25.4
100
AcDbLine
 10
99.9006701207
 20
114.7170093587
 30
0.0
 11
123.4258932566
 21
114.7170093587
 31
0.0
  0
TEXT
  5
E5
330
DE
100
AcDbEntity
  8
DEFAULT
  6
CONTINUOUS
 62
     7
 48
25.4
100
AcDbText
 10
104.5912816973
 20
115.4670093587
 30
0.0
 40
3.0
  1
7
  7
SEACAD_SEISO_TTF
 11
104.5912816973
 21
118.4670093587
 31
0.0
100
AcDbText
 73
     3
  0
TEXT
  5
E6
330
DE
100
AcDbEntity
  8
DEFAULT
  6
CONTINUOUS
 62
     7
 48
25.4
100
AcDbText
 10
100.9506703435
 20
115.4670093587
 30
0.0
 40
3.0
  1
O
  7
SEACAD_SEMECI1_TTF
 11
100.9506703435
 21
118.4670093587
 31
0.0
100
AcDbText
 73
     3
  0
ENDBLK
  5
E8
330
DE
100
AcDbEntity
  8
0
100
AcDbBlockEnd
  0
BLOCK
  5
F1
330
E9
100
AcDbEntity
  8
0
100
AcDbBlockBegin
  2
SE13
 70
     0
 71
     0
 10
0.0
 20
0.0
 30
0.0
  3
SE13
  1

  0
CIRCLE
  5
EB
330
E9
100
AcDbEntity
  8
DEFAULT
  6
CONTINUOUS
 62
     7
 48
25.4
100
AcDbCircle
 10
89.8008939984
 20
96.3884278287
 30
0.0
 40
1.000000008692339
  0
POLYLINE
  5
EC
330
E9
100
AcDbEntity
  8
DEFAULT
  6
CONTINUOUS
 62
     7
 48
25.4
100
AcDb2dPolyline
 66
     1
 10
0.0
 20
0.0
 30
0.0
 70
     1
  0
VERTEX
  5
13F
330
EC
100
AcDbEntity
  8
DEFAULT
  6
CONTINUOUS
 62
     7
100
AcDbVertex
100
AcDb2dVertex
 10
89.3008939941
 20
86.8884278026
 30
0.0
  0
VERTEX
  5
140
330
EC
100
AcDbEntity
  8
DEFAULT
  6
CONTINUOUS
 62
     7
100
AcDbVertex
100
AcDb2dVertex
 10
89.8008939984
 20
89.8884278287
 30
0.0
  0
VERTEX
  5
141
330
EC
100
AcDbEntity
  8
DEFAULT
  6
CONTINUOUS
 62
     7
100
AcDbVertex
100
AcDb2dVertex
 10
90.3008940028
 20
86.8884278026
 30
0.0
  0
VERTEX
  5
142
330
EC
100
AcDbEntity
  8
DEFAULT
  6
CONTINUOUS
 62
     7
100
AcDbVertex
100
AcDb2dVertex
 10
89.3008939941
 20
86.8884278026
 30
0.0
  0
SEQEND
  5
13E
330
EC
100
AcDbEntity
  8
DEFAULT
  6
CONTINUOUS
 62
     7
 48
25.4
  0
LINE
  5
ED
330
E9
100
AcDbEntity
  8
DEFAULT
  6
CONTINUOUS
 62
     7
 48
25.4
100
AcDbLine
 10
106.9427446636
 20
96.3884278287
 30
0.0
 11
88.3008939854
 21
96.3884278287
 31
0.0
  0
LINE
  5
EE
330
E9
100
AcDbEntity
  8
DEFAULT
  6
CONTINUOUS
 62
     7
 48
25.4
100
AcDbLine
 10
111.1767456726
 20
89.8884278287
 30
0.0
 11
88.3008939854
 21
89.8884278287
 31
0.0
  0
LINE
  5
EF
330
E9
100
AcDbEntity
  8
DEFAULT
  6
CONTINUOUS
 62
     7
 48
25.4
100
AcDbLine
 10
89.8008939984
 20
102.3884278808
 30
0.0
 11
89.8008939984
 21
83.8884276424
 31
0.0
  0
TEXT
  5
F0
330
E9
100
AcDbEntity
  8
DEFAULT
  6
CONTINUOUS
 62
     7
 48
25.4
100
AcDbText
 10
89.0508939984
 20
91.0929732162
 30
0.0
 40
3.0
  1
6,5
 50
90.0
  7
SEACAD_SEISO_TTF
 11
86.0508939984
 21
91.0929732162
 31
0.0
100
AcDbText
 73
     3
  0
ENDBLK
  5
F2
330
E9
100
AcDbEntity
  8
0
100
AcDbBlockEnd
  0
BLOCK
  5
FB
330
F3
100
AcDbEntity
  8
0
100
AcDbBlockBegin
  2
SE14
 70
     0
 71
     0
 10
0.0
 20
0.0
 30
0.0
  3
SE14
  1

  0
CIRCLE
  5
F5
330
F3
100
AcDbEntity
  8
DEFAULT
  6
CONTINUOUS
 62
     7
 48
25.4
100
AcDbCircle
 10
89.8008939984
 20
96.3884278287
 30
0.0
 40
1.000000008692339
  0
POLYLINE
  5
F6
330
F3
100
AcDbEntity
  8
DEFAULT
  6
CONTINUOUS
 62
     7
 48
25.4
100
AcDb2dPolyline
 66
     1
 10
0.0
 20
0.0
 30
0.0
 70
     1
  0
VERTEX
  5
144
330
F6
100
AcDbEntity
  8
DEFAULT
  6
CONTINUOUS
 62
     7
100
AcDbVertex
100
AcDb2dVertex
 10
89.3008939941
 20
103.3884278547
 30
0.0
  0
VERTEX
  5
145
330
F6
100
AcDbEntity
  8
DEFAULT
  6
CONTINUOUS
 62
     7
100
AcDbVertex
100
AcDb2dVertex
 10
89.8008939984
 20
100.3884278287
 30
0.0
  0
VERTEX
  5
146
330
F6
100
AcDbEntity
  8
DEFAULT
  6
CONTINUOUS
 62
     7
100
AcDbVertex
100
AcDb2dVertex
 10
90.3008940028
 20
103.3884278547
 30
0.0
  0
VERTEX
  5
147
330
F6
100
AcDbEntity
  8
DEFAULT
  6
CONTINUOUS
 62
     7
100
AcDbVertex
100
AcDb2dVertex
 10
89.3008939941
 20
103.3884278547
 30
0.0
  0
SEQEND
  5
143
330
F6
100
AcDbEntity
  8
DEFAULT
  6
CONTINUOUS
 62
     7
 48
25.4
  0
LINE
  5
F7
330
F3
100
AcDbEntity
  8
DEFAULT
  6
CONTINUOUS
 62
     7
 48
25.4
100
AcDbLine
 10
106.9427446636
 20
96.3884278287
 30
0.0
 11
88.3008939854
 21
96.3884278287
 31
0.0
  0
LINE
  5
F8
330
F3
100
AcDbEntity
  8
DEFAULT
  6
CONTINUOUS
 62
     7
 48
25.4
100
AcDbLine
 10
111.1001928985
 20
100.3884278287
 30
0.0
 11
88.3008939854
 21
100.3884278287
 31
0.0
  0
LINE
  5
F9
330
F3
100
AcDbEntity
  8
DEFAULT
  6
CONTINUOUS
 62
     7
 48
25.4
100
AcDbLine
 10
89.8008939984
 20
90.3884277765
 30
0.0
 11
89.8008939984
 21
106.3884276051
 31
0.0
  0
TEXT
  5
FA
330
F3
100
AcDbEntity
  8
DEFAULT
  6
CONTINUOUS
 62
     7
 48
25.4
100
AcDbText
 10
89.0508939984
 20
97.5020642873
 30
0.0
 40
3.0
  1
4
 50
90.0
  7
SEACAD_SEISO_TTF
 11
86.0508939984
 21
97.5020642873
 31
0.0
100
AcDbText
 73
     3
  0
ENDBLK
  5
FC
330
F3
100
AcDbEntity
  8
0
100
AcDbBlockEnd
  0
BLOCK
  5
105
330
FD
100
AcDbEntity
  8
0
100
AcDbBlockBegin
  2
SE15
 70
     0
 71
     0
 10
0.0
 20
0.0
 30
0.0
  3
SE15
  1

  0
POLYLINE
  5
FF
330
FD
100
AcDbEntity
  8
DEFAULT
  6
CONTINUOUS
 62
     7
 48
25.4
100
AcDb2dPolyline
 66
     1
 10
0.0
 20
0.0
 30
0.0
 70
     1
  0
VERTEX
  5
149
330
FF
100
AcDbEntity
  8
DEFAULT
  6
CONTINUOUS
 62
     7
100
AcDbVertex
100
AcDb2dVertex
 10
176.1219458957
 20
97.3884278026
 30
0.0
  0
VERTEX
  5
14A
330
FF
100
AcDbEntity
  8
DEFAULT
  6
CONTINUOUS
 62
     7
100
AcDbVertex
100
AcDb2dVertex
 10
175.6219458914
 20
100.3884278287
 30
0.0
  0
VERTEX
  5
14B
330
FF
100
AcDbEntity
  8
DEFAULT
  6
CONTINUOUS
 62
     7
100
AcDbVertex
100
AcDb2dVertex
 10
175.121945887
 20
97.3884278026
 30
0.0
  0
VERTEX
  5
14C
330
FF
100
AcDbEntity
  8
DEFAULT
  6
CONTINUOUS
 62
     7
100
AcDbVertex
100
AcDb2dVertex
 10
176.1219458957
 20
97.3884278026
 30
0.0
  0
SEQEND
  5
148
330
FF
100
AcDbEntity
  8
DEFAULT
  6
CONTINUOUS
 62
     7
 48
25.4
  0
POLYLINE
  5
100
330
FD
100
AcDbEntity
  8
DEFAULT
  6
CONTINUOUS
 62
     7
 48
25.4
100
AcDb2dPolyline
 66
     1
 10
0.0
 20
0.0
 30
0.0
 70
     1
  0
VERTEX
  5
14E
330
100
100
AcDbEntity
  8
DEFAULT
  6
CONTINUOUS
 62
     7
100
AcDbVertex
100
AcDb2dVertex
 10
176.1219458957
 20
87.2884278547
 30
0.0
  0
VERTEX
  5
14F
330
100
100
AcDbEntity
  8
DEFAULT
  6
CONTINUOUS
 62
     7
100
AcDbVertex
100
AcDb2dVertex
 10
175.6219458914
 20
84.2884278287
 30
0.0
  0
VERTEX
  5
150
330
100
100
AcDbEntity
  8
DEFAULT
  6
CONTINUOUS
 62
     7
100
AcDbVertex
100
AcDb2dVertex
 10
175.121945887
 20
87.2884278547
 30
0.0
  0
VERTEX
  5
151
330
100
100
AcDbEntity
  8
DEFAULT
  6
CONTINUOUS
 62
     7
100
AcDbVertex
100
AcDb2dVertex
 10
176.1219458957
 20
87.2884278547
 30
0.0
  0
SEQEND
  5
14D
330
100
100
AcDbEntity
  8
DEFAULT
  6
CONTINUOUS
 62
     7
 48
25.4
  0
LINE
  5
101
330
FD
100
AcDbEntity
  8
DEFAULT
  6
CONTINUOUS
 62
     7
 48
25.4
100
AcDbLine
 10
154.7852964288
 20
100.3884278287
 30
0.0
 11
177.1219459044
 21
100.3884278287
 31
0.0
  0
LINE
  5
102
330
FD
100
AcDbEntity
  8
DEFAULT
  6
CONTINUOUS
 62
     7
 48
25.4
100
AcDbLine
 10
137.5829844642
 20
84.2884278287
 30
0.0
 11
177.1219459044
 21
84.2884278287
 31
0.0
  0
LINE
  5
103
330
FD
100
AcDbEntity
  8
DEFAULT
  6
CONTINUOUS
 62
     7
 48
25.4
100
AcDbLine
 10
175.6219458914
 20
100.3884278287
 30
0.0
 11
175.6219458914
 21
84.2884272386
 31
0.0
  0
TEXT
  5
104
330
FD
100
AcDbEntity
  8
DEFAULT
  6
CONTINUOUS
 62
     7
 48
25.4
100
AcDbText
 10
174.8719458914
 20
89.9179729882
 30
0.0
 40
3.0
  1
16,1
 50
90.0
  7
SEACAD_SEISO_TTF
 11
171.8719458914
 21
89.9179729882
 31
0.0
100
AcDbText
 73
     3
  0
ENDBLK
  5
106
330
FD
100
AcDbEntity
  8
0
100
AcDbBlockEnd
  0
BLOCK
  5
10F
330
107
100
AcDbEntity
  8
0
100
AcDbBlockBegin
  2
SE16
 70
     0
 71
     0
 10
0.0
 20
0.0
 30
0.0
  3
SE16
  1

  0
POLYLINE
  5
109
330
107
100
AcDbEntity
  8
DEFAULT
  6
CONTINUOUS
 62
     7
 48
25.4
100
AcDb2dPolyline
 66
     1
 10
0.0
 20
0.0
 30
0.0
 70
     1
  0
VERTEX
  5
153
330
109
100
AcDbEntity
  8
DEFAULT
  6
CONTINUOUS
 62
     7
100
AcDbVertex
100
AcDb2dVertex
 10
127.4427446376
 20
225.2372614005
 30
0.0
  0
VERTEX
  5
154
330
109
100
AcDbEntity
  8
DEFAULT
  6
CONTINUOUS
 62
     7
100
AcDbVertex
100
AcDb2dVertex
 10
130.4427446636
 20
224.7372613961
 30
0.0
  0
VERTEX
  5
155
330
109
100
AcDbEntity
  8
DEFAULT
  6
CONTINUOUS
 62
     7
100
AcDbVertex
100
AcDb2dVertex
 10
127.4427446376
 20
224.2372613918
 30
0.0
  0
VERTEX
  5
156
330
109
100
AcDbEntity
  8
DEFAULT
  6
CONTINUOUS
 62
     7
100
AcDbVertex
100
AcDb2dVertex
 10
127.4427446376
 20
225.2372614005
 30
0.0
  0
SEQEND
  5
152
330
109
100
AcDbEntity
  8
DEFAULT
  6
CONTINUOUS
 62
     7
 48
25.4
  0
POLYLINE
  5
10A
330
107
100
AcDbEntity
  8
DEFAULT
  6
CONTINUOUS
 62
     7
 48
25.4
100
AcDb2dPolyline
 66
     1
 10
0.0
 20
0.0
 30
0.0
 70
     1
  0
VERTEX
  5
158
330
10A
100
AcDbEntity
  8
DEFAULT
  6
CONTINUOUS
 62
     7
100
AcDbVertex
100
AcDb2dVertex
 10
138.4427446897
 20
225.2372614005
 30
0.0
  0
VERTEX
  5
159
330
10A
100
AcDbEntity
  8
DEFAULT
  6
CONTINUOUS
 62
     7
100
AcDbVertex
100
AcDb2dVertex
 10
135.4427446636
 20
224.7372613961
 30
0.0
  0
VERTEX
  5
15A
330
10A
100
AcDbEntity
  8
DEFAULT
  6
CONTINUOUS
 62
     7
100
AcDbVertex
100
AcDb2dVertex
 10
138.4427446897
 20
224.2372613918
 30
0.0
  0
VERTEX
  5
15B
330
10A
100
AcDbEntity
  8
DEFAULT
  6
CONTINUOUS
 62
     7
100
AcDbVertex
100
AcDb2dVertex
 10
138.4427446897
 20
225.2372614005
 30
0.0
  0
SEQEND
  5
157
330
10A
100
AcDbEntity
  8
DEFAULT
  6
CONTINUOUS
 62
     7
 48
25.4
  0
LINE
  5
10B
330
107
100
AcDbEntity
  8
DEFAULT
  6
CONTINUOUS
 62
     7
 48
25.4
100
AcDbLine
 10
130.4427446636
 20
201.3971162701
 30
0.0
 11
130.4427446636
 21
226.2372614091
 31
0.0
  0
LINE
  5
10C
330
107
100
AcDbEntity
  8
DEFAULT
  6
CONTINUOUS
 62
     7
 48
25.4
100
AcDbLine
 10
135.4427446636
 20
201.3971162701
 30
0.0
 11
135.4427446636
 21
226.2372614091
 31
0.0
  0
LINE
  5
10D
330
107
100
AcDbEntity
  8
DEFAULT
  6
CONTINUOUS
 62
     7
 48
25.4
100
AcDbLine
 10
124.4427446115
 20
224.7372613961
 30
0.0
 11
141.442744604
 21
224.7372613961
 31
0.0
  0
TEXT
  5
10E
330
107
100
AcDbEntity
  8
DEFAULT
  6
CONTINUOUS
 62
     7
 48
25.4
100
AcDbText
 10
132.0904718805
 20
225.4872613961
 30
0.0
 40
3.0
  1
5
  7
SEACAD_SEISO_TTF
 11
132.0904718805
 21
228.4872613961
 31
0.0
100
AcDbText
 73
     3
  0
ENDBLK
  5
110
330
107
100
AcDbEntity
  8
0
100
AcDbBlockEnd
  0
BLOCK
  5
119
330
111
100
AcDbEntity
  8
0
100
AcDbBlockBegin
  2
SE17
 70
     0
 71
     0
 10
0.0
 20
0.0
 30
0.0
  3
SE17
  1

  0
POLYLINE
  5
113
330
111
100
AcDbEntity
  8
DEFAULT
  6
CONTINUOUS
 62
     7
 48
25.4
100
AcDb2dPolyline
 66
     1
 10
0.0
 20
0.0
 30
0.0
 70
     1
  0
VERTEX
  5
15D
330
113
100
AcDbEntity
  8
DEFAULT
  6
CONTINUOUS
 62
     7
100
AcDbVertex
100
AcDb2dVertex
 10
137.942747874
 20
153.3766393186
 30
0.0
  0
VERTEX
  5
15E
330
113
100
AcDbEntity
  8
DEFAULT
  6
CONTINUOUS
 62
     7
100
AcDbVertex
100
AcDb2dVertex
 10
140.9427478564
 20
153.8766395852
 30
0.0
  0
VERTEX
  5
15F
330
113
100
AcDbEntity
  8
DEFAULT
  6
CONTINUOUS
 62
     7
100
AcDbVertex
100
AcDb2dVertex
 10
137.9427477866
 20
154.3766393273
 30
0.0
  0
VERTEX
  5
160
330
113
100
AcDbEntity
  8
DEFAULT
  6
CONTINUOUS
 62
     7
100
AcDbVertex
100
AcDb2dVertex
 10
137.942747874
 20
153.3766393186
 30
0.0
  0
SEQEND
  5
15C
330
113
100
AcDbEntity
  8
DEFAULT
  6
CONTINUOUS
 62
     7
 48
25.4
  0
POLYLINE
  5
114
330
111
100
AcDbEntity
  8
DEFAULT
  6
CONTINUOUS
 62
     7
 48
25.4
100
AcDb2dPolyline
 66
     1
 10
0.0
 20
0.0
 30
0.0
 70
     1
  0
VERTEX
  5
162
330
114
100
AcDbEntity
  8
DEFAULT
  6
CONTINUOUS
 62
     7
100
AcDbVertex
100
AcDb2dVertex
 10
127.9427479262
 20
153.3766384443
 30
0.0
  0
VERTEX
  5
163
330
114
100
AcDbEntity
  8
DEFAULT
  6
CONTINUOUS
 62
     7
100
AcDbVertex
100
AcDb2dVertex
 10
124.9427478564
 20
153.8766381864
 30
0.0
  0
VERTEX
  5
164
330
114
100
AcDbEntity
  8
DEFAULT
  6
CONTINUOUS
 62
     7
100
AcDbVertex
100
AcDb2dVertex
 10
127.9427478387
 20
154.376638453
 30
0.0
  0
VERTEX
  5
165
330
114
100
AcDbEntity
  8
DEFAULT
  6
CONTINUOUS
 62
     7
100
AcDbVertex
100
AcDb2dVertex
 10
127.9427479262
 20
153.3766384443
 30
0.0
  0
SEQEND
  5
161
330
114
100
AcDbEntity
  8
DEFAULT
  6
CONTINUOUS
 62
     7
 48
25.4
  0
LINE
  5
115
330
111
100
AcDbEntity
  8
DEFAULT
  6
CONTINUOUS
 62
     7
 48
25.4
100
AcDbLine
 10
140.9427446636
 20
190.3971169695
 30
0.0
 11
140.9427479875
 21
152.3766395721
 31
0.0
  0
LINE
  5
116
330
111
100
AcDbEntity
  8
DEFAULT
  6
CONTINUOUS
 62
     7
 48
25.4
100
AcDbLine
 10
124.9427446636
 20
190.3971155707
 30
0.0
 11
124.9427479875
 21
152.3766381734
 31
0.0
  0
LINE
  5
117
330
111
100
AcDbEntity
  8
DEFAULT
  6
CONTINUOUS
 62
     7
 48
25.4
100
AcDbLine
 10
140.9427478564
 20
153.8766395852
 30
0.0
 11
124.9427470964
 21
153.8766381864
 31
0.0
  0
TEXT
  5
118
330
111
100
AcDbEntity
  8
DEFAULT
  6
CONTINUOUS
 62
     7
 48
25.4
100
AcDbText
 10
131.4086565018
 20
154.6266387517
 30
0.0
 40
3.0
  1
16
 50
0.000005009
  7
SEACAD_SEISO_TTF
 11
131.4086562395
 21
157.6266387517
 31
0.0
100
AcDbText
 73
     3
  0
ENDBLK
  5
11A
330
111
100
AcDbEntity
  8
0
100
AcDbBlockEnd
  0
ENDSEC
  0
SECTION
  2
ENTITIES
  0
INSERT
  5
2F
330
1F
100
AcDbEntity
  8
0
100
AcDbBlockReference
  2
SE
 10
0.0
 20
0.0
 30
0.0
  0
INSERT
  5
3B
330
1F
100
AcDbEntity
  8
0
100
AcDbBlockReference
  2
SE1
 10
0.0
 20
0.0
 30
0.0
  0
INSERT
  5
45
330
1F
100
AcDbEntity
  8
0
100
AcDbBlockReference
  2
SE2
 10
0.0
 20
0.0
 30
0.0
  0
INSERT
  5
4A
330
1F
100
AcDbEntity
  8
0
100
AcDbBlockReference
  2
SE3
 10
0.0
 20
0.0
 30
0.0
  0
INSERT
  5
4F
330
1F
100
AcDbEntity
  8
0
100
AcDbBlockReference
  2
SE4
 10
0.0
 20
0.0
 30
0.0
  0
INSERT
  5
54
330
1F
100
AcDbEntity
  8
0
100
AcDbBlockReference
  2
SE5
 10
0.0
 20
0.0
 30
0.0
  0
INSERT
  5
59
330
1F
100
AcDbEntity
  8
0
100
AcDbBlockReference
  2
SE6
 10
0.0
 20
0.0
 30
0.0
  0
INSERT
  5
76
330
1F
100
AcDbEntity
  8
0
100
AcDbBlockReference
  2
SE7
 10
0.0
 20
0.0
 30
0.0
  0
INSERT
  5
9D
330
1F
100
AcDbEntity
  8
0
100
AcDbBlockReference
  2
SE8
 10
0.0
 20
0.0
 30
0.0
  0
INSERT
  5
BF
330
1F
100
AcDbEntity
  8
0
100
AcDbBlockReference
  2
SE9
 10
0.0
 20
0.0
 30
0.0
  0
INSERT
  5
CB
330
1F
100
AcDbEntity
  8
0
100
AcDbBlockReference
  2
SE10
 10
0.0
 20
0.0
 30
0.0
  0
INSERT
  5
D5
330
1F
100
AcDbEntity
  8
0
100
AcDbBlockReference
  2
SE11
 10
0.0
 20
0.0
 30
0.0
  0
INSERT
  5
DF
330
1F
100
AcDbEntity
  8
0
100
AcDbBlockReference
  2
SE12
 10
0.0
 20
0.0
 30
0.0
  0
INSERT
  5
EA
330
1F
100
AcDbEntity
  8
0
100
AcDbBlockReference
  2
SE13
 10
0.0
 20
0.0
 30
0.0
  0
INSERT
  5
F4
330
1F
100
AcDbEntity
  8
0
100
AcDbBlockReference
  2
SE14
 10
0.0
 20
0.0
 30
0.0
  0
INSERT
  5
FE
330
1F
100
AcDbEntity
  8
0
100
AcDbBlockReference
  2
SE15
 10
0.0
 20
0.0
 30
0.0
  0
INSERT
  5
108
330
1F
100
AcDbEntity
  8
0
100
AcDbBlockReference
  2
SE16
 10
0.0
 20
0.0
 30
0.0
  0
INSERT
  5
112
330
1F
100
AcDbEntity
  8
0
100
AcDbBlockReference
  2
SE17
 10
0.0
 20
0.0
 30
0.0
  0
ENDSEC
  0
SECTION
  2
OBJECTS
  0
DICTIONARY
  5
C
330
0
100
AcDbDictionary
  3
ACAD_GROUP
350
D
  3
ACAD_LAYOUT
350
1A
  3
ACAD_MLINESTYLE
350
17
  3
ACAD_PLOTSETTINGS
350
19
  3
ACAD_TABLESTYLE
350
2A
  3
ACDBVARIABLEDICTIONARY
350
2C
1001
ACAD
1000
TREAT_AS_HARD
1070
     0
  0
DICTIONARY
  5
166
330
29
100
AcDbDictionary
  3
ACAD_XREC_ROUNDTRIP
360
167
  0
DICTIONARY
  5
D
102
{ACAD_REACTORS
330
C
102
}
330
C
100
AcDbDictionary
1001
ACAD
1000
TREAT_AS_HARD
1070
     0
  0
DICTIONARY
  5
1A
102
{ACAD_REACTORS
330
C
102
}
330
C
100
AcDbDictionary
1001
ACAD
1000
TREAT_AS_HARD
1070
     0
  0
DICTIONARY
  5
17
102
{ACAD_REACTORS
330
C
102
}
330
C
100
AcDbDictionary
  3
STANDARD
350
18
1001
ACAD
1000
TREAT_AS_HARD
1070
     0
  0
DICTIONARY
  5
19
102
{ACAD_REACTORS
330
C
102
}
330
C
100
AcDbDictionary
1001
ACAD
1000
TREAT_AS_HARD
1070
     0
  0
DICTIONARY
  5
2A
102
{ACAD_REACTORS
330
C
102
}
330
C
100
AcDbDictionary
  3
STANDARD
350
2B
1001
ACAD
1000
TREAT_AS_HARD
1070
     0
  0
DICTIONARY
  5
2C
102
{ACAD_REACTORS
330
C
102
}
330
C
100
AcDbDictionary
  3
CTABLESTYLE
350
2D
1001
ACAD
1000
TREAT_AS_HARD
1070
     0
  0
XRECORD
  5
167
102
{ACAD_REACTORS
330
166
102
}
330
166
100
AcDbXrecord
102
UCS
 74
     0
 71
     1
 10
0.0
 20
0.0
 30
0.0
 10
1.0
 20
0.0
 30
0.0
 10
0.0
 20
1.0
 30
0.0
146
0.0
 79
     0
102
VIEW
281
     0
  0
MLINESTYLE
  5
18
102
{ACAD_REACTORS
330
17
102
}
330
17
100
AcDbMlineStyle
  2
Standard
 70
     0
  3

 62
   256
 51
90.0
 52
90.0
 71
     2
 49
0.5
 62
   256
  6
BYLAYER
 49
-0.5
 62
   256
  6
BYLAYER
  0
TABLESTYLE
  5
2B
102
{ACAD_REACTORS
330
2A
102
}
330
2A
100
AcDbTableStyle
  3
Standard
 70
     0
 71
     0
 40
0.06
 41
0.06
280
     0
281
     0
  7
STANDARD
140
0.18
170
     2
 62
     0
 63
     7
283
     0
274
    -2
284
     1
 64
     0
275
    -2
285
     1
 65
     0
276
    -2
286
     1
 66
     0
277
    -2
287
     1
 67
     0
278
    -2
288
     1
 68
     0
279
    -2
289
     1
 69
     0
  7
STANDARD
140
0.25
170
     5
 62
     0
 63
     7
283
     0
274
    -2
284
     1
 64
     0
275
    -2
285
     1
 65
     0
276
    -2
286
     1
 66
     0
277
    -2
287
     1
 67
     0
278
    -2
288
     1
 68
     0
279
    -2
289
     1
 69
     0
  7
STANDARD
140
0.18
170
     5
 62
     0
 63
     7
283
     0
274
    -2
284
     1
 64
     0
275
    -2
285
     1
 65
     0
276
    -2
286
     1
 66
     0
277
    -2
287
     1
 67
     0
278
    -2
288
     1
 68
     0
279
    -2
289
     1
 69
     0
  0
DICTIONARYVAR
  5
2D
102
{ACAD_REACTORS
330
2C
102
}
330
2C
100
DictionaryVariables
280
     0
  1
Standard
  0
ENDSEC
  0
EOF
