  0
SECTION
  2
HEADER
  9
$ACADVER
  1
AC1012
  9
$DWGCODEPAGE
  3
ansi_1252
  9
$INSBASE
 10
0.0
 20
0.0
 30
0.0
  9
$EXTMIN
 10
0.0
 20
0.0
 30
0.0
  9
$EXTMAX
 10
210.0
 20
297.0
 30
0.0
  9
$LIMMIN
 10
0.0
 20
0.0
  9
$LIMMAX
 10
210.0
 20
297.0
  9
$ORTHOMODE
 70
     0
  9
$REGENMODE
 70
     1
  9
$FILLMODE
 70
     1
  9
$QTEXTMODE
 70
     0
  9
$MIRRTEXT
 70
     1
  9
$DRAGMODE
 70
     2
  9
$LTSCALE
 40
1.0
  9
$OSMODE
 70
    37
  9
$ATTMODE
 70
     1
  9
$TEXTSIZE
 40
0.2
  9
$TRACEWID
 40
0.05
  9
$TEXTSTYLE
  7
STANDARD
  9
$CLAYER
  8
0
  9
$CELTYPE
  6
BYLAYER
  9
$CECOLOR
 62
   256
  9
$CELTSCALE
 40
25.4
  9
$DELOBJ
 70
     1
  9
$DISPSILH
 70
     0
  9
$DIMSCALE
 40
1.0
  9
$DIMASZ
 40
0.18
  9
$DIMEXO
 40
0.0625
  9
$DIMDLI
 40
0.38
  9
$DIMRND
 40
0.0
  9
$DIMDLE
 40
0.0
  9
$DIMEXE
 40
0.18
  9
$DIMTP
 40
0.0
  9
$DIMTM
 40
0.0
  9
$DIMTXT
 40
0.18
  9
$DIMCEN
 40
0.09
  9
$DIMTSZ
 40
0.0
  9
$DIMTOL
 70
     0
  9
$DIMLIM
 70
     0
  9
$DIMTIH
 70
     1
  9
$DIMTOH
 70
     1
  9
$DIMSE1
 70
     0
  9
$DIMSE2
 70
     0
  9
$DIMTAD
 70
     0
  9
$DIMZIN
 70
     0
  9
$DIMBLK
  1

  9
$DIMASO
 70
     1
  9
$DIMSHO
 70
     1
  9
$DIMPOST
  1

  9
$DIMAPOST
  1

  9
$DIMALT
 70
     0
  9
$DIMALTD
 70
     2
  9
$DIMALTF
 40
25.4
  9
$DIMLFAC
 40
1.0
  9
$DIMTOFL
 70
     0
  9
$DIMTVP
 40
0.0
  9
$DIMTIX
 70
     0
  9
$DIMSOXD
 70
     0
  9
$DIMSAH
 70
     0
  9
$DIMBLK1
  1

  9
$DIMBLK2
  1

  9
$DIMSTYLE
  2
STANDARD
  9
$DIMCLRD
 70
     0
  9
$DIMCLRE
 70
     0
  9
$DIMCLRT
 70
     0
  9
$DIMTFAC
 40
1.0
  9
$DIMGAP
 40
0.09
  9
$DIMJUST
 70
     0
  9
$DIMSD1
 70
     0
  9
$DIMSD2
 70
     0
  9
$DIMTOLJ
 70
     1
  9
$DIMTZIN
 70
     0
  9
$DIMALTZ
 70
     0
  9
$DIMALTTZ
 70
     0
  9
$DIMFIT
 70
     3
  9
$DIMUPT
 70
     0
  9
$DIMUNIT
 70
     2
  9
$DIMDEC
 70
     4
  9
$DIMTDEC
 70
     4
  9
$DIMALTU
 70
     2
  9
$DIMALTTD
 70
     2
  9
$DIMTXSTY
  7
STANDARD
  9
$DIMAUNIT
 70
     0
  9
$LUNITS
 70
     2
  9
$LUPREC
 70
     4
  9
$SKETCHINC
 40
0.1
  9
$FILLETRAD
 40
0.5
  9
$AUNITS
 70
     0
  9
$AUPREC
 70
     0
  9
$MENU
  1
.
  9
$ELEVATION
 40
0.0
  9
$PELEVATION
 40
0.0
  9
$THICKNESS
 40
0.0
  9
$LIMCHECK
 70
     0
  9
$CHAMFERA
 40
0.5
  9
$CHAMFERB
 40
0.5
  9
$CHAMFERC
 40
1.0
  9
$CHAMFERD
 40
0.0
  9
$SKPOLY
 70
     0
  9
$TDCREATE
 40
2453762.544161169
  9
$TDUPDATE
 40
2453762.544161181
  9
$TDINDWG
 40
0.0000000116
  9
$TDUSRTIMER
 40
0.0000000116
  9
$USRTIMER
 70
     1
  9
$ANGBASE
 50
0.0
  9
$ANGDIR
 70
     0
  9
$PDMODE
 70
     0
  9
$PDSIZE
 40
0.0
  9
$PLINEWID
 40
0.0
  9
$COORDS
 70
     1
  9
$SPLFRAME
 70
     0
  9
$SPLINETYPE
 70
     6
  9
$SPLINESEGS
 70
     8
  9
$ATTDIA
 70
     0
  9
$ATTREQ
 70
     1
  9
$HANDLING
 70
     1
  9
$HANDSEED
  5
14F
  9
$SURFTAB1
 70
     6
  9
$SURFTAB2
 70
     6
  9
$SURFTYPE
 70
     6
  9
$SURFU
 70
     6
  9
$SURFV
 70
     6
  9
$UCSNAME
  2

  9
$UCSORG
 10
0.0
 20
0.0
 30
0.0
  9
$UCSXDIR
 10
1.0
 20
0.0
 30
0.0
  9
$UCSYDIR
 10
0.0
 20
1.0
 30
0.0
  9
$PUCSNAME
  2

  9
$PUCSORG
 10
0.0
 20
0.0
 30
0.0
  9
$PUCSXDIR
 10
1.0
 20
0.0
 30
0.0
  9
$PUCSYDIR
 10
0.0
 20
1.0
 30
0.0
  9
$USERI1
 70
     0
  9
$USERI2
 70
     0
  9
$USERI3
 70
     0
  9
$USERI4
 70
     0
  9
$USERI5
 70
     0
  9
$USERR1
 40
0.0
  9
$USERR2
 40
0.0
  9
$USERR3
 40
0.0
  9
$USERR4
 40
0.0
  9
$USERR5
 40
0.0
  9
$WORLDVIEW
 70
     1
  9
$SHADEDGE
 70
     3
  9
$SHADEDIF
 70
    70
  9
$TILEMODE
 70
     1
  9
$MAXACTVP
 70
    64
  9
$PINSBASE
 10
0.0
 20
0.0
 30
0.0
  9
$PLIMCHECK
 70
     0
  9
$PEXTMIN
 10
0.0
 20
0.0
 30
0.0
  9
$PEXTMAX
 10
210.0
 20
297.0
 30
0.0
  9
$PLIMMIN
 10
0.0
 20
0.0
  9
$PLIMMAX
 10
12.0
 20
9.0
  9
$UNITMODE
 70
     0
  9
$VISRETAIN
 70
     1
  9
$PLINEGEN
 70
     0
  9
$PSLTSCALE
 70
     1
  9
$TREEDEPTH
 70
  3020
  9
$PICKSTYLE
 70
     1
  9
$CMLSTYLE
  2
STANDARD
  9
$CMLJUST
 70
     0
  9
$CMLSCALE
 40
1.0
  9
$SAVEIMAGES
 70
     1
  0
ENDSEC
  0
SECTION
  2
CLASSES
  0
CLASS
  1
ACDBDICTIONARYWDFLT
  2
AcDbDictionaryWithDefault
  3
ObjectDBX Classes
 90
        0
280
     0
281
     0
  0
CLASS
  1
TABLESTYLE
  2
AcDbTableStyle
  3
ObjectDBX Classes
 90
     2047
280
     0
281
     0
  0
CLASS
  1
DICTIONARYVAR
  2
AcDbDictionaryVar
  3
ObjectDBX Classes
 90
        0
280
     0
281
     0
  0
CLASS
  1
XRECORD
  2
AcDbXrecord
  3
AutoCAD 2000
 90
    32768
280
     0
281
     0
  0
CLASS
  1
LWPOLYLINE
  2
AcDbPolyline
  3
AutoCAD 2000
 90
    32768
280
     0
281
     1
  0
CLASS
  1
HATCH
  2
AcDbHatch
  3
AutoCAD 2000
 90
    32768
280
     0
281
     1
  0
CLASS
  1
ACDBPLACEHOLDER
  2
AcDbPlaceHolder
  3
ObjectDBX Classes
 90
        0
280
     0
281
     0
  0
CLASS
  1
LAYOUT
  2
AcDbLayout
  3
ObjectDBX Classes
 90
        0
280
     0
281
     0
  0
ENDSEC
  0
SECTION
  2
TABLES
  0
TABLE
  2
VPORT
  5
8
330
0
100
AcDbSymbolTable
 70
     2
  0
VPORT
  5
29
102
{ACAD_XDICTIONARY
360
14D
102
}
330
8
100
AcDbSymbolTableRecord
100
AcDbViewportTableRecord
  2
*ACTIVE
 70
     0
 10
0.0
 20
0.0
 11
1.0
 21
1.0
 12
10.4299065421
 22
4.5
 13
0.0
 23
0.0
 14
0.5
 24
0.5
 15
0.5
 25
0.5
 16
0.0
 26
0.0
 36
1.0
 17
0.0
 27
0.0
 37
0.0
 40
9.0
 41
1.9729729729
 42
50.0
 43
0.0
 44
0.0
 50
0.0
 51
0.0
 71
     0
 72
   100
 73
     1
 74
     3
 75
     0
 76
     0
 77
     0
 78
     0
  0
ENDTAB
  0
TABLE
  2
LTYPE
  5
5
330
0
100
AcDbSymbolTable
 70
     3
  0
LTYPE
  5
14
330
5
100
AcDbSymbolTableRecord
100
AcDbLinetypeTableRecord
  2
BYBLOCK
 70
     0
  3

 72
    65
 73
     0
 40
0.0
  0
LTYPE
  5
15
330
5
100
AcDbSymbolTableRecord
100
AcDbLinetypeTableRecord
  2
BYLAYER
 70
     0
  3

 72
    65
 73
     0
 40
0.0
  0
LTYPE
  5
16
330
5
100
AcDbSymbolTableRecord
100
AcDbLinetypeTableRecord
  2
CONTINUOUS
 70
     0
  3
Solid line
 72
    65
 73
     0
 40
0.0
  0
LTYPE
  5
31
330
5
100
AcDbSymbolTableRecord
100
AcDbLinetypeTableRecord
  2
CENTER2
 70
     0
  3
___ _ ___ _ ___ _ ___ _ ___ _ ___ _ ___ _ ___ _
 72
    65
 73
     4
 40
1.125
 49
0.75
 74
     4
 75
     0
340
0
 46
0.0
 50
0.0
 44
0.0
 45
0.0
 49
-0.125
 74
     4
 75
     0
340
0
 46
0.0
 50
0.0
 44
0.0
 45
0.0
 49
0.125
 74
     4
 75
     0
340
0
 46
0.0
 50
0.0
 44
0.0
 45
0.0
 49
-0.125
 74
     4
 75
     0
340
0
 46
0.0
 50
0.0
 44
0.0
 45
0.0
  0
LTYPE
  5
8A
330
5
100
AcDbSymbolTableRecord
100
AcDbLinetypeTableRecord
  2
HIDDEN2
 70
     0
  3
_ _ _ _ _ _ _ _ _ _ _ _ _ _ _ _ _ _ _ _ _ _ _ _
 72
    65
 73
     2
 40
0.1875
 49
0.125
 74
     4
 75
     0
340
0
 46
0.0
 50
0.0
 44
0.0
 45
0.0
 49
-0.0625
 74
     4
 75
     0
340
0
 46
0.0
 50
0.0
 44
0.0
 45
0.0
  0
ENDTAB
  0
TABLE
  2
LAYER
  5
2
330
0
100
AcDbSymbolTable
 70
     6
  0
LAYER
  5
10
330
2
100
AcDbSymbolTableRecord
100
AcDbLayerTableRecord
  2
0
 70
     0
 62
     7
  6
CONTINUOUS
  0
LAYER
  5
30
330
2
100
AcDbSymbolTableRecord
100
AcDbLayerTableRecord
  2
DEFAULT
 70
     0
 62
     7
  6
CONTINUOUS
  0
LAYER
  5
50
330
2
100
AcDbSymbolTableRecord
100
AcDbLayerTableRecord
  2
MEGA_001411
 70
     0
 62
     7
  6
CONTINUOUS
  0
LAYER
  5
53
330
2
100
AcDbSymbolTableRecord
100
AcDbLayerTableRecord
  2
MEGA_001979
 70
     0
 62
     7
  6
CONTINUOUS
  0
LAYER
  5
5F
330
2
100
AcDbSymbolTableRecord
100
AcDbLayerTableRecord
  2
STANDARD
 70
     0
 62
     7
  6
CONTINUOUS
  0
LAYER
  5
6C
330
2
100
AcDbSymbolTableRecord
100
AcDbLayerTableRecord
  2
MEGA_001422
 70
     0
 62
     7
  6
CONTINUOUS
  0
ENDTAB
  0
TABLE
  2
STYLE
  5
3
330
0
100
AcDbSymbolTable
 70
     3
  0
STYLE
  5
11
330
3
100
AcDbSymbolTableRecord
100
AcDbTextStyleTableRecord
  2
STANDARD
 70
     0
 40
0.0
 41
1.0
 50
0.0
 71
     0
 42
0.2
  3
txt
  4

  0
STYLE
  5
D2
330
3
100
AcDbSymbolTableRecord
100
AcDbTextStyleTableRecord
  2
SEACAD_SEISO_TTF
 70
     0
 40
0.2
 41
1.0
 50
0.0
 71
     0
 42
0.2
  3
seiso.ttf
  4

  0
STYLE
  5
D4
330
3
100
AcDbSymbolTableRecord
100
AcDbTextStyleTableRecord
  2
SEACAD_SEMECI1_TTF
 70
     0
 40
0.2
 41
1.0
 50
0.0
 71
     0
 42
0.2
  3
semeci1.ttf
  4

  0
ENDTAB
  0
TABLE
  2
VIEW
  5
6
330
0
100
AcDbSymbolTable
 70
     0
  0
ENDTAB
  0
TABLE
  2
UCS
  5
7
330
0
100
AcDbSymbolTable
 70
     0
  0
ENDTAB
  0
TABLE
  2
APPID
  5
9
330
0
100
AcDbSymbolTable
 70
     1
  0
APPID
  5
12
330
9
100
AcDbSymbolTableRecord
100
AcDbRegAppTableRecord
  2
ACAD
 70
     0
  0
ENDTAB
  0
TABLE
  2
DIMSTYLE
  5
A
330
0
100
AcDbSymbolTable
 70
     1
  0
DIMSTYLE
105
27
330
A
100
AcDbSymbolTableRecord
100
AcDbDimStyleTableRecord
  2
STANDARD
 70
     0
  3

  4

  5

  6

  7

 40
1.0
 41
0.18
 42
0.0625
 43
0.38
 44
0.18
 45
0.0
 46
0.0
 47
0.0
 48
0.0
140
0.18
141
0.09
142
0.0
143
25.4
144
1.0
145
0.0
146
1.0
147
0.09
 71
     0
 72
     0
 73
     1
 74
     1
 75
     0
 76
     0
 77
     0
 78
     0
170
     0
171
     2
172
     0
173
     0
174
     0
175
     0
176
     0
177
     0
178
     0
270
     2
271
     4
272
     4
273
     2
274
     2
340
11
275
     0
280
     0
281
     0
282
     0
283
     1
284
     0
285
     0
286
     0
287
     3
288
     0
  0
ENDTAB
  0
TABLE
  2
BLOCK_RECORD
  5
1
330
0
100
AcDbSymbolTable
 70
    16
  0
BLOCK_RECORD
  5
1F
330
1
100
AcDbSymbolTableRecord
100
AcDbBlockTableRecord
  2
*MODEL_SPACE
  0
BLOCK_RECORD
  5
1B
330
1
100
AcDbSymbolTableRecord
100
AcDbBlockTableRecord
  2
*PAPER_SPACE
  0
BLOCK_RECORD
  5
2E
330
1
100
AcDbSymbolTableRecord
100
AcDbBlockTableRecord
  2
SE
  0
BLOCK_RECORD
  5
3A
330
1
100
AcDbSymbolTableRecord
100
AcDbBlockTableRecord
  2
SE1
  0
BLOCK_RECORD
  5
3F
330
1
100
AcDbSymbolTableRecord
100
AcDbBlockTableRecord
  2
SE2
  0
BLOCK_RECORD
  5
44
330
1
100
AcDbSymbolTableRecord
100
AcDbBlockTableRecord
  2
SE3
  0
BLOCK_RECORD
  5
49
330
1
100
AcDbSymbolTableRecord
100
AcDbBlockTableRecord
  2
SE4
  0
BLOCK_RECORD
  5
4E
330
1
100
AcDbSymbolTableRecord
100
AcDbBlockTableRecord
  2
SE5
  0
BLOCK_RECORD
  5
63
330
1
100
AcDbSymbolTableRecord
100
AcDbBlockTableRecord
  2
SE6
  0
BLOCK_RECORD
  5
9A
330
1
100
AcDbSymbolTableRecord
100
AcDbBlockTableRecord
  2
SE7
  0
BLOCK_RECORD
  5
CC
330
1
100
AcDbSymbolTableRecord
100
AcDbBlockTableRecord
  2
SE8
  0
BLOCK_RECORD
  5
D8
330
1
100
AcDbSymbolTableRecord
100
AcDbBlockTableRecord
  2
SE9
  0
BLOCK_RECORD
  5
E2
330
1
100
AcDbSymbolTableRecord
100
AcDbBlockTableRecord
  2
SE10
  0
BLOCK_RECORD
  5
ED
330
1
100
AcDbSymbolTableRecord
100
AcDbBlockTableRecord
  2
SE11
  0
BLOCK_RECORD
  5
F8
330
1
100
AcDbSymbolTableRecord
100
AcDbBlockTableRecord
  2
SE12
  0
BLOCK_RECORD
  5
102
330
1
100
AcDbSymbolTableRecord
100
AcDbBlockTableRecord
  2
SE13
  0
BLOCK_RECORD
  5
10C
330
1
100
AcDbSymbolTableRecord
100
AcDbBlockTableRecord
  2
SE14
  0
ENDTAB
  0
ENDSEC
  0
SECTION
  2
BLOCKS
  0
BLOCK
  5
20
330
1F
100
AcDbEntity
  8
0
100
AcDbBlockBegin
  2
*MODEL_SPACE
 70
     0
 71
     0
 10
0.0
 20
0.0
 30
0.0
  3
*MODEL_SPACE
  1

  0
ENDBLK
  5
21
330
1F
100
AcDbEntity
  8
0
100
AcDbBlockEnd
  0
BLOCK
  5
1C
330
1B
100
AcDbEntity
 67
     1
  8
0
100
AcDbBlockBegin
  2
*PAPER_SPACE
 70
     0
 71
     0
 10
0.0
 20
0.0
 30
0.0
  3
*PAPER_SPACE
  1

  0
ENDBLK
  5
1D
330
1B
100
AcDbEntity
 67
     1
  8
0
100
AcDbBlockEnd
  0
BLOCK
  5
38
330
2E
100
AcDbEntity
  8
0
100
AcDbBlockBegin
  2
SE
 70
     0
 71
     0
 10
0.0
 20
0.0
 30
0.0
  3
SE
  1

  0
LINE
  5
32
330
2E
100
AcDbEntity
  8
DEFAULT
  6
CENTER2
 62
     7
 48
25.4
100
AcDbLine
 10
133.4886085298
 20
194.8595913314
 30
0.0
 11
121.4886084255
 21
194.8595913314
 31
0.0
  0
LINE
  5
33
330
2E
100
AcDbEntity
  8
DEFAULT
  6
CENTER2
 62
     7
 48
25.4
100
AcDbLine
 10
127.4886084776
 20
200.8595913836
 30
0.0
 11
127.4886084776
 21
188.8595912792
 31
0.0
  0
LINE
  5
34
330
2E
100
AcDbEntity
  8
DEFAULT
  6
CENTER2
 62
     7
 48
25.4
100
AcDbLine
 10
134.9886084776
 20
194.8595913314
 30
0.0
 11
155.2386084776
 21
194.8595913314
 31
0.0
  0
LINE
  5
35
330
2E
100
AcDbEntity
  8
DEFAULT
  6
CENTER2
 62
     7
 48
25.4
100
AcDbLine
 10
127.4886084776
 20
202.3595913314
 30
0.0
 11
127.4886084776
 21
222.6095913314
 31
0.0
  0
LINE
  5
36
330
2E
100
AcDbEntity
  8
DEFAULT
  6
CENTER2
 62
     7
 48
25.4
100
AcDbLine
 10
119.9886084776
 20
194.8595913314
 30
0.0
 11
99.7386084776
 21
194.8595913314
 31
0.0
  0
LINE
  5
37
330
2E
100
AcDbEntity
  8
DEFAULT
  6
CENTER2
 62
     7
 48
25.4
100
AcDbLine
 10
127.4886084776
 20
187.3595913314
 30
0.0
 11
127.4886084776
 21
167.1095913314
 31
0.0
  0
ENDBLK
  5
39
330
2E
100
AcDbEntity
  8
0
100
AcDbBlockEnd
  0
BLOCK
  5
3D
330
3A
100
AcDbEntity
  8
0
100
AcDbBlockBegin
  2
SE1
 70
     0
 71
     0
 10
0.0
 20
0.0
 30
0.0
  3
SE1
  1

  0
LINE
  5
3C
330
3A
100
AcDbEntity
  8
DEFAULT
  6
CENTER2
 62
     7
 48
25.4
100
AcDbLine
 10
68.8582135621
 20
194.8595913314
 30
0.0
 11
46.5011193601
 21
194.8595913314
 31
0.0
  0
ENDBLK
  5
3E
330
3A
100
AcDbEntity
  8
0
100
AcDbBlockEnd
  0
BLOCK
  5
42
330
3F
100
AcDbEntity
  8
0
100
AcDbBlockBegin
  2
SE2
 70
     0
 71
     0
 10
0.0
 20
0.0
 30
0.0
  3
SE2
  1

  0
LINE
  5
41
330
3F
100
AcDbEntity
  8
DEFAULT
  6
CENTER2
 62
     7
 48
25.4
100
AcDbLine
 10
108.4886084776
 20
97.2327462953
 30
0.0
 11
108.4886084776
 21
130.7169593724
 31
0.0
  0
ENDBLK
  5
43
330
3F
100
AcDbEntity
  8
0
100
AcDbBlockEnd
  0
BLOCK
  5
47
330
44
100
AcDbEntity
  8
0
100
AcDbBlockBegin
  2
SE3
 70
     0
 71
     0
 10
0.0
 20
0.0
 30
0.0
  3
SE3
  1

  0
LINE
  5
46
330
44
100
AcDbEntity
  8
DEFAULT
  6
CENTER2
 62
     7
 48
25.4
100
AcDbLine
 10
127.4886084776
 20
88.102043377
 30
0.0
 11
127.4886084776
 21
110.5060829451
 31
0.0
  0
ENDBLK
  5
48
330
44
100
AcDbEntity
  8
0
100
AcDbBlockEnd
  0
BLOCK
  5
4C
330
49
100
AcDbEntity
  8
0
100
AcDbBlockBegin
  2
SE4
 70
     0
 71
     0
 10
0.0
 20
0.0
 30
0.0
  3
SE4
  1

  0
LINE
  5
4B
330
49
100
AcDbEntity
  8
DEFAULT
  6
CENTER2
 62
     7
 48
25.4
100
AcDbLine
 10
146.4886084776
 20
96.8100285676
 30
0.0
 11
146.4886084776
 21
131.2857523435
 31
0.0
  0
ENDBLK
  5
4D
330
49
100
AcDbEntity
  8
0
100
AcDbBlockEnd
  0
BLOCK
  5
61
330
4E
100
AcDbEntity
  8
0
100
AcDbBlockBegin
  2
SE5
 70
     0
 71
     0
 10
0.0
 20
0.0
 30
0.0
  3
SE5
  1

  0
CIRCLE
  5
51
330
4E
100
AcDbEntity
  8
MEGA_001411
  6
CONTINUOUS
 62
     7
 48
25.4
100
AcDbCircle
 10
127.4886084776
 20
194.8595913314
 30
0.0
 40
11.1
  0
ARC
  5
52
330
4E
100
AcDbEntity
  8
MEGA_001411
  6
CONTINUOUS
 62
     7
 48
25.4
100
AcDbCircle
 10
127.4886084776
 20
194.8595913314
 30
0.0
 40
26.0
100
AcDbArc
 50
95.5177343738
 51
84.4822656262
  0
ELLIPSE
  5
54
330
4E
100
AcDbEntity
  8
MEGA_001979
  6
CONTINUOUS
 62
     7
 48
25.4
100
AcDbEllipse
 10
127.4886084776
 20
194.9868132083
 30
0.0
 11
49.79892481932576
 21
-3.920000000000000E-14
 31
0.0
210
0.0
220
0.0
230
1.0
 40
0.0174524064
 41
1.407631361612297
 42
1.733961291977518
  0
SPLINE
  5
55
330
4E
100
AcDbEntity
  8
MEGA_001979
  6
CONTINUOUS
 62
     7
 48
25.4
100
AcDbSpline
210
0.0
220
0.0
230
1.0
 70
     8
 71
     3
 72
    14
 73
    10
 74
     0
 42
0.0000000001
 43
0.0000000001
 40
0.0
 40
0.0
 40
0.0
 40
0.0
 40
0.2499999999999999
 40
0.2499999999999999
 40
0.2499999999999999
 40
0.4999999999999998
 40
0.4999999999999998
 40
0.4999999999999998
 40
1.0
 40
1.0
 40
1.0
 40
1.0
 10
135.9617209173022
 20
196.048076987078
 30
0.0
 10
135.9636209715499
 20
196.0061589986721
 30
0.0
 10
135.939061557177
 20
195.9685798164209
 30
0.0
 10
135.9089390591387
 20
195.9419998522941
 30
0.0
 10
135.8788165611003
 20
195.9154198881672
 30
0.0
 10
135.84344374443
 20
195.8972883554715
 30
0.0
 10
135.8068477927623
 20
195.883358742532
 30
0.0
 10
135.733655889427
 20
195.8554995166532
 30
0.0
 10
135.6561489303609
 20
195.8448470727271
 30
0.0
 10
135.5780426061279
 20
195.8443808407346
 30
0.0
  0
SPLINE
  5
56
330
4E
100
AcDbEntity
  8
MEGA_001979
  6
CONTINUOUS
 62
     7
 48
25.4
100
AcDbSpline
210
0.0
220
0.0
230
1.0
 70
     8
 71
     3
 72
    14
 73
    10
 74
     0
 42
0.0000000001
 43
0.0000000001
 40
0.0
 40
0.0
 40
0.0
 40
0.0
 40
0.4999999999999968
 40
0.4999999999999968
 40
0.4999999999999968
 40
0.7499999999999983
 40
0.7499999999999983
 40
0.7499999999999983
 40
1.0
 40
1.0
 40
1.0
 40
1.0
 10
119.3991743491442
 20
195.8443808407346
 30
0.0
 10
119.3209944383319
 20
195.8448475119798
 30
0.0
 10
119.2445785771553
 20
195.8552575186114
 30
0.0
 10
119.1711240093117
 20
195.8830721666651
 30
0.0
 10
119.1343967253899
 20
195.896979490692
 30
0.0
 10
119.0983494628185
 20
195.9155104920144
 30
0.0
 10
119.0684230527056
 20
195.9418718772916
 30
0.0
 10
119.0384966425927
 20
195.9682332625688
 30
0.0
 10
119.0135921964209
 20
196.0060754452388
 30
0.0
 10
119.0154960379699
 20
196.048076987078
 30
0.0
  0
ELLIPSE
  5
57
330
4E
100
AcDbEntity
  8
MEGA_001979
  6
CONTINUOUS
 62
     7
 48
25.4
100
AcDbEllipse
 10
127.4886084776
 20
196.2572811508
 30
0.0
 11
24.99999999999928
 21
-1.700000000000000E-15
 31
0.0
210
0.0
220
0.0
230
1.0
 40
0.0174550649
 41
4.382881161340858
 42
5.041896799428514
  0
ELLIPSE
  5
58
330
4E
100
AcDbEntity
  8
MEGA_001979
  6
CONTINUOUS
 62
     7
 48
25.4
100
AcDbEllipse
 10
127.4886084776
 20
193.461901512
 30
0.0
 11
25.0000000000001
 21
-4.000000000000000E-16
 31
0.0
210
0.0
220
0.0
230
0.9999999999999999
 40
0.0174550649
 41
1.24128850775109
 42
1.900304145838702
  0
CIRCLE
  5
59
330
4E
100
AcDbEntity
  8
MEGA_001979
  6
CONTINUOUS
 62
     7
 48
25.4
100
AcDbCircle
 10
127.4886084776
 20
194.8595913314
 30
0.0
 40
9.5
  0
ELLIPSE
  5
5A
330
4E
100
AcDbEntity
  8
MEGA_001979
  6
CONTINUOUS
 62
     7
 48
25.4
100
AcDbEllipse
 10
127.4886084776
 20
194.7323694545
 30
0.0
 11
-49.79892481932576
 21
3.920000000000000E-14
 31
0.0
210
0.0
220
0.0
230
1.0
 40
0.0174524064
 41
1.407631361612297
 42
1.733961291977518
  0
SPLINE
  5
5B
330
4E
100
AcDbEntity
  8
MEGA_001979
  6
CONTINUOUS
 62
     7
 48
25.4
100
AcDbSpline
210
0.0
220
0.0
230
1.0
 70
     8
 71
     3
 72
    14
 73
    10
 74
     0
 42
0.0000000001
 43
0.0000000001
 40
0.0
 40
0.0
 40
0.0
 40
0.0
 40
0.2500000000000024
 40
0.2500000000000024
 40
0.2500000000000024
 40
0.5000000000000048
 40
0.5000000000000048
 40
0.5000000000000048
 40
1.0
 40
1.0
 40
1.0
 40
1.0
 10
119.0154960379699
 20
193.6711056757173
 30
0.0
 10
119.0135959837222
 20
193.7130236641233
 30
0.0
 10
119.0381553980951
 20
193.7506028463745
 30
0.0
 10
119.0682778961335
 20
193.7771828105013
 30
0.0
 10
119.0984003941718
 20
193.8037627746282
 30
0.0
 10
119.1337732108421
 20
193.8218943073239
 30
0.0
 10
119.1703691625098
 20
193.8358239202633
 30
0.0
 10
119.2435610658451
 20
193.8636831461421
 30
0.0
 10
119.3210680249112
 20
193.8743355900683
 30
0.0
 10
119.3991743491442
 20
193.8748018220608
 30
0.0
  0
SPLINE
  5
5C
330
4E
100
AcDbEntity
  8
MEGA_001979
  6
CONTINUOUS
 62
     7
 48
25.4
100
AcDbSpline
210
0.0
220
0.0
230
1.0
 70
     8
 71
     3
 72
    14
 73
    10
 74
     0
 42
0.0000000001
 43
0.0000000001
 40
0.0
 40
0.0
 40
0.0
 40
0.0
 40
0.5000000000000047
 40
0.5000000000000047
 40
0.5000000000000047
 40
0.7500000000000023
 40
0.7500000000000023
 40
0.7500000000000023
 40
1.0
 40
1.0
 40
1.0
 40
1.0
 10
135.5780426061279
 20
193.8748018220608
 30
0.0
 10
135.6562225169402
 20
193.8743351508156
 30
0.0
 10
135.7326383781168
 20
193.863925144184
 30
0.0
 10
135.8060929459604
 20
193.8361104961303
 30
0.0
 10
135.8428202298822
 20
193.8222031721034
 30
0.0
 10
135.8788674924536
 20
193.803672170781
 30
0.0
 10
135.9087939025665
 20
193.7773107855038
 30
0.0
 10
135.9387203126795
 20
193.7509494002265
 30
0.0
 10
135.9636247588512
 20
193.7131072175566
 30
0.0
 10
135.9617209173022
 20
193.6711056757173
 30
0.0
  0
ARC
  5
5D
330
4E
100
AcDbEntity
  8
MEGA_001979
  6
CONTINUOUS
 62
     7
 48
25.4
100
AcDbCircle
 10
109.7464053013
 20
194.8595913314
 30
0.0
 40
26.24224211070001
100
AcDbArc
 50
357.4042419237
 51
2.5957580763
  0
ARC
  5
5E
330
4E
100
AcDbEntity
  8
MEGA_001979
  6
CONTINUOUS
 62
     7
 48
25.4
100
AcDbCircle
 10
145.2308116539
 20
194.8595913314
 30
0.0
 40
26.24224211070001
100
AcDbArc
 50
177.4042419237
 51
182.5957580763
  0
ARC
  5
60
330
4E
100
AcDbEntity
  8
STANDARD
  6
CONTINUOUS
 62
     7
 48
25.4
100
AcDbCircle
 10
127.4886084773
 20
194.8595885891
 30
0.0
 40
26.0000027296
100
AcDbArc
 50
84.4822662066
 51
95.517733792
  0
ENDBLK
  5
62
330
4E
100
AcDbEntity
  8
0
100
AcDbBlockEnd
  0
BLOCK
  5
98
330
63
100
AcDbEntity
  8
0
100
AcDbBlockBegin
  2
SE6
 70
     0
 71
     0
 10
0.0
 20
0.0
 30
0.0
  3
SE6
  1

  0
LINE
  5
65
330
63
100
AcDbEntity
  8
MEGA_001411
  6
CONTINUOUS
 62
     7
 48
25.4
100
AcDbLine
 10
101.4886084776
 20
101.8425640147
 30
0.0
 11
101.7378306943
 21
98.9939410437
 31
0.0
  0
ARC
  5
66
330
63
100
AcDbEntity
  8
MEGA_001411
  6
CONTINUOUS
 62
     7
 48
25.4
100
AcDbCircle
 10
105.7226094866
 20
99.3425640147
 30
0.0
 40
4.0
100
AcDbArc
 50
185.0
 51
270.0
  0
LINE
  5
67
330
63
100
AcDbEntity
  8
MEGA_001411
  6
CONTINUOUS
 62
     7
 48
25.4
100
AcDbLine
 10
153.239386261
 20
98.9939410437
 30
0.0
 11
153.4886084776
 21
101.8425640147
 31
0.0
  0
ARC
  5
68
330
63
100
AcDbEntity
  8
MEGA_001411
  6
CONTINUOUS
 62
     7
 48
25.4
100
AcDbCircle
 10
149.2546074686
 20
99.3425640147
 30
0.0
 40
4.0
100
AcDbArc
 50
270.0
 51
355.0
  0
LINE
  5
69
330
63
100
AcDbEntity
  8
MEGA_001411
  6
CONTINUOUS
 62
     7
 48
25.4
100
AcDbLine
 10
105.7226094866
 20
95.3425640147
 30
0.0
 11
149.2546074686
 21
95.3425640147
 31
0.0
  0
LINE
  5
6A
330
63
100
AcDbEntity
  8
MEGA_001411
  6
CONTINUOUS
 62
     7
 48
25.4
100
AcDbLine
 10
153.4886084776
 20
101.8425640147
 30
0.0
 11
129.9886084776
 21
101.8425640147
 31
0.0
  0
LINE
  5
6B
330
63
100
AcDbEntity
  8
MEGA_001411
  6
CONTINUOUS
 62
     7
 48
25.4
100
AcDbLine
 10
124.9886084776
 20
101.8425640147
 30
0.0
 11
101.4886084776
 21
101.8425640147
 31
0.0
  0
ARC
  5
6D
330
63
100
AcDbEntity
  8
MEGA_001422
  6
CONTINUOUS
 62
     7
 48
25.4
100
AcDbCircle
 10
111.3311602428
 20
106.3425640147
 30
0.0
 40
0.5
100
AcDbArc
 50
2.0
 51
90.0
  0
ARC
  5
6E
330
63
100
AcDbEntity
  8
MEGA_001422
  6
CONTINUOUS
 62
     7
 48
25.4
100
AcDbCircle
 10
149.3311602428
 20
106.3425640147
 30
0.0
 40
0.5
100
AcDbArc
 50
2.0
 51
90.0
  0
ARC
  5
6F
330
63
100
AcDbEntity
  8
MEGA_001422
  6
CONTINUOUS
 62
     7
 48
25.4
100
AcDbCircle
 10
104.5057640902
 20
102.3425640147
 30
0.0
 40
0.5
100
AcDbArc
 50
270.0
 51
358.0
  0
ARC
  5
70
330
63
100
AcDbEntity
  8
MEGA_001422
  6
CONTINUOUS
 62
     7
 48
25.4
100
AcDbCircle
 10
142.5057640902
 20
102.3425640147
 30
0.0
 40
0.5
100
AcDbArc
 50
270.0
 51
358.0
  0
ARC
  5
71
330
63
100
AcDbEntity
  8
MEGA_001422
  6
CONTINUOUS
 62
     7
 48
25.4
100
AcDbCircle
 10
116.0057640902
 20
102.3425640147
 30
0.0
 40
0.5
100
AcDbArc
 50
270.0
 51
358.0
  0
LINE
  5
72
330
63
100
AcDbEntity
  8
MEGA_001422
  6
CONTINUOUS
 62
     7
 48
25.4
100
AcDbLine
 10
116.5933707861
 20
95.3425640147
 30
0.0
 11
116.5933814225
 21
95.3422594282
 31
0.0
  0
ARC
  5
73
330
63
100
AcDbEntity
  8
MEGA_001422
  6
CONTINUOUS
 62
     7
 48
25.4
100
AcDbCircle
 10
137.3483158554
 20
105.8425640147
 30
0.0
 40
1.0
100
AcDbArc
 50
2.0
 51
90.0
  0
LINE
  5
74
330
63
100
AcDbEntity
  8
MEGA_001422
  6
CONTINUOUS
 62
     7
 48
25.4
100
AcDbLine
 10
138.3838355328
 20
95.3422594282
 30
0.0
 11
138.3838461692
 21
95.3425640147
 31
0.0
  0
ARC
  5
75
330
63
100
AcDbEntity
  8
MEGA_001422
  6
CONTINUOUS
 62
     7
 48
25.4
100
AcDbCircle
 10
117.6289010999
 20
105.8425640147
 30
0.0
 40
1.0
100
AcDbArc
 50
90.0
 51
178.0
  0
LINE
  5
76
330
63
100
AcDbEntity
  8
MEGA_001422
  6
CONTINUOUS
 62
     7
 48
25.4
100
AcDbLine
 10
138.4717574515
 20
102.3251142663
 30
0.0
 11
138.3477066824
 21
105.8774635114
 31
0.0
  0
LINE
  5
77
330
63
100
AcDbEntity
  8
MEGA_001422
  6
CONTINUOUS
 62
     7
 48
25.4
100
AcDbLine
 10
149.3311602428
 20
106.8425640147
 30
0.0
 11
143.6460567125
 21
106.8425640147
 31
0.0
  0
LINE
  5
78
330
63
100
AcDbEntity
  8
MEGA_001422
  6
CONTINUOUS
 62
     7
 48
25.4
100
AcDbLine
 10
111.3311602428
 20
106.8425640147
 30
0.0
 11
105.6460567125
 21
106.8425640147
 31
0.0
  0
LINE
  5
79
330
63
100
AcDbEntity
  8
MEGA_001422
  6
CONTINUOUS
 62
     7
 48
25.4
100
AcDbLine
 10
116.5933814225
 20
95.3422594282
 30
0.0
 11
117.093076836
 21
94.8425640147
 31
0.0
  0
LINE
  5
7A
330
63
100
AcDbEntity
  8
MEGA_001422
  6
CONTINUOUS
 62
     7
 48
25.4
100
AcDbLine
 10
116.6295102729
 20
105.8774635114
 30
0.0
 11
116.5054595037
 21
102.3251142663
 31
0.0
  0
LINE
  5
7B
330
63
100
AcDbEntity
  8
MEGA_001422
  6
CONTINUOUS
 62
     7
 48
25.4
100
AcDbLine
 10
137.8841401193
 20
94.8425640147
 30
0.0
 11
138.3838355328
 21
95.3422594282
 31
0.0
  0
LINE
  5
7C
330
63
100
AcDbEntity
  8
MEGA_001422
  6
CONTINUOUS
 62
     7
 48
25.4
100
AcDbLine
 10
149.9717574515
 20
102.3251142663
 30
0.0
 11
149.8308556563
 21
106.360013763
 31
0.0
  0
LINE
  5
7D
330
63
100
AcDbEntity
  8
MEGA_001422
  6
CONTINUOUS
 62
     7
 48
25.4
100
AcDbLine
 10
143.146361299
 20
106.360013763
 30
0.0
 11
143.0054595037
 21
102.3251142663
 31
0.0
  0
LINE
  5
7E
330
63
100
AcDbEntity
  8
MEGA_001422
  6
CONTINUOUS
 62
     7
 48
25.4
100
AcDbLine
 10
117.6289010999
 20
106.8425640147
 30
0.0
 11
137.3483158554
 21
106.8425640147
 31
0.0
  0
LINE
  5
7F
330
63
100
AcDbEntity
  8
MEGA_001422
  6
CONTINUOUS
 62
     7
 48
25.4
100
AcDbLine
 10
116.5933814225
 20
95.3422594282
 30
0.0
 11
138.3838355328
 21
95.3422594282
 31
0.0
  0
LINE
  5
80
330
63
100
AcDbEntity
  8
MEGA_001422
  6
CONTINUOUS
 62
     7
 48
25.4
100
AcDbLine
 10
129.9887765597
 20
101.8425640147
 30
0.0
 11
129.7386084776
 21
101.8425640147
 31
0.0
  0
LINE
  5
81
330
63
100
AcDbEntity
  8
MEGA_001422
  6
CONTINUOUS
 62
     7
 48
25.4
100
AcDbLine
 10
125.2386084776
 20
101.8425640147
 30
0.0
 11
124.9886084776
 21
101.8425640147
 31
0.0
  0
LINE
  5
82
330
63
100
AcDbEntity
  8
MEGA_001422
  6
CONTINUOUS
 62
     7
 48
25.4
100
AcDbLine
 10
111.9717574515
 20
102.3251142663
 30
0.0
 11
111.8308556563
 21
106.360013763
 31
0.0
  0
LINE
  5
83
330
63
100
AcDbEntity
  8
MEGA_001422
  6
CONTINUOUS
 62
     7
 48
25.4
100
AcDbLine
 10
125.2386084776
 20
101.8425640147
 30
0.0
 11
129.7386084776
 21
101.8425640147
 31
0.0
  0
LINE
  5
84
330
63
100
AcDbEntity
  8
MEGA_001422
  6
CONTINUOUS
 62
     7
 48
25.4
100
AcDbLine
 10
105.146361299
 20
106.360013763
 30
0.0
 11
105.0054595037
 21
102.3251142663
 31
0.0
  0
ARC
  5
85
330
63
100
AcDbEntity
  8
MEGA_001422
  6
CONTINUOUS
 62
     7
 48
25.4
100
AcDbCircle
 10
105.6460567125
 20
106.3425640147
 30
0.0
 40
0.5
100
AcDbArc
 50
90.0
 51
178.0
  0
ARC
  5
86
330
63
100
AcDbEntity
  8
MEGA_001422
  6
CONTINUOUS
 62
     7
 48
25.4
100
AcDbCircle
 10
143.6460567125
 20
106.3425640147
 30
0.0
 40
0.5
100
AcDbArc
 50
90.0
 51
178.0
  0
ARC
  5
87
330
63
100
AcDbEntity
  8
MEGA_001422
  6
CONTINUOUS
 62
     7
 48
25.4
100
AcDbCircle
 10
112.471452865
 20
102.3425640147
 30
0.0
 40
0.5
100
AcDbArc
 50
182.0
 51
270.0
  0
ARC
  5
88
330
63
100
AcDbEntity
  8
MEGA_001422
  6
CONTINUOUS
 62
     7
 48
25.4
100
AcDbCircle
 10
150.471452865
 20
102.3425640147
 30
0.0
 40
0.5
100
AcDbArc
 50
182.0
 51
270.0
  0
ARC
  5
89
330
63
100
AcDbEntity
  8
MEGA_001422
  6
CONTINUOUS
 62
     7
 48
25.4
100
AcDbCircle
 10
138.971452865
 20
102.3425640147
 30
0.0
 40
0.5
100
AcDbArc
 50
182.0
 51
270.0
  0
ARC
  5
8B
330
63
100
AcDbEntity
  8
MEGA_001979
  6
HIDDEN2
 62
     7
 48
25.4
100
AcDbCircle
 10
127.4886102923
 20
69.1489289022
 30
0.0
 40
24.99999999970001
100
AcDbArc
 50
70.1883905298
 51
71.1205970475
  0
ARC
  5
8C
330
63
100
AcDbEntity
  8
MEGA_001979
  6
CONTINUOUS
 62
     7
 48
25.4
100
AcDbCircle
 10
127.4886084776
 20
141.9525136248
 30
0.0
 40
50.0063180269
100
AcDbArc
 50
260.2446901934
 51
279.7553098066
  0
ARC
  5
8D
330
63
100
AcDbEntity
  8
MEGA_001979
  6
CONTINUOUS
 62
     7
 48
25.4
100
AcDbCircle
 10
127.4886084776
 20
141.9317685305
 30
0.0
 40
50.0
100
AcDbArc
 50
279.7877891041
 51
280.9527841989
  0
ARC
  5
8E
330
63
100
AcDbEntity
  8
MEGA_001979
  6
HIDDEN2
 62
     7
 48
25.4
100
AcDbCircle
 10
127.4886068349
 20
69.1489289612
 30
0.0
 40
24.9999999996
100
AcDbArc
 50
108.8794033691
 51
109.8116076487
  0
LINE
  5
8F
330
63
100
AcDbEntity
  8
MEGA_001979
  6
CONTINUOUS
 62
     7
 48
25.4
100
AcDbLine
 10
117.9886084776
 20
92.8425640147
 30
0.0
 11
136.9886084776
 21
92.8425640147
 31
0.0
  0
LINE
  5
90
330
63
100
AcDbEntity
  8
MEGA_001979
  6
CONTINUOUS
 62
     7
 48
25.4
100
AcDbLine
 10
116.9886084776
 20
94.8425640147
 30
0.0
 11
137.9886084776
 21
94.8425640147
 31
0.0
  0
ARC
  5
91
330
63
100
AcDbEntity
  8
MEGA_001979
  6
CONTINUOUS
 62
     7
 48
25.4
100
AcDbCircle
 10
127.4886084776
 20
141.9317685305
 30
0.0
 40
50.0
100
AcDbArc
 50
259.0472158011
 51
260.2121848127
  0
LINE
  5
92
330
63
100
AcDbEntity
  8
MEGA_001979
  6
CONTINUOUS
 62
     7
 48
25.4
100
AcDbLine
 10
116.9886084776
 20
93.8425640147
 30
0.0
 11
117.9886084776
 21
92.8425640147
 31
0.0
  0
LINE
  5
93
330
63
100
AcDbEntity
  8
MEGA_001979
  6
CONTINUOUS
 62
     7
 48
25.4
100
AcDbLine
 10
136.9886084776
 20
92.8425640147
 30
0.0
 11
137.9886084776
 21
93.8425640147
 31
0.0
  0
LINE
  5
94
330
63
100
AcDbEntity
  8
MEGA_001979
  6
CONTINUOUS
 62
     7
 48
25.4
100
AcDbLine
 10
137.9886084776
 20
93.8425640147
 30
0.0
 11
137.9886084776
 21
94.8425640147
 31
0.0
  0
LINE
  5
95
330
63
100
AcDbEntity
  8
MEGA_001979
  6
CONTINUOUS
 62
     7
 48
25.4
100
AcDbLine
 10
116.9886084776
 20
94.8425640147
 30
0.0
 11
116.9886084776
 21
93.8425640147
 31
0.0
  0
LINE
  5
96
330
63
100
AcDbEntity
  8
MEGA_001979
  6
CONTINUOUS
 62
     7
 48
25.4
100
AcDbLine
 10
135.9886482767
 20
92.6595684462
 30
0.0
 11
135.9617209173
 21
92.6692689245
 31
0.0
  0
LINE
  5
97
330
63
100
AcDbEntity
  8
MEGA_001979
  6
CONTINUOUS
 62
     7
 48
25.4
100
AcDbLine
 10
118.9885686786
 20
92.6595684462
 30
0.0
 11
119.015496038
 21
92.6692689245
 31
0.0
  0
ENDBLK
  5
99
330
63
100
AcDbEntity
  8
0
100
AcDbBlockEnd
  0
BLOCK
  5
CA
330
9A
100
AcDbEntity
  8
0
100
AcDbBlockBegin
  2
SE7
 70
     0
 71
     0
 10
0.0
 20
0.0
 30
0.0
  3
SE7
  1

  0
LINE
  5
9C
330
9A
100
AcDbEntity
  8
MEGA_001411
  6
CONTINUOUS
 62
     7
 48
25.4
100
AcDbLine
 10
58.2443832217
 20
220.6846140043
 30
0.0
 11
57.3957602507
 21
220.6103691148
 31
0.0
  0
ARC
  5
9D
330
9A
100
AcDbEntity
  8
MEGA_001411
  6
CONTINUOUS
 62
     7
 48
25.4
100
AcDbCircle
 10
57.7443832217
 20
216.6255903224
 30
0.0
 40
4.0
100
AcDbArc
 50
95.0
 51
180.0
  0
LINE
  5
9E
330
9A
100
AcDbEntity
  8
MEGA_001411
  6
CONTINUOUS
 62
     7
 48
25.4
100
AcDbLine
 10
57.3957602507
 20
169.108813548
 30
0.0
 11
60.2443832217
 21
168.8595913314
 31
0.0
  0
ARC
  5
9F
330
9A
100
AcDbEntity
  8
MEGA_001411
  6
CONTINUOUS
 62
     7
 48
25.4
100
AcDbCircle
 10
57.7443832217
 20
173.0935923404
 30
0.0
 40
4.0
100
AcDbArc
 50
180.0
 51
265.0
  0
LINE
  5
A0
330
9A
100
AcDbEntity
  8
MEGA_001411
  6
CONTINUOUS
 62
     7
 48
25.4
100
AcDbLine
 10
53.7443832217
 20
173.0935923404
 30
0.0
 11
53.7443832217
 21
216.6255903224
 31
0.0
  0
LINE
  5
A1
330
9A
100
AcDbEntity
  8
MEGA_001411
  6
CONTINUOUS
 62
     7
 48
25.4
100
AcDbLine
 10
60.2443832217
 20
168.8595913314
 30
0.0
 11
60.2443832217
 21
220.7391199206
 31
0.0
  0
ARC
  5
A2
330
9A
100
AcDbEntity
  8
MEGA_001422
  6
CONTINUOUS
 62
     7
 48
25.4
100
AcDbCircle
 10
64.7443832217
 20
192.0170395663
 30
0.0
 40
0.5
100
AcDbArc
 50
272.0
 51
360.0
  0
ARC
  5
A3
330
9A
100
AcDbEntity
  8
MEGA_001422
  6
CONTINUOUS
 62
     7
 48
25.4
100
AcDbCircle
 10
60.7443832217
 20
206.3424357188
 30
0.0
 40
0.5
100
AcDbArc
 50
180.0
 51
268.0
  0
ARC
  5
A4
330
9A
100
AcDbEntity
  8
MEGA_001422
  6
CONTINUOUS
 62
     7
 48
25.4
100
AcDbCircle
 10
60.7443832217
 20
198.8424357188
 30
0.0
 40
0.5
100
AcDbArc
 50
180.0
 51
268.0
  0
LINE
  5
A5
330
9A
100
AcDbEntity
  8
MEGA_001422
  6
CONTINUOUS
 62
     7
 48
25.4
100
AcDbLine
 10
53.7443832217
 20
205.7548290229
 30
0.0
 11
53.7440786352
 21
205.7548183865
 31
0.0
  0
ARC
  5
A6
330
9A
100
AcDbEntity
  8
MEGA_001422
  6
CONTINUOUS
 62
     7
 48
25.4
100
AcDbCircle
 10
64.2443832217
 20
184.9998839537
 30
0.0
 40
1.0
100
AcDbArc
 50
272.0
 51
360.0
  0
LINE
  5
A7
330
9A
100
AcDbEntity
  8
MEGA_001422
  6
CONTINUOUS
 62
     7
 48
25.4
100
AcDbLine
 10
53.7440786352
 20
183.9643642763
 30
0.0
 11
53.7443832217
 21
183.9643536399
 31
0.0
  0
ARC
  5
A8
330
9A
100
AcDbEntity
  8
MEGA_001422
  6
CONTINUOUS
 62
     7
 48
25.4
100
AcDbCircle
 10
64.2443832217
 20
204.7192987091
 30
0.0
 40
1.0
100
AcDbArc
 50
0.0
 51
88.0
  0
LINE
  5
A9
330
9A
100
AcDbEntity
  8
MEGA_001422
  6
CONTINUOUS
 62
     7
 48
25.4
100
AcDbLine
 10
60.7269334734
 20
183.8764423575
 30
0.0
 11
64.2792827184
 21
184.0004931266
 31
0.0
  0
LINE
  5
AA
330
9A
100
AcDbEntity
  8
MEGA_001422
  6
CONTINUOUS
 62
     7
 48
25.4
100
AcDbLine
 10
65.2443832217
 20
192.0170395663
 30
0.0
 11
65.2443832217
 21
197.7021430965
 31
0.0
  0
LINE
  5
AB
330
9A
100
AcDbEntity
  8
MEGA_001422
  6
CONTINUOUS
 62
     7
 48
25.4
100
AcDbLine
 10
53.7440786352
 20
205.7548183865
 30
0.0
 11
53.2443832217
 21
205.255122973
 31
0.0
  0
LINE
  5
AC
330
9A
100
AcDbEntity
  8
MEGA_001422
  6
CONTINUOUS
 62
     7
 48
25.4
100
AcDbLine
 10
64.2792827184
 20
205.7186895362
 30
0.0
 11
60.7269334734
 21
205.8427403053
 31
0.0
  0
LINE
  5
AD
330
9A
100
AcDbEntity
  8
MEGA_001422
  6
CONTINUOUS
 62
     7
 48
25.4
100
AcDbLine
 10
53.2443832217
 20
184.4640596898
 30
0.0
 11
53.7440786352
 21
183.9643642763
 31
0.0
  0
LINE
  5
AE
330
9A
100
AcDbEntity
  8
MEGA_001422
  6
CONTINUOUS
 62
     7
 48
25.4
100
AcDbLine
 10
60.7269334734
 20
191.3764423575
 30
0.0
 11
64.7618329701
 21
191.5173441528
 31
0.0
  0
LINE
  5
AF
330
9A
100
AcDbEntity
  8
MEGA_001422
  6
CONTINUOUS
 62
     7
 48
25.4
100
AcDbLine
 10
64.7618329701
 20
198.20183851
 30
0.0
 11
60.7269334734
 21
198.3427403053
 31
0.0
  0
LINE
  5
B0
330
9A
100
AcDbEntity
  8
MEGA_001422
  6
CONTINUOUS
 62
     7
 48
25.4
100
AcDbLine
 10
60.2443832217
 20
220.7620526044
 30
0.0
 11
60.2443832217
 21
220.7391199206
 31
0.0
  0
LINE
  5
B1
330
9A
100
AcDbEntity
  8
MEGA_001422
  6
CONTINUOUS
 62
     7
 48
25.4
100
AcDbLine
 10
65.2443832217
 20
184.9998839537
 30
0.0
 11
65.2443832217
 21
192.0170395663
 31
0.0
  0
LINE
  5
B2
330
9A
100
AcDbEntity
  8
MEGA_001422
  6
CONTINUOUS
 62
     7
 48
25.4
100
AcDbLine
 10
65.2443832217
 20
197.7021430965
 30
0.0
 11
65.2443832217
 21
204.7192987091
 31
0.0
  0
LINE
  5
B3
330
9A
100
AcDbEntity
  8
MEGA_001422
  6
CONTINUOUS
 62
     7
 48
25.4
100
AcDbLine
 10
53.7440786352
 20
183.9643642763
 30
0.0
 11
53.7440786352
 21
205.7548183865
 31
0.0
  0
LINE
  5
B4
330
9A
100
AcDbEntity
  8
MEGA_001422
  6
CONTINUOUS
 62
     7
 48
25.4
100
AcDbLine
 10
60.2443832217
 20
220.8595913314
 30
0.0
 11
60.2443832217
 21
220.7620526044
 31
0.0
  0
ARC
  5
B5
330
9A
100
AcDbEntity
  8
MEGA_001422
  6
CONTINUOUS
 62
     7
 48
25.4
100
AcDbCircle
 10
64.7443832217
 20
197.7021430965
 30
0.0
 40
0.5
100
AcDbArc
 50
0.0
 51
88.0
  0
ARC
  5
B6
330
9A
100
AcDbEntity
  8
MEGA_001422
  6
CONTINUOUS
 62
     7
 48
25.4
100
AcDbCircle
 10
60.7443832217
 20
183.376746944
 30
0.0
 40
0.5
100
AcDbArc
 50
92.0
 51
180.0
  0
ARC
  5
B7
330
9A
100
AcDbEntity
  8
MEGA_001422
  6
CONTINUOUS
 62
     7
 48
25.4
100
AcDbCircle
 10
60.7443832217
 20
190.876746944
 30
0.0
 40
0.5
100
AcDbArc
 50
92.0
 51
180.0
  0
LINE
  5
B8
330
9A
100
AcDbEntity
  8
MEGA_001979
  6
HIDDEN2
 62
     7
 48
25.4
100
AcDbLine
 10
51.2057916482
 20
195.8443808407
 30
0.0
 11
51.062544311
 21
195.8468812323
 31
0.0
  0
LINE
  5
B9
330
9A
100
AcDbEntity
  8
MEGA_001979
  6
CONTINUOUS
 62
     7
 48
25.4
100
AcDbLine
 10
51.062544311
 20
195.8468812323
 30
0.0
 11
50.5444682018
 21
195.8559242844
 31
0.0
  0
SPLINE
  5
BA
330
9A
100
AcDbEntity
  8
MEGA_001979
  6
HIDDEN2
 62
     7
 48
25.4
100
AcDbSpline
210
0.0
220
0.0
230
1.0
 70
     8
 71
     3
 72
    14
 73
    10
 74
     0
 42
0.0000000001
 43
0.0000000001
 40
0.0
 40
0.0
 40
0.0
 40
0.0
 40
0.2499999999999999
 40
0.2499999999999999
 40
0.2499999999999999
 40
0.4999999999999998
 40
0.4999999999999998
 40
0.4999999999999998
 40
1.0
 40
1.0
 40
1.0
 40
1.0
 10
51.07108813158197
 20
196.048076987078
 30
0.0
 10
51.07040364429604
 20
196.0061589986721
 30
0.0
 10
51.07926050193155
 20
195.9685798164209
 30
0.0
 10
51.09003573872295
 20
195.9419998522941
 30
0.0
 10
51.10081097551431
 20
195.9154198881672
 30
0.0
 10
51.11339360776893
 20
195.8972883554715
 30
0.0
 10
51.12630587457409
 20
195.883358742532
 30
0.0
 10
51.1521304081844
 20
195.8554995166532
 30
0.0
 10
51.17908123523395
 20
195.8448470727271
 30
0.0
 10
51.2057916481922
 20
195.8443808407346
 30
0.0
  0
ARC
  5
BB
330
9A
100
AcDbEntity
  8
MEGA_001979
  6
CONTINUOUS
 62
     7
 48
25.4
100
AcDbCircle
 10
100.3335877376
 20
194.8595913314
 30
0.0
 40
50.0
100
AcDbArc
 50
181.3764995544
 51
190.9527841989
  0
LINE
  5
BC
330
9A
100
AcDbEntity
  8
MEGA_001979
  6
CONTINUOUS
 62
     7
 48
25.4
100
AcDbLine
 10
51.2443832217
 20
185.3595913314
 30
0.0
 11
51.2443832217
 21
204.3595913314
 31
0.0
  0
LINE
  5
BD
330
9A
100
AcDbEntity
  8
MEGA_001979
  6
CONTINUOUS
 62
     7
 48
25.4
100
AcDbLine
 10
53.2443832217
 20
184.3595913314
 30
0.0
 11
53.2443832217
 21
205.3595913314
 31
0.0
  0
LINE
  5
BE
330
9A
100
AcDbEntity
  8
MEGA_001979
  6
HIDDEN2
 62
     7
 48
25.4
100
AcDbLine
 10
51.2057916482
 20
193.8748018221
 30
0.0
 11
51.0672985643
 21
193.8723844163
 31
0.0
  0
LINE
  5
BF
330
9A
100
AcDbEntity
  8
MEGA_001979
  6
CONTINUOUS
 62
     7
 48
25.4
100
AcDbLine
 10
51.0672985643
 20
193.8723844163
 30
0.0
 11
50.5444682018
 21
193.8632583784
 31
0.0
  0
ARC
  5
C0
330
9A
100
AcDbEntity
  8
MEGA_001979
  6
CONTINUOUS
 62
     7
 48
25.4
100
AcDbCircle
 10
100.3335877376
 20
194.8595913314
 30
0.0
 40
50.0
100
AcDbArc
 50
169.0472158011
 51
178.6235004456
  0
ARC
  5
C1
330
9A
100
AcDbEntity
  8
MEGA_001979
  6
CONTINUOUS
 62
     7
 48
25.4
100
AcDbCircle
 10
50.5479586831
 20
196.0558938235
 30
0.0
 40
0.2000000000000028
100
AcDbArc
 50
178.6235004456
 51
269.0
  0
LINE
  5
C2
330
9A
100
AcDbEntity
  8
MEGA_001979
  6
CONTINUOUS
 62
     7
 48
25.4
100
AcDbLine
 10
52.2443832217
 20
205.3595913314
 30
0.0
 11
51.2443832217
 21
204.3595913314
 31
0.0
  0
ARC
  5
C3
330
9A
100
AcDbEntity
  8
MEGA_001979
  6
CONTINUOUS
 62
     7
 48
25.4
100
AcDbCircle
 10
50.5479586831
 20
193.6632888393
 30
0.0
 40
0.2000000000000028
100
AcDbArc
 50
91.0
 51
181.3764995544
  0
LINE
  5
C4
330
9A
100
AcDbEntity
  8
MEGA_001979
  6
CONTINUOUS
 62
     7
 48
25.4
100
AcDbLine
 10
51.2443832217
 20
185.3595913314
 30
0.0
 11
52.2443832217
 21
184.3595913314
 31
0.0
  0
LINE
  5
C5
330
9A
100
AcDbEntity
  8
MEGA_001979
  6
CONTINUOUS
 62
     7
 48
25.4
100
AcDbLine
 10
52.2443832217
 20
184.3595913314
 30
0.0
 11
53.2443832217
 21
184.3595913314
 31
0.0
  0
LINE
  5
C6
330
9A
100
AcDbEntity
  8
MEGA_001979
  6
CONTINUOUS
 62
     7
 48
25.4
100
AcDbLine
 10
53.2443832217
 20
205.3595913314
 30
0.0
 11
52.2443832217
 21
205.3595913314
 31
0.0
  0
SPLINE
  5
C7
330
9A
100
AcDbEntity
  8
MEGA_001979
  6
HIDDEN2
 62
     7
 48
25.4
100
AcDbSpline
210
0.0
220
0.0
230
1.0
 70
     8
 71
     3
 72
    14
 73
    10
 74
     0
 42
0.0000000001
 43
0.0000000001
 40
0.0
 40
0.0
 40
0.0
 40
0.0
 40
0.5000000000000047
 40
0.5000000000000047
 40
0.5000000000000047
 40
0.7500000000000023
 40
0.7500000000000023
 40
0.7500000000000023
 40
1.0
 40
1.0
 40
1.0
 40
1.0
 10
51.2057916481922
 20
193.8748018220608
 30
0.0
 10
51.17905607046092
 20
193.8743351508156
 30
0.0
 10
51.15248676174255
 20
193.863925144184
 30
0.0
 10
51.1265721959995
 20
193.8361104961303
 30
0.0
 10
51.11361491312798
 20
193.8222031721034
 30
0.0
 10
51.10079254799906
 20
193.803672170781
 30
0.0
 10
51.09008766274425
 20
193.7773107855038
 30
0.0
 10
51.07938277748946
 20
193.7509494002265
 30
0.0
 10
51.07040227993518
 20
193.7131072175566
 30
0.0
 10
51.07108813158198
 20
193.6711056757173
 30
0.0
  0
ARC
  5
C8
330
9A
100
AcDbEntity
  8
MEGA_001979
  6
CONTINUOUS
 62
     7
 48
25.4
100
AcDbCircle
 10
123.8689657843
 20
194.8595913314
 30
0.0
 40
72.80757851280001
100
AcDbArc
 50
179.0646820295
 51
180.9353179705
  0
LINE
  5
C9
330
9A
100
AcDbEntity
  8
STANDARD
  6
CONTINUOUS
 62
     7
 48
25.4
100
AcDbLine
 10
58.2443832217
 20
220.6846140043
 30
0.0
 11
60.2443832217
 21
220.8595913314
 31
0.0
  0
ENDBLK
  5
CB
330
9A
100
AcDbEntity
  8
0
100
AcDbBlockEnd
  0
BLOCK
  5
D6
330
CC
100
AcDbEntity
  8
0
100
AcDbBlockBegin
  2
SE8
 70
     0
 71
     0
 10
0.0
 20
0.0
 30
0.0
  3
SE8
  1

  0
POLYLINE
  5
CE
330
CC
100
AcDbEntity
  8
DEFAULT
  6
CONTINUOUS
 62
     7
 48
25.4
100
AcDb2dPolyline
 66
     1
 10
0.0
 20
0.0
 30
0.0
 70
     1
  0
VERTEX
  5
117
330
CE
100
AcDbEntity
  8
DEFAULT
  6
CONTINUOUS
 62
     7
100
AcDbVertex
100
AcDb2dVertex
 10
81.8763662529
 20
171.8595913575
 30
0.0
  0
VERTEX
  5
118
330
CE
100
AcDbEntity
  8
DEFAULT
  6
CONTINUOUS
 62
     7
100
AcDbVertex
100
AcDb2dVertex
 10
81.3763662486
 20
168.8595913314
 30
0.0
  0
VERTEX
  5
119
330
CE
100
AcDbEntity
  8
DEFAULT
  6
CONTINUOUS
 62
     7
100
AcDbVertex
100
AcDb2dVertex
 10
80.8763662442
 20
171.8595913575
 30
0.0
  0
VERTEX
  5
11A
330
CE
100
AcDbEntity
  8
DEFAULT
  6
CONTINUOUS
 62
     7
100
AcDbVertex
100
AcDb2dVertex
 10
81.8763662529
 20
171.8595913575
 30
0.0
  0
SEQEND
  5
116
330
CE
100
AcDbEntity
  8
DEFAULT
  6
CONTINUOUS
 62
     7
 48
25.4
  0
LINE
  5
CF
330
CC
100
AcDbEntity
  8
DEFAULT
  6
CONTINUOUS
 62
     7
 48
25.4
100
AcDbLine
 10
60.2443832217
 20
220.8595913314
 30
0.0
 11
82.8763662616
 21
220.8595913314
 31
0.0
  0
LINE
  5
D0
330
CC
100
AcDbEntity
  8
DEFAULT
  6
CONTINUOUS
 62
     7
 48
25.4
100
AcDbLine
 10
60.2443832217
 20
168.8595913314
 30
0.0
 11
82.8763662616
 21
168.8595913314
 31
0.0
  0
LINE
  5
D1
330
CC
100
AcDbEntity
  8
DEFAULT
  6
CONTINUOUS
 62
     7
 48
25.4
100
AcDbLine
 10
81.3763662486
 20
220.8595913314
 30
0.0
 11
81.3763662486
 21
168.8595902585
 31
0.0
  0
TEXT
  5
D3
330
CC
100
AcDbEntity
  8
DEFAULT
  6
CONTINUOUS
 62
     7
 48
25.4
100
AcDbText
 10
80.6263662486
 20
194.9071691991
 30
0.0
 40
3.0
  1
52
 50
90.0
  7
SEACAD_SEISO_TTF
 11
77.6263662486
 21
194.9071691991
 31
0.0
100
AcDbText
 73
     3
  0
TEXT
  5
D5
330
CC
100
AcDbEntity
  8
DEFAULT
  6
CONTINUOUS
 62
     7
 48
25.4
100
AcDbText
 10
80.6263662486
 20
191.2665578454
 30
0.0
 40
3.0
  1
O
 50
90.0
  7
SEACAD_SEMECI1_TTF
 11
77.6263662486
 21
191.2665578454
 31
0.0
100
AcDbText
 73
     3
  0
ENDBLK
  5
D7
330
CC
100
AcDbEntity
  8
0
100
AcDbBlockEnd
  0
BLOCK
  5
E0
330
D8
100
AcDbEntity
  8
0
100
AcDbBlockBegin
  2
SE9
 70
     0
 71
     0
 10
0.0
 20
0.0
 30
0.0
  3
SE9
  1

  0
POLYLINE
  5
DA
330
D8
100
AcDbEntity
  8
DEFAULT
  6
CONTINUOUS
 62
     7
 48
25.4
100
AcDb2dPolyline
 66
     1
 10
0.0
 20
0.0
 30
0.0
 70
     1
  0
VERTEX
  5
11C
330
DA
100
AcDbEntity
  8
DEFAULT
  6
CONTINUOUS
 62
     7
100
AcDbVertex
100
AcDb2dVertex
 10
169.9474847902
 20
186.7595932134
 30
0.0
  0
VERTEX
  5
11D
330
DA
100
AcDbEntity
  8
DEFAULT
  6
CONTINUOUS
 62
     7
100
AcDbVertex
100
AcDb2dVertex
 10
169.447484917
 20
183.7595931655
 30
0.0
  0
VERTEX
  5
11E
330
DA
100
AcDbEntity
  8
DEFAULT
  6
CONTINUOUS
 62
     7
100
AcDbVertex
100
AcDb2dVertex
 10
168.9474847815
 20
186.7595931697
 30
0.0
  0
VERTEX
  5
11F
330
DA
100
AcDbEntity
  8
DEFAULT
  6
CONTINUOUS
 62
     7
100
AcDbVertex
100
AcDb2dVertex
 10
169.9474847902
 20
186.7595932134
 30
0.0
  0
SEQEND
  5
11B
330
DA
100
AcDbEntity
  8
DEFAULT
  6
CONTINUOUS
 62
     7
 48
25.4
  0
POLYLINE
  5
DB
330
D8
100
AcDbEntity
  8
DEFAULT
  6
CONTINUOUS
 62
     7
 48
25.4
100
AcDb2dPolyline
 66
     1
 10
0.0
 20
0.0
 30
0.0
 70
     1
  0
VERTEX
  5
121
330
DB
100
AcDbEntity
  8
DEFAULT
  6
CONTINUOUS
 62
     7
100
AcDbVertex
100
AcDb2dVertex
 10
169.9474840821
 20
202.9595931613
 30
0.0
  0
VERTEX
  5
122
330
DB
100
AcDbEntity
  8
DEFAULT
  6
CONTINUOUS
 62
     7
100
AcDbVertex
100
AcDb2dVertex
 10
169.4474839466
 20
205.9595931655
 30
0.0
  0
VERTEX
  5
123
330
DB
100
AcDbEntity
  8
DEFAULT
  6
CONTINUOUS
 62
     7
100
AcDbVertex
100
AcDb2dVertex
 10
168.9474840734
 20
202.9595931175
 30
0.0
  0
VERTEX
  5
124
330
DB
100
AcDbEntity
  8
DEFAULT
  6
CONTINUOUS
 62
     7
100
AcDbVertex
100
AcDb2dVertex
 10
169.9474840821
 20
202.9595931613
 30
0.0
  0
SEQEND
  5
120
330
DB
100
AcDbEntity
  8
DEFAULT
  6
CONTINUOUS
 62
     7
 48
25.4
  0
LINE
  5
DC
330
D8
100
AcDbEntity
  8
DEFAULT
  6
CONTINUOUS
 62
     7
 48
25.4
100
AcDbLine
 10
127.4886089628
 20
183.7595913314
 30
0.0
 11
170.94748493
 21
183.759593231
 31
0.0
  0
LINE
  5
DD
330
D8
100
AcDbEntity
  8
DEFAULT
  6
CONTINUOUS
 62
     7
 48
25.4
100
AcDbLine
 10
127.4886079924
 20
205.9595913314
 30
0.0
 11
170.9474839596
 21
205.959593231
 31
0.0
  0
LINE
  5
DE
330
D8
100
AcDbEntity
  8
DEFAULT
  6
CONTINUOUS
 62
     7
 48
25.4
100
AcDbLine
 10
169.447484917
 20
183.7595931655
 30
0.0
 11
169.4474839466
 21
205.9595927065
 31
0.0
  0
TEXT
  5
DF
330
D8
100
AcDbEntity
  8
DEFAULT
  6
CONTINUOUS
 62
     7
 48
25.4
100
AcDbText
 10
168.6974844318
 20
191.8255020269
 30
0.0
 40
3.0
  1
22,2
 50
90.0
  7
SEACAD_SEISO_TTF
 11
165.6974844318
 21
191.8255020269
 31
0.0
100
AcDbText
 73
     3
  0
ENDBLK
  5
E1
330
D8
100
AcDbEntity
  8
0
100
AcDbBlockEnd
  0
BLOCK
  5
EB
330
E2
100
AcDbEntity
  8
0
100
AcDbBlockBegin
  2
SE10
 70
     0
 71
     0
 10
0.0
 20
0.0
 30
0.0
  3
SE10
  1

  0
POLYLINE
  5
E4
330
E2
100
AcDbEntity
  8
DEFAULT
  6
CONTINUOUS
 62
     7
 48
25.4
100
AcDb2dPolyline
 66
     1
 10
0.0
 20
0.0
 30
0.0
 70
     1
  0
VERTEX
  5
126
330
E4
100
AcDbEntity
  8
DEFAULT
  6
CONTINUOUS
 62
     7
100
AcDbVertex
100
AcDb2dVertex
 10
111.4886085037
 20
133.1508555288
 30
0.0
  0
VERTEX
  5
127
330
E4
100
AcDbEntity
  8
DEFAULT
  6
CONTINUOUS
 62
     7
100
AcDbVertex
100
AcDb2dVertex
 10
108.4886084776
 20
132.6508555244
 30
0.0
  0
VERTEX
  5
128
330
E4
100
AcDbEntity
  8
DEFAULT
  6
CONTINUOUS
 62
     7
100
AcDbVertex
100
AcDb2dVertex
 10
111.4886085037
 20
132.1508555201
 30
0.0
  0
VERTEX
  5
129
330
E4
100
AcDbEntity
  8
DEFAULT
  6
CONTINUOUS
 62
     7
100
AcDbVertex
100
AcDb2dVertex
 10
111.4886085037
 20
133.1508555288
 30
0.0
  0
SEQEND
  5
125
330
E4
100
AcDbEntity
  8
DEFAULT
  6
CONTINUOUS
 62
     7
 48
25.4
  0
POLYLINE
  5
E5
330
E2
100
AcDbEntity
  8
DEFAULT
  6
CONTINUOUS
 62
     7
 48
25.4
100
AcDb2dPolyline
 66
     1
 10
0.0
 20
0.0
 30
0.0
 70
     1
  0
VERTEX
  5
12B
330
E5
100
AcDbEntity
  8
DEFAULT
  6
CONTINUOUS
 62
     7
100
AcDbVertex
100
AcDb2dVertex
 10
143.4886084516
 20
133.1508555288
 30
0.0
  0
VERTEX
  5
12C
330
E5
100
AcDbEntity
  8
DEFAULT
  6
CONTINUOUS
 62
     7
100
AcDbVertex
100
AcDb2dVertex
 10
146.4886084776
 20
132.6508555244
 30
0.0
  0
VERTEX
  5
12D
330
E5
100
AcDbEntity
  8
DEFAULT
  6
CONTINUOUS
 62
     7
100
AcDbVertex
100
AcDb2dVertex
 10
143.4886084516
 20
132.1508555201
 30
0.0
  0
VERTEX
  5
12E
330
E5
100
AcDbEntity
  8
DEFAULT
  6
CONTINUOUS
 62
     7
100
AcDbVertex
100
AcDb2dVertex
 10
143.4886084516
 20
133.1508555288
 30
0.0
  0
SEQEND
  5
12A
330
E5
100
AcDbEntity
  8
DEFAULT
  6
CONTINUOUS
 62
     7
 48
25.4
  0
LINE
  5
E6
330
E2
100
AcDbEntity
  8
DEFAULT
  6
CONTINUOUS
 62
     7
 48
25.4
100
AcDbLine
 10
108.4886084776
 20
130.94447699
 30
0.0
 11
108.4886084776
 21
134.1508555375
 31
0.0
  0
LINE
  5
E7
330
E2
100
AcDbEntity
  8
DEFAULT
  6
CONTINUOUS
 62
     7
 48
25.4
100
AcDbLine
 10
146.4886084776
 20
130.2619255762
 30
0.0
 11
146.4886084776
 21
134.1508555375
 31
0.0
  0
LINE
  5
E8
330
E2
100
AcDbEntity
  8
DEFAULT
  6
CONTINUOUS
 62
     7
 48
25.4
100
AcDbLine
 10
108.4886084776
 20
132.6508555244
 30
0.0
 11
146.4886072557
 21
132.6508555244
 31
0.0
  0
TEXT
  5
E9
330
E2
100
AcDbEntity
  8
DEFAULT
  6
CONTINUOUS
 62
     7
 48
25.4
100
AcDbText
 10
127.5702771799
 20
133.4008555244
 30
0.0
 40
3.0
  1
38
  7
SEACAD_SEISO_TTF
 11
127.5702771799
 21
136.4008555244
 31
0.0
100
AcDbText
 73
     3
  0
TEXT
  5
EA
330
E2
100
AcDbEntity
  8
DEFAULT
  6
CONTINUOUS
 62
     7
 48
25.4
100
AcDbText
 10
123.9296658262
 20
133.4008555244
 30
0.0
 40
3.0
  1
O
  7
SEACAD_SEMECI1_TTF
 11
123.9296658262
 21
136.4008555244
 31
0.0
100
AcDbText
 73
     3
  0
ENDBLK
  5
EC
330
E2
100
AcDbEntity
  8
0
100
AcDbBlockEnd
  0
BLOCK
  5
F6
330
ED
100
AcDbEntity
  8
0
100
AcDbBlockBegin
  2
SE11
 70
     0
 71
     0
 10
0.0
 20
0.0
 30
0.0
  3
SE11
  1

  0
POLYLINE
  5
EF
330
ED
100
AcDbEntity
  8
DEFAULT
  6
CONTINUOUS
 62
     7
 48
25.4
100
AcDb2dPolyline
 66
     1
 10
0.0
 20
0.0
 30
0.0
 70
     1
  0
VERTEX
  5
130
330
EF
100
AcDbEntity
  8
DEFAULT
  6
CONTINUOUS
 62
     7
100
AcDbVertex
100
AcDb2dVertex
 10
101.9886084516
 20
122.0025134856
 30
0.0
  0
VERTEX
  5
131
330
EF
100
AcDbEntity
  8
DEFAULT
  6
CONTINUOUS
 62
     7
100
AcDbVertex
100
AcDb2dVertex
 10
104.9886084776
 20
121.5025134813
 30
0.0
  0
VERTEX
  5
132
330
EF
100
AcDbEntity
  8
DEFAULT
  6
CONTINUOUS
 62
     7
100
AcDbVertex
100
AcDb2dVertex
 10
101.9886084516
 20
121.0025134769
 30
0.0
  0
VERTEX
  5
133
330
EF
100
AcDbEntity
  8
DEFAULT
  6
CONTINUOUS
 62
     7
100
AcDbVertex
100
AcDb2dVertex
 10
101.9886084516
 20
122.0025134856
 30
0.0
  0
SEQEND
  5
12F
330
EF
100
AcDbEntity
  8
DEFAULT
  6
CONTINUOUS
 62
     7
 48
25.4
  0
POLYLINE
  5
F0
330
ED
100
AcDbEntity
  8
DEFAULT
  6
CONTINUOUS
 62
     7
 48
25.4
100
AcDb2dPolyline
 66
     1
 10
0.0
 20
0.0
 30
0.0
 70
     1
  0
VERTEX
  5
135
330
F0
100
AcDbEntity
  8
DEFAULT
  6
CONTINUOUS
 62
     7
100
AcDbVertex
100
AcDb2dVertex
 10
114.9886085037
 20
122.0025134856
 30
0.0
  0
VERTEX
  5
136
330
F0
100
AcDbEntity
  8
DEFAULT
  6
CONTINUOUS
 62
     7
100
AcDbVertex
100
AcDb2dVertex
 10
111.9886084776
 20
121.5025134813
 30
0.0
  0
VERTEX
  5
137
330
F0
100
AcDbEntity
  8
DEFAULT
  6
CONTINUOUS
 62
     7
100
AcDbVertex
100
AcDb2dVertex
 10
114.9886085037
 20
121.0025134769
 30
0.0
  0
VERTEX
  5
138
330
F0
100
AcDbEntity
  8
DEFAULT
  6
CONTINUOUS
 62
     7
100
AcDbVertex
100
AcDb2dVertex
 10
114.9886085037
 20
122.0025134856
 30
0.0
  0
SEQEND
  5
134
330
F0
100
AcDbEntity
  8
DEFAULT
  6
CONTINUOUS
 62
     7
 48
25.4
  0
LINE
  5
F1
330
ED
100
AcDbEntity
  8
DEFAULT
  6
CONTINUOUS
 62
     7
 48
25.4
100
AcDbLine
 10
104.9886084776
 20
101.8425640147
 30
0.0
 11
104.9886084776
 21
123.0025134943
 31
0.0
  0
LINE
  5
F2
330
ED
100
AcDbEntity
  8
DEFAULT
  6
CONTINUOUS
 62
     7
 48
25.4
100
AcDbLine
 10
111.9886084776
 20
101.8425640147
 30
0.0
 11
111.9886084776
 21
123.0025134943
 31
0.0
  0
LINE
  5
F3
330
ED
100
AcDbEntity
  8
DEFAULT
  6
CONTINUOUS
 62
     7
 48
25.4
100
AcDbLine
 10
94.0737612229
 20
121.5025134813
 30
0.0
 11
117.9886087459
 21
121.5025134813
 31
0.0
  0
TEXT
  5
F4
330
ED
100
AcDbEntity
  8
DEFAULT
  6
CONTINUOUS
 62
     7
 48
25.4
100
AcDbText
 10
98.7643727994
 20
122.2525134813
 30
0.0
 40
3.0
  1
7
  7
SEACAD_SEISO_TTF
 11
98.7643727994
 21
125.2525134813
 31
0.0
100
AcDbText
 73
     3
  0
TEXT
  5
F5
330
ED
100
AcDbEntity
  8
DEFAULT
  6
CONTINUOUS
 62
     7
 48
25.4
100
AcDbText
 10
95.1237614457
 20
122.2525134813
 30
0.0
 40
3.0
  1
O
  7
SEACAD_SEMECI1_TTF
 11
95.1237614457
 21
125.2525134813
 31
0.0
100
AcDbText
 73
     3
  0
ENDBLK
  5
F7
330
ED
100
AcDbEntity
  8
0
100
AcDbBlockEnd
  0
BLOCK
  5
100
330
F8
100
AcDbEntity
  8
0
100
AcDbBlockBegin
  2
SE12
 70
     0
 71
     0
 10
0.0
 20
0.0
 30
0.0
  3
SE12
  1

  0
CIRCLE
  5
FA
330
F8
100
AcDbEntity
  8
DEFAULT
  6
CONTINUOUS
 62
     7
 48
25.4
100
AcDbCircle
 10
84.6596747469
 20
101.8425640147
 30
0.0
 40
1.000000008692339
  0
POLYLINE
  5
FB
330
F8
100
AcDbEntity
  8
DEFAULT
  6
CONTINUOUS
 62
     7
 48
25.4
100
AcDb2dPolyline
 66
     1
 10
0.0
 20
0.0
 30
0.0
 70
     1
  0
VERTEX
  5
13A
330
FB
100
AcDbEntity
  8
DEFAULT
  6
CONTINUOUS
 62
     7
100
AcDbVertex
100
AcDb2dVertex
 10
84.1596747426
 20
109.8425640407
 30
0.0
  0
VERTEX
  5
13B
330
FB
100
AcDbEntity
  8
DEFAULT
  6
CONTINUOUS
 62
     7
100
AcDbVertex
100
AcDb2dVertex
 10
84.6596747469
 20
106.8425640147
 30
0.0
  0
VERTEX
  5
13C
330
FB
100
AcDbEntity
  8
DEFAULT
  6
CONTINUOUS
 62
     7
100
AcDbVertex
100
AcDb2dVertex
 10
85.1596747513
 20
109.8425640407
 30
0.0
  0
VERTEX
  5
13D
330
FB
100
AcDbEntity
  8
DEFAULT
  6
CONTINUOUS
 62
     7
100
AcDbVertex
100
AcDb2dVertex
 10
84.1596747426
 20
109.8425640407
 30
0.0
  0
SEQEND
  5
139
330
FB
100
AcDbEntity
  8
DEFAULT
  6
CONTINUOUS
 62
     7
 48
25.4
  0
LINE
  5
FC
330
F8
100
AcDbEntity
  8
DEFAULT
  6
CONTINUOUS
 62
     7
 48
25.4
100
AcDbLine
 10
101.4886084776
 20
101.8425640147
 30
0.0
 11
83.1596747339
 21
101.8425640147
 31
0.0
  0
LINE
  5
FD
330
F8
100
AcDbEntity
  8
DEFAULT
  6
CONTINUOUS
 62
     7
 48
25.4
100
AcDbLine
 10
105.6460567125
 20
106.8425640147
 30
0.0
 11
83.1596747339
 21
106.8425640147
 31
0.0
  0
LINE
  5
FE
330
F8
100
AcDbEntity
  8
DEFAULT
  6
CONTINUOUS
 62
     7
 48
25.4
100
AcDbLine
 10
84.6596747469
 20
95.8425639625
 30
0.0
 11
84.6596747469
 21
112.8425639551
 31
0.0
  0
TEXT
  5
FF
330
F8
100
AcDbEntity
  8
DEFAULT
  6
CONTINUOUS
 62
     7
 48
25.4
100
AcDbText
 10
83.9096747469
 20
103.4902912315
 30
0.0
 40
3.0
  1
5
 50
90.0
  7
SEACAD_SEISO_TTF
 11
80.9096747469
 21
103.4902912315
 31
0.0
100
AcDbText
 73
     3
  0
ENDBLK
  5
101
330
F8
100
AcDbEntity
  8
0
100
AcDbBlockEnd
  0
BLOCK
  5
10A
330
102
100
AcDbEntity
  8
0
100
AcDbBlockBegin
  2
SE13
 70
     0
 71
     0
 10
0.0
 20
0.0
 30
0.0
  3
SE13
  1

  0
CIRCLE
  5
104
330
102
100
AcDbEntity
  8
DEFAULT
  6
CONTINUOUS
 62
     7
 48
25.4
100
AcDbCircle
 10
84.6596747469
 20
101.8425640147
 30
0.0
 40
1.000000008692339
  0
POLYLINE
  5
105
330
102
100
AcDbEntity
  8
DEFAULT
  6
CONTINUOUS
 62
     7
 48
25.4
100
AcDb2dPolyline
 66
     1
 10
0.0
 20
0.0
 30
0.0
 70
     1
  0
VERTEX
  5
13F
330
105
100
AcDbEntity
  8
DEFAULT
  6
CONTINUOUS
 62
     7
100
AcDbVertex
100
AcDb2dVertex
 10
84.1596747426
 20
92.3425639886
 30
0.0
  0
VERTEX
  5
140
330
105
100
AcDbEntity
  8
DEFAULT
  6
CONTINUOUS
 62
     7
100
AcDbVertex
100
AcDb2dVertex
 10
84.6596747469
 20
95.3425640147
 30
0.0
  0
VERTEX
  5
141
330
105
100
AcDbEntity
  8
DEFAULT
  6
CONTINUOUS
 62
     7
100
AcDbVertex
100
AcDb2dVertex
 10
85.1596747513
 20
92.3425639886
 30
0.0
  0
VERTEX
  5
142
330
105
100
AcDbEntity
  8
DEFAULT
  6
CONTINUOUS
 62
     7
100
AcDbVertex
100
AcDb2dVertex
 10
84.1596747426
 20
92.3425639886
 30
0.0
  0
SEQEND
  5
13E
330
105
100
AcDbEntity
  8
DEFAULT
  6
CONTINUOUS
 62
     7
 48
25.4
  0
LINE
  5
106
330
102
100
AcDbEntity
  8
DEFAULT
  6
CONTINUOUS
 62
     7
 48
25.4
100
AcDbLine
 10
101.4886084776
 20
101.8425640147
 30
0.0
 11
83.1596747339
 21
101.8425640147
 31
0.0
  0
LINE
  5
107
330
102
100
AcDbEntity
  8
DEFAULT
  6
CONTINUOUS
 62
     7
 48
25.4
100
AcDbLine
 10
105.7226094866
 20
95.3425640147
 30
0.0
 11
83.1596747339
 21
95.3425640147
 31
0.0
  0
LINE
  5
108
330
102
100
AcDbEntity
  8
DEFAULT
  6
CONTINUOUS
 62
     7
 48
25.4
100
AcDbLine
 10
84.6596747469
 20
107.8425640668
 30
0.0
 11
84.6596747469
 21
89.3425638284
 31
0.0
  0
TEXT
  5
109
330
102
100
AcDbEntity
  8
DEFAULT
  6
CONTINUOUS
 62
     7
 48
25.4
100
AcDbText
 10
83.9096747469
 20
96.5471094022
 30
0.0
 40
3.0
  1
6,5
 50
90.0
  7
SEACAD_SEISO_TTF
 11
80.9096747469
 21
96.5471094022
 31
0.0
100
AcDbText
 73
     3
  0
ENDBLK
  5
10B
330
102
100
AcDbEntity
  8
0
100
AcDbBlockEnd
  0
BLOCK
  5
114
330
10C
100
AcDbEntity
  8
0
100
AcDbBlockBegin
  2
SE14
 70
     0
 71
     0
 10
0.0
 20
0.0
 30
0.0
  3
SE14
  1

  0
POLYLINE
  5
10E
330
10C
100
AcDbEntity
  8
DEFAULT
  6
CONTINUOUS
 62
     7
 48
25.4
100
AcDb2dPolyline
 66
     1
 10
0.0
 20
0.0
 30
0.0
 70
     1
  0
VERTEX
  5
144
330
10E
100
AcDbEntity
  8
DEFAULT
  6
CONTINUOUS
 62
     7
100
AcDbVertex
100
AcDb2dVertex
 10
166.9755968476
 20
94.946195624
 30
0.0
  0
VERTEX
  5
145
330
10E
100
AcDbEntity
  8
DEFAULT
  6
CONTINUOUS
 62
     7
100
AcDbVertex
100
AcDb2dVertex
 10
166.4755968433
 20
91.946195598
 30
0.0
  0
VERTEX
  5
146
330
10E
100
AcDbEntity
  8
DEFAULT
  6
CONTINUOUS
 62
     7
100
AcDbVertex
100
AcDb2dVertex
 10
165.9755968389
 20
94.946195624
 30
0.0
  0
VERTEX
  5
147
330
10E
100
AcDbEntity
  8
DEFAULT
  6
CONTINUOUS
 62
     7
100
AcDbVertex
100
AcDb2dVertex
 10
166.9755968476
 20
94.946195624
 30
0.0
  0
SEQEND
  5
143
330
10E
100
AcDbEntity
  8
DEFAULT
  6
CONTINUOUS
 62
     7
 48
25.4
  0
POLYLINE
  5
10F
330
10C
100
AcDbEntity
  8
DEFAULT
  6
CONTINUOUS
 62
     7
 48
25.4
100
AcDb2dPolyline
 66
     1
 10
0.0
 20
0.0
 30
0.0
 70
     1
  0
VERTEX
  5
149
330
10F
100
AcDbEntity
  8
DEFAULT
  6
CONTINUOUS
 62
     7
100
AcDbVertex
100
AcDb2dVertex
 10
166.9755968476
 20
103.8425639886
 30
0.0
  0
VERTEX
  5
14A
330
10F
100
AcDbEntity
  8
DEFAULT
  6
CONTINUOUS
 62
     7
100
AcDbVertex
100
AcDb2dVertex
 10
166.4755968433
 20
106.8425640147
 30
0.0
  0
VERTEX
  5
14B
330
10F
100
AcDbEntity
  8
DEFAULT
  6
CONTINUOUS
 62
     7
100
AcDbVertex
100
AcDb2dVertex
 10
165.9755968389
 20
103.8425639886
 30
0.0
  0
VERTEX
  5
14C
330
10F
100
AcDbEntity
  8
DEFAULT
  6
CONTINUOUS
 62
     7
100
AcDbVertex
100
AcDb2dVertex
 10
166.9755968476
 20
103.8425639886
 30
0.0
  0
SEQEND
  5
148
330
10F
100
AcDbEntity
  8
DEFAULT
  6
CONTINUOUS
 62
     7
 48
25.4
  0
LINE
  5
110
330
10C
100
AcDbEntity
  8
DEFAULT
  6
CONTINUOUS
 62
     7
 48
25.4
100
AcDbLine
 10
127.4886084776
 20
91.946195598
 30
0.0
 11
167.9755968563
 21
91.946195598
 31
0.0
  0
LINE
  5
111
330
10C
100
AcDbEntity
  8
DEFAULT
  6
CONTINUOUS
 62
     7
 48
25.4
100
AcDbLine
 10
149.3311602428
 20
106.8425640147
 30
0.0
 11
167.9755968563
 21
106.8425640147
 31
0.0
  0
LINE
  5
112
330
10C
100
AcDbEntity
  8
DEFAULT
  6
CONTINUOUS
 62
     7
 48
25.4
100
AcDbLine
 10
166.4755968433
 20
91.946195598
 30
0.0
 11
166.4755968433
 21
106.8425642058
 31
0.0
  0
TEXT
  5
113
330
10C
100
AcDbEntity
  8
DEFAULT
  6
CONTINUOUS
 62
     7
 48
25.4
100
AcDbText
 10
165.7255968433
 20
96.7011980837
 30
0.0
 40
3.0
  1
14,9
 50
90.0
  7
SEACAD_SEISO_TTF
 11
162.7255968433
 21
96.7011980837
 31
0.0
100
AcDbText
 73
     3
  0
ENDBLK
  5
115
330
10C
100
AcDbEntity
  8
0
100
AcDbBlockEnd
  0
ENDSEC
  0
SECTION
  2
ENTITIES
  0
INSERT
  5
2F
330
1F
100
AcDbEntity
  8
0
100
AcDbBlockReference
  2
SE
 10
0.0
 20
0.0
 30
0.0
  0
INSERT
  5
3B
330
1F
100
AcDbEntity
  8
0
100
AcDbBlockReference
  2
SE1
 10
0.0
 20
0.0
 30
0.0
  0
INSERT
  5
40
330
1F
100
AcDbEntity
  8
0
100
AcDbBlockReference
  2
SE2
 10
0.0
 20
0.0
 30
0.0
  0
INSERT
  5
45
330
1F
100
AcDbEntity
  8
0
100
AcDbBlockReference
  2
SE3
 10
0.0
 20
0.0
 30
0.0
  0
INSERT
  5
4A
330
1F
100
AcDbEntity
  8
0
100
AcDbBlockReference
  2
SE4
 10
0.0
 20
0.0
 30
0.0
  0
INSERT
  5
4F
330
1F
100
AcDbEntity
  8
0
100
AcDbBlockReference
  2
SE5
 10
0.0
 20
0.0
 30
0.0
  0
INSERT
  5
64
330
1F
100
AcDbEntity
  8
0
100
AcDbBlockReference
  2
SE6
 10
0.0
 20
0.0
 30
0.0
  0
INSERT
  5
9B
330
1F
100
AcDbEntity
  8
0
100
AcDbBlockReference
  2
SE7
 10
0.0
 20
0.0
 30
0.0
  0
INSERT
  5
CD
330
1F
100
AcDbEntity
  8
0
100
AcDbBlockReference
  2
SE8
 10
0.0
 20
0.0
 30
0.0
  0
INSERT
  5
D9
330
1F
100
AcDbEntity
  8
0
100
AcDbBlockReference
  2
SE9
 10
0.0
 20
0.0
 30
0.0
  0
INSERT
  5
E3
330
1F
100
AcDbEntity
  8
0
100
AcDbBlockReference
  2
SE10
 10
0.0
 20
0.0
 30
0.0
  0
INSERT
  5
EE
330
1F
100
AcDbEntity
  8
0
100
AcDbBlockReference
  2
SE11
 10
0.0
 20
0.0
 30
0.0
  0
INSERT
  5
F9
330
1F
100
AcDbEntity
  8
0
100
AcDbBlockReference
  2
SE12
 10
0.0
 20
0.0
 30
0.0
  0
INSERT
  5
103
330
1F
100
AcDbEntity
  8
0
100
AcDbBlockReference
  2
SE13
 10
0.0
 20
0.0
 30
0.0
  0
INSERT
  5
10D
330
1F
100
AcDbEntity
  8
0
100
AcDbBlockReference
  2
SE14
 10
0.0
 20
0.0
 30
0.0
  0
ENDSEC
  0
SECTION
  2
OBJECTS
  0
DICTIONARY
  5
C
330
0
100
AcDbDictionary
  3
ACAD_GROUP
350
D
  3
ACAD_LAYOUT
350
1A
  3
ACAD_MLINESTYLE
350
17
  3
ACAD_PLOTSETTINGS
350
19
  3
ACAD_TABLESTYLE
350
2A
  3
ACDBVARIABLEDICTIONARY
350
2C
1001
ACAD
1000
TREAT_AS_HARD
1070
     0
  0
DICTIONARY
  5
14D
330
29
100
AcDbDictionary
  3
ACAD_XREC_ROUNDTRIP
360
14E
  0
DICTIONARY
  5
D
102
{ACAD_REACTORS
330
C
102
}
330
C
100
AcDbDictionary
1001
ACAD
1000
TREAT_AS_HARD
1070
     0
  0
DICTIONARY
  5
1A
102
{ACAD_REACTORS
330
C
102
}
330
C
100
AcDbDictionary
1001
ACAD
1000
TREAT_AS_HARD
1070
     0
  0
DICTIONARY
  5
17
102
{ACAD_REACTORS
330
C
102
}
330
C
100
AcDbDictionary
  3
STANDARD
350
18
1001
ACAD
1000
TREAT_AS_HARD
1070
     0
  0
DICTIONARY
  5
19
102
{ACAD_REACTORS
330
C
102
}
330
C
100
AcDbDictionary
1001
ACAD
1000
TREAT_AS_HARD
1070
     0
  0
DICTIONARY
  5
2A
102
{ACAD_REACTORS
330
C
102
}
330
C
100
AcDbDictionary
  3
STANDARD
350
2B
1001
ACAD
1000
TREAT_AS_HARD
1070
     0
  0
DICTIONARY
  5
2C
102
{ACAD_REACTORS
330
C
102
}
330
C
100
AcDbDictionary
  3
CTABLESTYLE
350
2D
1001
ACAD
1000
TREAT_AS_HARD
1070
     0
  0
XRECORD
  5
14E
102
{ACAD_REACTORS
330
14D
102
}
330
14D
100
AcDbXrecord
102
UCS
 74
     0
 71
     1
 10
0.0
 20
0.0
 30
0.0
 10
1.0
 20
0.0
 30
0.0
 10
0.0
 20
1.0
 30
0.0
146
0.0
 79
     0
102
VIEW
281
     0
  0
MLINESTYLE
  5
18
102
{ACAD_REACTORS
330
17
102
}
330
17
100
AcDbMlineStyle
  2
Standard
 70
     0
  3

 62
   256
 51
90.0
 52
90.0
 71
     2
 49
0.5
 62
   256
  6
BYLAYER
 49
-0.5
 62
   256
  6
BYLAYER
  0
TABLESTYLE
  5
2B
102
{ACAD_REACTORS
330
2A
102
}
330
2A
100
AcDbTableStyle
  3
Standard
 70
     0
 71
     0
 40
0.06
 41
0.06
280
     0
281
     0
  7
STANDARD
140
0.18
170
     2
 62
     0
 63
     7
283
     0
274
    -2
284
     1
 64
     0
275
    -2
285
     1
 65
     0
276
    -2
286
     1
 66
     0
277
    -2
287
     1
 67
     0
278
    -2
288
     1
 68
     0
279
    -2
289
     1
 69
     0
  7
STANDARD
140
0.25
170
     5
 62
     0
 63
     7
283
     0
274
    -2
284
     1
 64
     0
275
    -2
285
     1
 65
     0
276
    -2
286
     1
 66
     0
277
    -2
287
     1
 67
     0
278
    -2
288
     1
 68
     0
279
    -2
289
     1
 69
     0
  7
STANDARD
140
0.18
170
     5
 62
     0
 63
     7
283
     0
274
    -2
284
     1
 64
     0
275
    -2
285
     1
 65
     0
276
    -2
286
     1
 66
     0
277
    -2
287
     1
 67
     0
278
    -2
288
     1
 68
     0
279
    -2
289
     1
 69
     0
  0
DICTIONARYVAR
  5
2D
102
{ACAD_REACTORS
330
2C
102
}
330
2C
100
DictionaryVariables
280
     0
  1
Standard
  0
ENDSEC
  0
EOF
