  0
SECTION
  2
HEADER
  9
$ACADVER
  1
AC1012
  9
$DWGCODEPAGE
  3
ansi_1252
  9
$INSBASE
 10
0.0
 20
0.0
 30
0.0
  9
$EXTMIN
 10
0.0
 20
0.0
 30
0.0
  9
$EXTMAX
 10
210.0
 20
297.0
 30
0.0
  9
$LIMMIN
 10
0.0
 20
0.0
  9
$LIMMAX
 10
210.0
 20
297.0
  9
$ORTHOMODE
 70
     0
  9
$REGENMODE
 70
     1
  9
$FILLMODE
 70
     1
  9
$QTEXTMODE
 70
     0
  9
$MIRRTEXT
 70
     1
  9
$DRAGMODE
 70
     2
  9
$LTSCALE
 40
1.0
  9
$OSMODE
 70
    37
  9
$ATTMODE
 70
     1
  9
$TEXTSIZE
 40
0.2
  9
$TRACEWID
 40
0.05
  9
$TEXTSTYLE
  7
STANDARD
  9
$CLAYER
  8
0
  9
$CELTYPE
  6
BYLAYER
  9
$CECOLOR
 62
   256
  9
$CELTSCALE
 40
25.4
  9
$DELOBJ
 70
     1
  9
$DISPSILH
 70
     0
  9
$DIMSCALE
 40
1.0
  9
$DIMASZ
 40
0.18
  9
$DIMEXO
 40
0.0625
  9
$DIMDLI
 40
0.38
  9
$DIMRND
 40
0.0
  9
$DIMDLE
 40
0.0
  9
$DIMEXE
 40
0.18
  9
$DIMTP
 40
0.0
  9
$DIMTM
 40
0.0
  9
$DIMTXT
 40
0.18
  9
$DIMCEN
 40
0.09
  9
$DIMTSZ
 40
0.0
  9
$DIMTOL
 70
     0
  9
$DIMLIM
 70
     0
  9
$DIMTIH
 70
     1
  9
$DIMTOH
 70
     1
  9
$DIMSE1
 70
     0
  9
$DIMSE2
 70
     0
  9
$DIMTAD
 70
     0
  9
$DIMZIN
 70
     0
  9
$DIMBLK
  1

  9
$DIMASO
 70
     1
  9
$DIMSHO
 70
     1
  9
$DIMPOST
  1

  9
$DIMAPOST
  1

  9
$DIMALT
 70
     0
  9
$DIMALTD
 70
     2
  9
$DIMALTF
 40
25.4
  9
$DIMLFAC
 40
1.0
  9
$DIMTOFL
 70
     0
  9
$DIMTVP
 40
0.0
  9
$DIMTIX
 70
     0
  9
$DIMSOXD
 70
     0
  9
$DIMSAH
 70
     0
  9
$DIMBLK1
  1

  9
$DIMBLK2
  1

  9
$DIMSTYLE
  2
STANDARD
  9
$DIMCLRD
 70
     0
  9
$DIMCLRE
 70
     0
  9
$DIMCLRT
 70
     0
  9
$DIMTFAC
 40
1.0
  9
$DIMGAP
 40
0.09
  9
$DIMJUST
 70
     0
  9
$DIMSD1
 70
     0
  9
$DIMSD2
 70
     0
  9
$DIMTOLJ
 70
     1
  9
$DIMTZIN
 70
     0
  9
$DIMALTZ
 70
     0
  9
$DIMALTTZ
 70
     0
  9
$DIMFIT
 70
     3
  9
$DIMUPT
 70
     0
  9
$DIMUNIT
 70
     2
  9
$DIMDEC
 70
     4
  9
$DIMTDEC
 70
     4
  9
$DIMALTU
 70
     2
  9
$DIMALTTD
 70
     2
  9
$DIMTXSTY
  7
STANDARD
  9
$DIMAUNIT
 70
     0
  9
$LUNITS
 70
     2
  9
$LUPREC
 70
     4
  9
$SKETCHINC
 40
0.1
  9
$FILLETRAD
 40
0.5
  9
$AUNITS
 70
     0
  9
$AUPREC
 70
     0
  9
$MENU
  1
.
  9
$ELEVATION
 40
0.0
  9
$PELEVATION
 40
0.0
  9
$THICKNESS
 40
0.0
  9
$LIMCHECK
 70
     0
  9
$CHAMFERA
 40
0.5
  9
$CHAMFERB
 40
0.5
  9
$CHAMFERC
 40
1.0
  9
$CHAMFERD
 40
0.0
  9
$SKPOLY
 70
     0
  9
$TDCREATE
 40
2453762.544179433
  9
$TDUPDATE
 40
2453762.544179445
  9
$TDINDWG
 40
0.0000000116
  9
$TDUSRTIMER
 40
0.0000000116
  9
$USRTIMER
 70
     1
  9
$ANGBASE
 50
0.0
  9
$ANGDIR
 70
     0
  9
$PDMODE
 70
     0
  9
$PDSIZE
 40
0.0
  9
$PLINEWID
 40
0.0
  9
$COORDS
 70
     1
  9
$SPLFRAME
 70
     0
  9
$SPLINETYPE
 70
     6
  9
$SPLINESEGS
 70
     8
  9
$ATTDIA
 70
     0
  9
$ATTREQ
 70
     1
  9
$HANDLING
 70
     1
  9
$HANDSEED
  5
175
  9
$SURFTAB1
 70
     6
  9
$SURFTAB2
 70
     6
  9
$SURFTYPE
 70
     6
  9
$SURFU
 70
     6
  9
$SURFV
 70
     6
  9
$UCSNAME
  2

  9
$UCSORG
 10
0.0
 20
0.0
 30
0.0
  9
$UCSXDIR
 10
1.0
 20
0.0
 30
0.0
  9
$UCSYDIR
 10
0.0
 20
1.0
 30
0.0
  9
$PUCSNAME
  2

  9
$PUCSORG
 10
0.0
 20
0.0
 30
0.0
  9
$PUCSXDIR
 10
1.0
 20
0.0
 30
0.0
  9
$PUCSYDIR
 10
0.0
 20
1.0
 30
0.0
  9
$USERI1
 70
     0
  9
$USERI2
 70
     0
  9
$USERI3
 70
     0
  9
$USERI4
 70
     0
  9
$USERI5
 70
     0
  9
$USERR1
 40
0.0
  9
$USERR2
 40
0.0
  9
$USERR3
 40
0.0
  9
$USERR4
 40
0.0
  9
$USERR5
 40
0.0
  9
$WORLDVIEW
 70
     1
  9
$SHADEDGE
 70
     3
  9
$SHADEDIF
 70
    70
  9
$TILEMODE
 70
     1
  9
$MAXACTVP
 70
    64
  9
$PINSBASE
 10
0.0
 20
0.0
 30
0.0
  9
$PLIMCHECK
 70
     0
  9
$PEXTMIN
 10
0.0
 20
0.0
 30
0.0
  9
$PEXTMAX
 10
210.0
 20
297.0
 30
0.0
  9
$PLIMMIN
 10
0.0
 20
0.0
  9
$PLIMMAX
 10
12.0
 20
9.0
  9
$UNITMODE
 70
     0
  9
$VISRETAIN
 70
     1
  9
$PLINEGEN
 70
     0
  9
$PSLTSCALE
 70
     1
  9
$TREEDEPTH
 70
  3020
  9
$PICKSTYLE
 70
     1
  9
$CMLSTYLE
  2
STANDARD
  9
$CMLJUST
 70
     0
  9
$CMLSCALE
 40
1.0
  9
$SAVEIMAGES
 70
     1
  0
ENDSEC
  0
SECTION
  2
CLASSES
  0
CLASS
  1
ACDBDICTIONARYWDFLT
  2
AcDbDictionaryWithDefault
  3
ObjectDBX Classes
 90
        0
280
     0
281
     0
  0
CLASS
  1
TABLESTYLE
  2
AcDbTableStyle
  3
ObjectDBX Classes
 90
     2047
280
     0
281
     0
  0
CLASS
  1
DICTIONARYVAR
  2
AcDbDictionaryVar
  3
ObjectDBX Classes
 90
        0
280
     0
281
     0
  0
CLASS
  1
XRECORD
  2
AcDbXrecord
  3
AutoCAD 2000
 90
    32768
280
     0
281
     0
  0
CLASS
  1
LWPOLYLINE
  2
AcDbPolyline
  3
AutoCAD 2000
 90
    32768
280
     0
281
     1
  0
CLASS
  1
HATCH
  2
AcDbHatch
  3
AutoCAD 2000
 90
    32768
280
     0
281
     1
  0
CLASS
  1
ACDBPLACEHOLDER
  2
AcDbPlaceHolder
  3
ObjectDBX Classes
 90
        0
280
     0
281
     0
  0
CLASS
  1
LAYOUT
  2
AcDbLayout
  3
ObjectDBX Classes
 90
        0
280
     0
281
     0
  0
ENDSEC
  0
SECTION
  2
TABLES
  0
TABLE
  2
VPORT
  5
8
330
0
100
AcDbSymbolTable
 70
     2
  0
VPORT
  5
29
102
{ACAD_XDICTIONARY
360
173
102
}
330
8
100
AcDbSymbolTableRecord
100
AcDbViewportTableRecord
  2
*ACTIVE
 70
     0
 10
0.0
 20
0.0
 11
1.0
 21
1.0
 12
10.4299065421
 22
4.5
 13
0.0
 23
0.0
 14
0.5
 24
0.5
 15
0.5
 25
0.5
 16
0.0
 26
0.0
 36
1.0
 17
0.0
 27
0.0
 37
0.0
 40
9.0
 41
1.9729729729
 42
50.0
 43
0.0
 44
0.0
 50
0.0
 51
0.0
 71
     0
 72
   100
 73
     1
 74
     3
 75
     0
 76
     0
 77
     0
 78
     0
  0
ENDTAB
  0
TABLE
  2
LTYPE
  5
5
330
0
100
AcDbSymbolTable
 70
     3
  0
LTYPE
  5
14
330
5
100
AcDbSymbolTableRecord
100
AcDbLinetypeTableRecord
  2
BYBLOCK
 70
     0
  3

 72
    65
 73
     0
 40
0.0
  0
LTYPE
  5
15
330
5
100
AcDbSymbolTableRecord
100
AcDbLinetypeTableRecord
  2
BYLAYER
 70
     0
  3

 72
    65
 73
     0
 40
0.0
  0
LTYPE
  5
16
330
5
100
AcDbSymbolTableRecord
100
AcDbLinetypeTableRecord
  2
CONTINUOUS
 70
     0
  3
Solid line
 72
    65
 73
     0
 40
0.0
  0
LTYPE
  5
31
330
5
100
AcDbSymbolTableRecord
100
AcDbLinetypeTableRecord
  2
CENTER2
 70
     0
  3
___ _ ___ _ ___ _ ___ _ ___ _ ___ _ ___ _ ___ _
 72
    65
 73
     4
 40
1.125
 49
0.75
 74
     4
 75
     0
340
0
 46
0.0
 50
0.0
 44
0.0
 45
0.0
 49
-0.125
 74
     4
 75
     0
340
0
 46
0.0
 50
0.0
 44
0.0
 45
0.0
 49
0.125
 74
     4
 75
     0
340
0
 46
0.0
 50
0.0
 44
0.0
 45
0.0
 49
-0.125
 74
     4
 75
     0
340
0
 46
0.0
 50
0.0
 44
0.0
 45
0.0
  0
LTYPE
  5
5A
330
5
100
AcDbSymbolTableRecord
100
AcDbLinetypeTableRecord
  2
HIDDEN2
 70
     0
  3
_ _ _ _ _ _ _ _ _ _ _ _ _ _ _ _ _ _ _ _ _ _ _ _
 72
    65
 73
     2
 40
0.1875
 49
0.125
 74
     4
 75
     0
340
0
 46
0.0
 50
0.0
 44
0.0
 45
0.0
 49
-0.0625
 74
     4
 75
     0
340
0
 46
0.0
 50
0.0
 44
0.0
 45
0.0
  0
ENDTAB
  0
TABLE
  2
LAYER
  5
2
330
0
100
AcDbSymbolTable
 70
     6
  0
LAYER
  5
10
330
2
100
AcDbSymbolTableRecord
100
AcDbLayerTableRecord
  2
0
 70
     0
 62
     7
  6
CONTINUOUS
  0
LAYER
  5
30
330
2
100
AcDbSymbolTableRecord
100
AcDbLayerTableRecord
  2
DEFAULT
 70
     0
 62
     7
  6
CONTINUOUS
  0
LAYER
  5
50
330
2
100
AcDbSymbolTableRecord
100
AcDbLayerTableRecord
  2
MEGA_001411
 70
     0
 62
     7
  6
CONTINUOUS
  0
LAYER
  5
54
330
2
100
AcDbSymbolTableRecord
100
AcDbLayerTableRecord
  2
MEGA_002077
 70
     0
 62
     7
  6
CONTINUOUS
  0
LAYER
  5
7B
330
2
100
AcDbSymbolTableRecord
100
AcDbLayerTableRecord
  2
STANDARD
 70
     0
 62
     7
  6
CONTINUOUS
  0
LAYER
  5
88
330
2
100
AcDbSymbolTableRecord
100
AcDbLayerTableRecord
  2
MEGA_001422
 70
     0
 62
     7
  6
CONTINUOUS
  0
ENDTAB
  0
TABLE
  2
STYLE
  5
3
330
0
100
AcDbSymbolTable
 70
     3
  0
STYLE
  5
11
330
3
100
AcDbSymbolTableRecord
100
AcDbTextStyleTableRecord
  2
STANDARD
 70
     0
 40
0.0
 41
1.0
 50
0.0
 71
     0
 42
0.2
  3
txt
  4

  0
STYLE
  5
F8
330
3
100
AcDbSymbolTableRecord
100
AcDbTextStyleTableRecord
  2
SEACAD_SEISO_TTF
 70
     0
 40
0.2
 41
1.0
 50
0.0
 71
     0
 42
0.2
  3
seiso.ttf
  4

  0
STYLE
  5
FA
330
3
100
AcDbSymbolTableRecord
100
AcDbTextStyleTableRecord
  2
SEACAD_SEMECI1_TTF
 70
     0
 40
0.2
 41
1.0
 50
0.0
 71
     0
 42
0.2
  3
semeci1.ttf
  4

  0
ENDTAB
  0
TABLE
  2
VIEW
  5
6
330
0
100
AcDbSymbolTable
 70
     0
  0
ENDTAB
  0
TABLE
  2
UCS
  5
7
330
0
100
AcDbSymbolTable
 70
     0
  0
ENDTAB
  0
TABLE
  2
APPID
  5
9
330
0
100
AcDbSymbolTable
 70
     1
  0
APPID
  5
12
330
9
100
AcDbSymbolTableRecord
100
AcDbRegAppTableRecord
  2
ACAD
 70
     0
  0
ENDTAB
  0
TABLE
  2
DIMSTYLE
  5
A
330
0
100
AcDbSymbolTable
 70
     1
  0
DIMSTYLE
105
27
330
A
100
AcDbSymbolTableRecord
100
AcDbDimStyleTableRecord
  2
STANDARD
 70
     0
  3

  4

  5

  6

  7

 40
1.0
 41
0.18
 42
0.0625
 43
0.38
 44
0.18
 45
0.0
 46
0.0
 47
0.0
 48
0.0
140
0.18
141
0.09
142
0.0
143
25.4
144
1.0
145
0.0
146
1.0
147
0.09
 71
     0
 72
     0
 73
     1
 74
     1
 75
     0
 76
     0
 77
     0
 78
     0
170
     0
171
     2
172
     0
173
     0
174
     0
175
     0
176
     0
177
     0
178
     0
270
     2
271
     4
272
     4
273
     2
274
     2
340
11
275
     0
280
     0
281
     0
282
     0
283
     1
284
     0
285
     0
286
     0
287
     3
288
     0
  0
ENDTAB
  0
TABLE
  2
BLOCK_RECORD
  5
1
330
0
100
AcDbSymbolTable
 70
    16
  0
BLOCK_RECORD
  5
1F
330
1
100
AcDbSymbolTableRecord
100
AcDbBlockTableRecord
  2
*MODEL_SPACE
  0
BLOCK_RECORD
  5
1B
330
1
100
AcDbSymbolTableRecord
100
AcDbBlockTableRecord
  2
*PAPER_SPACE
  0
BLOCK_RECORD
  5
2E
330
1
100
AcDbSymbolTableRecord
100
AcDbBlockTableRecord
  2
SE
  0
BLOCK_RECORD
  5
3A
330
1
100
AcDbSymbolTableRecord
100
AcDbBlockTableRecord
  2
SE1
  0
BLOCK_RECORD
  5
3F
330
1
100
AcDbSymbolTableRecord
100
AcDbBlockTableRecord
  2
SE2
  0
BLOCK_RECORD
  5
44
330
1
100
AcDbSymbolTableRecord
100
AcDbBlockTableRecord
  2
SE3
  0
BLOCK_RECORD
  5
49
330
1
100
AcDbSymbolTableRecord
100
AcDbBlockTableRecord
  2
SE4
  0
BLOCK_RECORD
  5
4E
330
1
100
AcDbSymbolTableRecord
100
AcDbBlockTableRecord
  2
SE5
  0
BLOCK_RECORD
  5
7F
330
1
100
AcDbSymbolTableRecord
100
AcDbBlockTableRecord
  2
SE6
  0
BLOCK_RECORD
  5
BA
330
1
100
AcDbSymbolTableRecord
100
AcDbBlockTableRecord
  2
SE7
  0
BLOCK_RECORD
  5
F2
330
1
100
AcDbSymbolTableRecord
100
AcDbBlockTableRecord
  2
SE8
  0
BLOCK_RECORD
  5
FE
330
1
100
AcDbSymbolTableRecord
100
AcDbBlockTableRecord
  2
SE9
  0
BLOCK_RECORD
  5
108
330
1
100
AcDbSymbolTableRecord
100
AcDbBlockTableRecord
  2
SE10
  0
BLOCK_RECORD
  5
113
330
1
100
AcDbSymbolTableRecord
100
AcDbBlockTableRecord
  2
SE11
  0
BLOCK_RECORD
  5
11E
330
1
100
AcDbSymbolTableRecord
100
AcDbBlockTableRecord
  2
SE12
  0
BLOCK_RECORD
  5
128
330
1
100
AcDbSymbolTableRecord
100
AcDbBlockTableRecord
  2
SE13
  0
BLOCK_RECORD
  5
132
330
1
100
AcDbSymbolTableRecord
100
AcDbBlockTableRecord
  2
SE14
  0
ENDTAB
  0
ENDSEC
  0
SECTION
  2
BLOCKS
  0
BLOCK
  5
20
330
1F
100
AcDbEntity
  8
0
100
AcDbBlockBegin
  2
*MODEL_SPACE
 70
     0
 71
     0
 10
0.0
 20
0.0
 30
0.0
  3
*MODEL_SPACE
  1

  0
ENDBLK
  5
21
330
1F
100
AcDbEntity
  8
0
100
AcDbBlockEnd
  0
BLOCK
  5
1C
330
1B
100
AcDbEntity
 67
     1
  8
0
100
AcDbBlockBegin
  2
*PAPER_SPACE
 70
     0
 71
     0
 10
0.0
 20
0.0
 30
0.0
  3
*PAPER_SPACE
  1

  0
ENDBLK
  5
1D
330
1B
100
AcDbEntity
 67
     1
  8
0
100
AcDbBlockEnd
  0
BLOCK
  5
38
330
2E
100
AcDbEntity
  8
0
100
AcDbBlockBegin
  2
SE
 70
     0
 71
     0
 10
0.0
 20
0.0
 30
0.0
  3
SE
  1

  0
LINE
  5
32
330
2E
100
AcDbEntity
  8
DEFAULT
  6
CENTER2
 62
     7
 48
25.4
100
AcDbLine
 10
147.4907810495
 20
198.6839532576
 30
0.0
 11
135.4907809452
 21
198.6839532576
 31
0.0
  0
LINE
  5
33
330
2E
100
AcDbEntity
  8
DEFAULT
  6
CENTER2
 62
     7
 48
25.4
100
AcDbLine
 10
141.4907809973
 20
204.6839533098
 30
0.0
 11
141.4907809973
 21
192.6839532055
 31
0.0
  0
LINE
  5
34
330
2E
100
AcDbEntity
  8
DEFAULT
  6
CENTER2
 62
     7
 48
25.4
100
AcDbLine
 10
148.9907809973
 20
198.6839532576
 30
0.0
 11
169.2407809973
 21
198.6839532576
 31
0.0
  0
LINE
  5
35
330
2E
100
AcDbEntity
  8
DEFAULT
  6
CENTER2
 62
     7
 48
25.4
100
AcDbLine
 10
141.4907809973
 20
206.1839532576
 30
0.0
 11
141.4907809973
 21
226.4339532576
 31
0.0
  0
LINE
  5
36
330
2E
100
AcDbEntity
  8
DEFAULT
  6
CENTER2
 62
     7
 48
25.4
100
AcDbLine
 10
133.9907809973
 20
198.6839532576
 30
0.0
 11
113.7407809973
 21
198.6839532576
 31
0.0
  0
LINE
  5
37
330
2E
100
AcDbEntity
  8
DEFAULT
  6
CENTER2
 62
     7
 48
25.4
100
AcDbLine
 10
141.4907809973
 20
191.1839532576
 30
0.0
 11
141.4907809973
 21
170.9339532576
 31
0.0
  0
ENDBLK
  5
39
330
2E
100
AcDbEntity
  8
0
100
AcDbBlockEnd
  0
BLOCK
  5
3D
330
3A
100
AcDbEntity
  8
0
100
AcDbBlockBegin
  2
SE1
 70
     0
 71
     0
 10
0.0
 20
0.0
 30
0.0
  3
SE1
  1

  0
LINE
  5
3C
330
3A
100
AcDbEntity
  8
DEFAULT
  6
CENTER2
 62
     7
 48
25.4
100
AcDbLine
 10
82.8603860818
 20
198.6839532576
 30
0.0
 11
34.9417283199
 21
198.6839532576
 31
0.0
  0
ENDBLK
  5
3E
330
3A
100
AcDbEntity
  8
0
100
AcDbBlockEnd
  0
BLOCK
  5
42
330
3F
100
AcDbEntity
  8
0
100
AcDbBlockBegin
  2
SE2
 70
     0
 71
     0
 10
0.0
 20
0.0
 30
0.0
  3
SE2
  1

  0
LINE
  5
41
330
3F
100
AcDbEntity
  8
DEFAULT
  6
CENTER2
 62
     7
 48
25.4
100
AcDbLine
 10
122.4907809973
 20
101.0571082215
 30
0.0
 11
122.4907809973
 21
134.5413212986
 31
0.0
  0
ENDBLK
  5
43
330
3F
100
AcDbEntity
  8
0
100
AcDbBlockEnd
  0
BLOCK
  5
47
330
44
100
AcDbEntity
  8
0
100
AcDbBlockBegin
  2
SE3
 70
     0
 71
     0
 10
0.0
 20
0.0
 30
0.0
  3
SE3
  1

  0
LINE
  5
46
330
44
100
AcDbEntity
  8
DEFAULT
  6
CENTER2
 62
     7
 48
25.4
100
AcDbLine
 10
141.4907809973
 20
66.4966721735
 30
0.0
 11
141.4907809973
 21
116.2484787997
 31
0.0
  0
ENDBLK
  5
48
330
44
100
AcDbEntity
  8
0
100
AcDbBlockEnd
  0
BLOCK
  5
4C
330
49
100
AcDbEntity
  8
0
100
AcDbBlockBegin
  2
SE4
 70
     0
 71
     0
 10
0.0
 20
0.0
 30
0.0
  3
SE4
  1

  0
LINE
  5
4B
330
49
100
AcDbEntity
  8
DEFAULT
  6
CENTER2
 62
     7
 48
25.4
100
AcDbLine
 10
160.4907809973
 20
100.6343904938
 30
0.0
 11
160.4907809973
 21
135.1101142697
 31
0.0
  0
ENDBLK
  5
4D
330
49
100
AcDbEntity
  8
0
100
AcDbBlockEnd
  0
BLOCK
  5
7D
330
4E
100
AcDbEntity
  8
0
100
AcDbBlockBegin
  2
SE5
 70
     0
 71
     0
 10
0.0
 20
0.0
 30
0.0
  3
SE5
  1

  0
ARC
  5
51
330
4E
100
AcDbEntity
  8
MEGA_001411
  6
CONTINUOUS
 62
     7
 48
25.4
100
AcDbCircle
 10
141.4907809973
 20
198.6839532576
 30
0.0
 40
11.1
100
AcDbArc
 50
38.5597078095
 51
141.3239524198
  0
ARC
  5
52
330
4E
100
AcDbEntity
  8
MEGA_001411
  6
CONTINUOUS
 62
     7
 48
25.4
100
AcDbCircle
 10
141.4907809973
 20
198.6839532576
 30
0.0
 40
11.1
100
AcDbArc
 50
218.6867696193
 51
321.4199807054
  0
ARC
  5
53
330
4E
100
AcDbEntity
  8
MEGA_001411
  6
CONTINUOUS
 62
     7
 48
25.4
100
AcDbCircle
 10
141.4907809973
 20
198.6839532576
 30
0.0
 40
26.0
100
AcDbArc
 50
95.5177343738
 51
84.4822656262
  0
LINE
  5
55
330
4E
100
AcDbEntity
  8
MEGA_002077
  6
CONTINUOUS
 62
     7
 48
25.4
100
AcDbLine
 10
135.8976773994
 20
191.0086356887
 30
0.0
 11
137.2902181376
 21
190.6788234086
 31
0.0
  0
ARC
  5
56
330
4E
100
AcDbEntity
  8
MEGA_002077
  6
CONTINUOUS
 62
     7
 48
25.4
100
AcDbCircle
 10
146.0294607547
 20
189.240281934
 30
0.0
 40
1.477602497300012
100
AcDbArc
 50
103.2081611202
 51
112.5839925472
  0
LINE
  5
57
330
4E
100
AcDbEntity
  8
MEGA_002077
  6
CONTINUOUS
 62
     7
 48
25.4
100
AcDbLine
 10
151.5652312884
 20
192.0970048922
 30
0.0
 11
156.8346797551
 21
193.3365355087
 31
0.0
  0
ARC
  5
58
330
4E
100
AcDbEntity
  8
MEGA_002077
  6
CONTINUOUS
 62
     7
 48
25.4
100
AcDbCircle
 10
209.3842334769
 20
-53.4905829124
 30
0.0
 40
252.301455599
100
AcDbArc
 50
103.247970163
 51
103.8763721527
  0
ARC
  5
59
330
4E
100
AcDbEntity
  8
MEGA_002077
  6
CONTINUOUS
 62
     7
 48
25.4
100
AcDbCircle
 10
70.9451758287
 20
-64.4949721278
 30
0.0
 40
263.6209073507999
100
AcDbArc
 50
76.0590814361
 51
76.7390411647
  0
ARC
  5
5B
330
4E
100
AcDbEntity
  8
MEGA_002077
  6
HIDDEN2
 62
     7
 48
25.4
100
AcDbCircle
 10
141.4907809972
 20
198.6839532578
 30
0.0
 40
8.999999999799996
100
AcDbArc
 50
118.0569398616
 51
121.0108777904
  0
SPLINE
  5
5C
330
4E
100
AcDbEntity
  8
MEGA_002077
  6
CONTINUOUS
 62
     7
 48
25.4
100
AcDbSpline
210
0.0
220
0.0
230
1.0
 70
     8
 71
     3
 72
    62
 73
    58
 74
     0
 42
0.0000000001
 43
0.0000000001
 40
0.0
 40
0.0
 40
0.0
 40
0.0
 40
0.0061893312489024
 40
0.0061893312489024
 40
0.0061893312489024
 40
0.0807857620945033
 40
0.0807857620945033
 40
0.0807857620945033
 40
0.1559747174195744
 40
0.1559747174195744
 40
0.1559747174195744
 40
0.2316948635270958
 40
0.2316948635270958
 40
0.2316948635270958
 40
0.3082638374174411
 40
0.3082638374174411
 40
0.3082638374174411
 40
0.3872489033911722
 40
0.3872489033911722
 40
0.3872489033911722
 40
0.4691149026212433
 40
0.4691149026212433
 40
0.4691149026212433
 40
0.5653992892043412
 40
0.5653992892043412
 40
0.5653992892043412
 40
0.6174783952735355
 40
0.6174783952735355
 40
0.6174783952735355
 40
0.6547995739057624
 40
0.6547995739057624
 40
0.6547995739057624
 40
0.6904028030912053
 40
0.6904028030912053
 40
0.6904028030912053
 40
0.7258153580499721
 40
0.7258153580499721
 40
0.7258153580499721
 40
0.7628107238495677
 40
0.7628107238495677
 40
0.7628107238495677
 40
0.8023778086875282
 40
0.8023778086875282
 40
0.8023778086875282
 40
0.8438740549519436
 40
0.8438740549519436
 40
0.8438740549519436
 40
0.8865887630644431
 40
0.8865887630644431
 40
0.8865887630644431
 40
0.9300794125117808
 40
0.9300794125117808
 40
0.9300794125117808
 40
0.974043209970681
 40
0.974043209970681
 40
0.974043209970681
 40
1.0
 40
1.0
 40
1.0
 40
1.0
 10
158.5933386959957
 20
193.7618096169024
 30
0.0
 10
158.6034911178656
 20
193.7643372497386
 30
0.0
 10
158.6122270245234
 20
193.7665125373283
 30
0.0
 10
158.6209755292081
 20
193.7686952795155
 30
0.0
 10
158.7264161977494
 20
193.7950026090274
 30
0.0
 10
158.833686866636
 20
193.8223927998785
 30
0.0
 10
158.9362119078828
 20
193.848799619172
 30
0.0
 10
159.0395513124444
 20
193.8754161896114
 30
0.0
 10
159.1380694002729
 20
193.9010337044769
 30
0.0
 10
159.2329752699976
 20
193.9261199283796
 30
0.0
 10
159.3285516254735
 20
193.9513833800527
 30
0.0
 10
159.4204645437593
 20
193.9761080073759
 30
0.0
 10
159.5079944587711
 20
194.0001255506275
 30
0.0
 10
159.5965055898465
 20
194.0244123321076
 30
0.0
 10
159.6805348993495
 20
194.0479760877428
 30
0.0
 10
159.7600986832752
 20
194.0709499720421
 30
0.0
 10
159.8421730588767
 20
194.0946487846923
 30
0.0
 10
159.9194956482174
 20
194.1177199125469
 30
0.0
 10
159.9924780823761
 20
194.1404072151149
 30
0.0
 10
160.0681225073695
 20
194.1639220235369
 30
0.0
 10
160.1391043939632
 20
194.1870244964404
 30
0.0
 10
160.2070562420255
 20
194.2104219881459
 30
0.0
 10
160.2869758920562
 20
194.237940288266
 30
0.0
 10
160.3627042034296
 20
194.2658666768299
 30
0.0
 10
160.4422669459809
 20
194.2991577685984
 30
0.0
 10
160.4853015090656
 20
194.3171645333596
 30
0.0
 10
160.5294578742628
 20
194.3367407969874
 30
0.0
 10
160.5771125745462
 20
194.3601021119411
 30
0.0
 10
160.6112631142959
 20
194.3768434094456
 30
0.0
 10
160.6472102278585
 20
194.3955285242019
 30
0.0
 10
160.6853927431202
 20
194.4172336791396
 30
0.0
 10
160.721817660327
 20
194.4379397134632
 30
0.0
 10
160.7602769180809
 20
194.4613941532288
 30
0.0
 10
160.8001150225036
 20
194.4882360900577
 30
0.0
 10
160.8397397726906
 20
194.51493427404
 30
0.0
 10
160.8807286401797
 20
194.5449837685483
 30
0.0
 10
160.9216619748349
 20
194.5783760345768
 30
0.0
 10
160.9644248788594
 20
194.6132608119684
 30
0.0
 10
161.0071271748822
 20
194.6517938581006
 30
0.0
 10
161.0483372015101
 20
194.6935560352986
 30
0.0
 10
161.0924119277499
 20
194.7382212946491
 30
0.0
 10
161.1347797044267
 20
194.7865802328218
 30
0.0
 10
161.1743000909225
 20
194.8379976207826
 30
0.0
 10
161.2157473619866
 20
194.891921952126
 30
0.0
 10
161.2540628151689
 20
194.9492102438428
 30
0.0
 10
161.2885387136414
 20
195.0092636432867
 30
0.0
 10
161.3240269342092
 20
195.0710804016524
 30
0.0
 10
161.3554468065261
 20
195.1358270365365
 30
0.0
 10
161.3819796542403
 20
195.2023851558713
 30
0.0
 10
161.4089944889369
 20
195.2701523481051
 30
0.0
 10
161.4309431341915
 20
195.3397974362255
 30
0.0
 10
161.4485676668953
 20
195.4119087423662
 30
0.0
 10
161.4663839422543
 20
195.4848045693532
 30
0.0
 10
161.4797815065909
 20
195.5602205677333
 30
0.0
 10
161.4844412986494
 20
195.6320153552472
 30
0.0
 10
161.487192499661
 20
195.6744039188475
 30
0.0
 10
161.486897824151
 20
195.7155301742981
 30
0.0
 10
161.4862273874562
 20
195.7639082472872
 30
0.0
  0
ARC
  5
5D
330
4E
100
AcDbEntity
  8
MEGA_002077
  6
CONTINUOUS
 62
     7
 48
25.4
100
AcDbCircle
 10
434.3749218057
 20
1495.7112876421
 30
0.0
 40
1338.3519615319
100
AcDbArc
 50
256.6850142265
 51
256.9167607168
  0
SPLINE
  5
5E
330
4E
100
AcDbEntity
  8
MEGA_002077
  6
CONTINUOUS
 62
     7
 48
25.4
100
AcDbSpline
210
0.0
220
0.0
230
1.0
 70
     8
 71
     3
 72
    77
 73
    73
 74
     0
 42
0.0000000001
 43
0.0000000001
 40
0.0
 40
0.0
 40
0.0
 40
0.0
 40
0.0322236158992614
 40
0.0322236158992614
 40
0.0322236158992614
 40
0.0636988818285679
 40
0.0636988818285679
 40
0.0636988818285679
 40
0.0939533880174604
 40
0.0939533880174604
 40
0.0939533880174604
 40
0.1230327241977483
 40
0.1230327241977483
 40
0.1230327241977483
 40
0.1509150472665372
 40
0.1509150472665372
 40
0.1509150472665372
 40
0.1775054234033907
 40
0.1775054234033907
 40
0.1775054234033907
 40
0.2027410806312177
 40
0.2027410806312177
 40
0.2027410806312177
 40
0.2269651134768652
 40
0.2269651134768652
 40
0.2269651134768652
 40
0.2513195854083497
 40
0.2513195854083497
 40
0.2513195854083497
 40
0.27726495253453
 40
0.27726495253453
 40
0.27726495253453
 40
0.3072393714171988
 40
0.3072393714171988
 40
0.3072393714171988
 40
0.3456064567426398
 40
0.3456064567426398
 40
0.3456064567426398
 40
0.4033208749545965
 40
0.4033208749545965
 40
0.4033208749545965
 40
0.4650447455290681
 40
0.4650447455290681
 40
0.4650447455290681
 40
0.5219159150080204
 40
0.5219159150080204
 40
0.5219159150080204
 40
0.5818465731135248
 40
0.5818465731135248
 40
0.5818465731135248
 40
0.6395303398264545
 40
0.6395303398264545
 40
0.6395303398264545
 40
0.696071589425839
 40
0.696071589425839
 40
0.696071589425839
 40
0.7516765299664695
 40
0.7516765299664695
 40
0.7516765299664695
 40
0.8062575682617471
 40
0.8062575682617471
 40
0.8062575682617471
 40
0.8596708824894527
 40
0.8596708824894527
 40
0.8596708824894527
 40
0.9134979702083316
 40
0.9134979702083316
 40
0.9134979702083316
 40
0.967697464883451
 40
0.967697464883451
 40
0.967697464883451
 40
1.0
 40
1.0
 40
1.0
 40
1.0
 10
121.4936698389642
 20
195.7621261362557
 30
0.0
 10
121.4966338250402
 20
195.6811434213477
 30
0.0
 10
121.4998393665446
 20
195.6127569403852
 30
0.0
 10
121.5098299266048
 20
195.5418539548163
 30
0.0
 10
121.5195884693972
 20
195.4725975953521
 30
0.0
 10
121.535820544374
 20
195.4009402588784
 30
0.0
 10
121.5564962573732
 20
195.3317718945941
 30
0.0
 10
121.5763700683934
 20
195.2652862067522
 30
0.0
 10
121.6003495111867
 20
195.2011001669128
 30
0.0
 10
121.628537889541
 20
195.1388384429783
 30
0.0
 10
121.6556313520958
 20
195.0789951393013
 30
0.0
 10
121.6866131267403
 20
195.0209295631967
 30
0.0
 10
121.7208874195756
 20
194.9654898425611
 30
0.0
 10
121.7537508556549
 20
194.9123322260317
 30
0.0
 10
121.7896413244623
 20
194.861588734492
 30
0.0
 10
121.8279326277004
 20
194.813711615006
 30
0.0
 10
121.8644496766335
 20
194.7680529153223
 30
0.0
 10
121.9031502258982
 20
194.7250011110785
 30
0.0
 10
121.9431356326267
 20
194.6850206561813
 30
0.0
 10
121.9810838742431
 20
194.6470771141116
 30
0.0
 10
122.0201893872847
 20
194.6118999371337
 30
0.0
 10
122.0593430218333
 20
194.5797908219886
 30
0.0
 10
122.0969271006139
 20
194.5489688682389
 30
0.0
 10
122.134555520128
 20
194.5209739272039
 30
0.0
 10
122.1711597132516
 20
194.4958091967663
 30
0.0
 10
122.2079610088775
 20
194.4705089618712
 30
0.0
 10
122.2437270181171
 20
194.4480694992905
 30
0.0
 10
122.2778697306081
 20
194.428047735432
 30
0.0
 10
122.3142427307188
 20
194.4067180997379
 30
0.0
 10
122.3487734317939
 20
194.3881323394487
 30
0.0
 10
122.3816680522205
 20
194.3714401723211
 30
0.0
 10
122.4196708727956
 20
194.3521558813297
 30
0.0
 10
122.4554900253625
 20
194.3353989589071
 30
0.0
 10
122.4901221621809
 20
194.3200496238086
 30
0.0
 10
122.5344510999166
 20
194.3004025623687
 30
0.0
 10
122.5768352483697
 20
194.2830616714624
 30
0.0
 10
122.6191592735286
 20
194.2666338329436
 30
0.0
 10
122.6828259937841
 20
194.2419219442363
 30
0.0
 10
122.7463566655275
 20
194.2192761335844
 30
0.0
 10
122.8130331545219
 20
194.1968479068756
 30
0.0
 10
122.8843416958631
 20
194.1728615789272
 30
0.0
 10
122.959248319972
 20
194.1491241163686
 30
0.0
 10
123.0388744640747
 20
194.124941683665
 30
0.0
 10
123.1122404389248
 20
194.1026604622202
 30
0.0
 10
123.1896130124625
 20
194.0800014869357
 30
0.0
 10
123.2714266591137
 20
194.0566984137018
 30
0.0
 10
123.3576416205912
 20
194.0321417090026
 30
0.0
 10
123.448788339396
 20
194.0068697414152
 30
0.0
 10
123.5446404815422
 20
193.9808585662032
 30
0.0
 10
123.6368989813031
 20
193.9558225894545
 30
0.0
 10
123.7335166914794
 20
193.9301017940738
 30
0.0
 10
123.834182672617
 20
193.9037208892103
 30
0.0
 10
123.9328548067373
 20
193.87786249938
 30
0.0
 10
124.0354164352941
 20
193.8513698901053
 30
0.0
 10
124.1414946657653
 20
193.8242956930282
 30
0.0
 10
124.2458162670706
 20
193.7976698379344
 30
0.0
 10
124.3535389665223
 20
193.7704814974516
 30
0.0
 10
124.4642123767791
 20
193.7428138479759
 30
0.0
 10
124.5728478610502
 20
193.71565566705
 30
0.0
 10
124.6843263886051
 20
193.6880356664804
 30
0.0
 10
124.7983067192816
 20
193.6599926069731
 30
0.0
 10
124.9098485185649
 20
193.6325495095871
 30
0.0
 10
125.0237862173462
 20
193.6047012617368
 30
0.0
 10
125.1389103263138
 20
193.5767118878828
 30
0.0
 10
125.254926259823
 20
193.5485056905438
 30
0.0
 10
125.3721470560906
 20
193.5201561722285
 30
0.0
 10
125.4922585095987
 20
193.4912518851845
 30
0.0
 10
125.6132009636811
 20
193.4621476215485
 30
0.0
 10
125.737074211851
 20
193.4324808862064
 30
0.0
 10
125.8546437098168
 20
193.4045680256702
 30
0.0
 10
125.9247143416454
 20
193.387932148102
 30
0.0
 10
125.9925458309649
 20
193.3719192608977
 30
0.0
 10
126.0724449472248
 20
193.3530670859673
 30
0.0
  0
LINE
  5
5F
330
4E
100
AcDbEntity
  8
MEGA_002077
  6
CONTINUOUS
 62
     7
 48
25.4
100
AcDbLine
 10
161.4907809973
 20
195.7635739038
 30
0.0
 11
161.4907809973
 21
201.6053210038
 31
0.0
  0
LINE
  5
60
330
4E
100
AcDbEntity
  8
MEGA_002077
  6
CONTINUOUS
 62
     7
 48
25.4
100
AcDbLine
 10
121.4907809973
 20
201.6043326115
 30
0.0
 11
121.4907809973
 21
195.7625855115
 31
0.0
  0
ARC
  5
61
330
4E
100
AcDbEntity
  8
MEGA_002077
  6
CONTINUOUS
 62
     7
 48
25.4
100
AcDbCircle
 10
-151.3933598108
 20
-1098.3433811259
 30
0.0
 40
1338.3519615309
100
AcDbArc
 50
76.6850142265
 51
76.9167607168
  0
LINE
  5
62
330
4E
100
AcDbEntity
  8
MEGA_002077
  6
CONTINUOUS
 62
     7
 48
25.4
100
AcDbLine
 10
131.4163307062
 20
205.2709016231
 30
0.0
 11
126.1468822395
 21
204.0313710065
 31
0.0
  0
SPLINE
  5
63
330
4E
100
AcDbEntity
  8
MEGA_002077
  6
CONTINUOUS
 62
     7
 48
25.4
100
AcDbSpline
210
0.0
220
0.0
230
1.0
 70
     8
 71
     3
 72
    62
 73
    58
 74
     0
 42
0.0000000001
 43
0.0000000001
 40
0.0
 40
0.0
 40
0.0
 40
0.0
 40
0.0390122748182893
 40
0.0390122748182893
 40
0.0390122748182893
 40
0.0834787682326491
 40
0.0834787682326491
 40
0.0834787682326491
 40
0.1262031157429592
 40
0.1262031157429592
 40
0.1262031157429592
 40
0.1672580857773927
 40
0.1672580857773927
 40
0.1672580857773927
 40
0.2066225432463994
 40
0.2066225432463994
 40
0.2066225432463994
 40
0.2441632657539308
 40
0.2441632657539308
 40
0.2441632657539308
 40
0.2797297158258669
 40
0.2797297158258669
 40
0.2797297158258669
 40
0.3136206355589353
 40
0.3136206355589353
 40
0.3136206355589353
 40
0.3472144995659943
 40
0.3472144995659943
 40
0.3472144995659943
 40
0.3826045904463723
 40
0.3826045904463723
 40
0.3826045904463723
 40
0.4227706765781323
 40
0.4227706765781323
 40
0.4227706765781323
 40
0.4731117490810404
 40
0.4731117490810404
 40
0.4731117490810404
 40
0.5456432360476113
 40
0.5456432360476113
 40
0.5456432360476113
 40
0.632102360905561
 40
0.632102360905561
 40
0.632102360905561
 40
0.7140364225883524
 40
0.7140364225883524
 40
0.7140364225883524
 40
0.7885762979896175
 40
0.7885762979896175
 40
0.7885762979896175
 40
0.8666908819143872
 40
0.8666908819143872
 40
0.8666908819143872
 40
0.9442864470005878
 40
0.9442864470005878
 40
0.9442864470005878
 40
1.0
 40
1.0
 40
1.0
 40
1.0
 10
161.4883411316478
 20
201.6057205430524
 30
0.0
 10
161.4870460540177
 20
201.6754646831684
 30
0.0
 10
161.4854124748681
 20
201.734481089366
 30
0.0
 10
161.4783385850125
 20
201.795601309437
 30
0.0
 10
161.4702757104905
 20
201.8652666103181
 30
0.0
 10
161.4551449925521
 20
201.9376651056505
 30
0.0
 10
161.4356238281274
 20
202.007611352176
 30
0.0
 10
161.4168674804003
 20
202.0748171854706
 30
0.0
 10
161.3940579721855
 20
202.1397591583579
 30
0.0
 10
161.3668989231161
 20
202.2028774310861
 30
0.0
 10
161.3408010653212
 20
202.2635294701806
 30
0.0
 10
161.3106869272202
 20
202.3224975404888
 30
0.0
 10
161.2771623184555
 20
202.3789111943812
 30
0.0
 10
161.2450181460258
 20
202.4330019141518
 30
0.0
 10
161.2097385849617
 20
202.4847442518404
 30
0.0
 10
161.1718931780338
 20
202.5336867927302
 30
0.0
 10
161.1358011292413
 20
202.5803618510059
 30
0.0
 10
161.0973754758239
 20
202.6244905292161
 30
0.0
 10
161.0574613160282
 20
202.665595230325
 30
0.0
 10
161.0196462481042
 20
202.7045382288094
 30
0.0
 10
160.9804951185673
 20
202.7407669495573
 30
0.0
 10
160.9410848854627
 20
202.7739389819351
 30
0.0
 10
160.9035312627618
 20
202.8055482846466
 30
0.0
 10
160.8657423741183
 20
202.8343821154593
 30
0.0
 10
160.8288337425439
 20
202.860355083328
 30
0.0
 10
160.7922486171014
 20
202.8861003967426
 30
0.0
 10
160.7565283853542
 20
202.9090347786579
 30
0.0
 10
160.7223886778536
 20
202.9294991187914
 30
0.0
 10
160.6864235578299
 20
202.9510576646312
 30
0.0
 10
160.6522124984281
 20
202.969874966208
 30
0.0
 10
160.6197043050752
 20
202.986725407931
 30
0.0
 10
160.5828090368881
 20
203.0058498655621
 30
0.0
 10
160.5481072612394
 20
203.0224407754625
 30
0.0
 10
160.5147419339279
 20
203.0375627547917
 30
0.0
 10
160.4729244076755
 20
203.0565154766303
 30
0.0
 10
160.4332061986625
 20
203.073160775738
 30
0.0
 10
160.3939238934206
 20
203.0888031269738
 30
0.0
 10
160.3373258936362
 20
203.1113406482934
 30
0.0
 10
160.2816327902523
 20
203.1317961414703
 30
0.0
 10
160.2239958904655
 20
203.151866922293
 30
0.0
 10
160.1552914405294
 20
203.1757917336782
 30
0.0
 10
160.083825018523
 20
203.1991699009931
 30
0.0
 10
160.0076127927977
 20
203.2229384874264
 30
0.0
 10
159.9353893321297
 20
203.2454630830679
 30
0.0
 10
159.8589038358836
 20
203.2683383000731
 30
0.0
 10
159.7777622744862
 20
203.2918695942228
 30
0.0
 10
159.7039433797285
 20
203.3132772932666
 30
0.0
 10
159.6262708781268
 20
203.3352279966051
 30
0.0
 10
159.5447003633443
 20
203.3578169112629
 30
0.0
 10
159.4592179716921
 20
203.3814891224158
 30
0.0
 10
159.369454727915
 20
203.405862226089
 30
0.0
 10
159.2745488410997
 20
203.431225958705
 30
0.0
 10
159.1802735400301
 20
203.4564211663878
 30
0.0
 10
159.0809237076936
 20
203.4825938826215
 30
0.0
 10
158.9822055324488
 20
203.508144539356
 30
0.0
 10
158.9113259624322
 20
203.5264898902348
 30
0.0
 10
158.8407720260729
 20
203.5445145552345
 30
0.0
 10
158.7572170940967
 20
203.5658286960999
 30
0.0
  0
SPLINE
  5
64
330
4E
100
AcDbEntity
  8
MEGA_002077
  6
CONTINUOUS
 62
     7
 48
25.4
100
AcDbSpline
210
0.0
220
0.0
230
1.0
 70
     8
 71
     3
 72
    62
 73
    58
 74
     0
 42
0.0000000001
 43
0.0000000001
 40
0.0
 40
0.0
 40
0.0
 40
0.0
 40
0.0061893312489126
 40
0.0061893312489126
 40
0.0061893312489126
 40
0.0807857620945132
 40
0.0807857620945132
 40
0.0807857620945132
 40
0.1559747174195877
 40
0.1559747174195877
 40
0.1559747174195877
 40
0.2316948635271146
 40
0.2316948635271146
 40
0.2316948635271146
 40
0.3082638374174567
 40
0.3082638374174567
 40
0.3082638374174567
 40
0.3872489033911769
 40
0.3872489033911769
 40
0.3872489033911769
 40
0.469114902621252
 40
0.469114902621252
 40
0.469114902621252
 40
0.5653992892043566
 40
0.5653992892043566
 40
0.5653992892043566
 40
0.6174783952735361
 40
0.6174783952735361
 40
0.6174783952735361
 40
0.654799573905773
 40
0.654799573905773
 40
0.654799573905773
 40
0.6904028030912187
 40
0.6904028030912187
 40
0.6904028030912187
 40
0.7258153580499516
 40
0.7258153580499516
 40
0.7258153580499516
 40
0.7628107238495281
 40
0.7628107238495281
 40
0.7628107238495281
 40
0.8023778086874771
 40
0.8023778086874771
 40
0.8023778086874771
 40
0.8438740549519129
 40
0.8438740549519129
 40
0.8438740549519129
 40
0.886588763064443
 40
0.886588763064443
 40
0.886588763064443
 40
0.9300794125117421
 40
0.9300794125117421
 40
0.9300794125117421
 40
0.9740432099706607
 40
0.9740432099706607
 40
0.9740432099706607
 40
1.0
 40
1.0
 40
1.0
 40
1.0
 10
124.3882232986271
 20
203.6060968983716
 30
0.0
 10
124.3780708767571
 20
203.6035692655355
 30
0.0
 10
124.3693349700993
 20
203.6013939779458
 30
0.0
 10
124.3605864654147
 20
203.5992112357586
 30
0.0
 10
124.2551457968734
 20
203.5729039062466
 30
0.0
 10
124.1478751279868
 20
203.5455137153955
 30
0.0
 10
124.0453500867399
 20
203.519106896102
 30
0.0
 10
123.9420106821783
 20
203.4924903256626
 30
0.0
 10
123.8434925943498
 20
203.4668728107972
 30
0.0
 10
123.7485867246251
 20
203.4417865868944
 30
0.0
 10
123.6530103691492
 20
203.4165231352213
 30
0.0
 10
123.5610974508634
 20
203.3917985078982
 30
0.0
 10
123.4735675358516
 20
203.3677809646465
 30
0.0
 10
123.3850564047762
 20
203.3434941831664
 30
0.0
 10
123.3010270952732
 20
203.3199304275312
 30
0.0
 10
123.2214633113475
 20
203.296956543232
 30
0.0
 10
123.1393889357461
 20
203.2732577305817
 30
0.0
 10
123.0620663464054
 20
203.2501866027272
 30
0.0
 10
122.9890839122467
 20
203.2274993001592
 30
0.0
 10
122.9134394872533
 20
203.2039844917372
 30
0.0
 10
122.8424576006596
 20
203.1808820188336
 30
0.0
 10
122.7745057525972
 20
203.1574845271281
 30
0.0
 10
122.6945861025666
 20
203.1299662270081
 30
0.0
 10
122.6188577911931
 20
203.1020398384442
 30
0.0
 10
122.5392950486418
 20
203.0687487466756
 30
0.0
 10
122.4962604855571
 20
203.0507419819145
 30
0.0
 10
122.45210412036
 20
203.0311657182867
 30
0.0
 10
122.4044494200766
 20
203.007804403333
 30
0.0
 10
122.3702988803269
 20
202.9910631058284
 30
0.0
 10
122.3343517667643
 20
202.9723779910722
 30
0.0
 10
122.2961692515026
 20
202.9506728361344
 30
0.0
 10
122.2597443342957
 20
202.9299668018109
 30
0.0
 10
122.2212850765419
 20
202.9065123620453
 30
0.0
 10
122.1814469721191
 20
202.8796704252163
 30
0.0
 10
122.1418222219322
 20
202.8529722412341
 30
0.0
 10
122.1008333544432
 20
202.8229227467258
 30
0.0
 10
122.059900019788
 20
202.7895304806974
 30
0.0
 10
122.0171371157635
 20
202.7546457033058
 30
0.0
 10
121.9744348197407
 20
202.7161126571735
 30
0.0
 10
121.9332247931128
 20
202.6743504799757
 30
0.0
 10
121.889150066873
 20
202.6296852206251
 30
0.0
 10
121.8467822901962
 20
202.5813262824524
 30
0.0
 10
121.8072619037004
 20
202.5299088944916
 30
0.0
 10
121.7658146326363
 20
202.4759845631482
 30
0.0
 10
121.727499179454
 20
202.4186962714314
 30
0.0
 10
121.6930232809815
 20
202.3586428719875
 30
0.0
 10
121.6575350604136
 20
202.2968261136217
 30
0.0
 10
121.6261151880967
 20
202.2320794787376
 30
0.0
 10
121.5995823403825
 20
202.1655213594027
 30
0.0
 10
121.5725675056859
 20
202.0977541671691
 30
0.0
 10
121.5506188604313
 20
202.0281090790487
 30
0.0
 10
121.5329943277276
 20
201.9559977729081
 30
0.0
 10
121.5151780523685
 20
201.883101945921
 30
0.0
 10
121.5017804880319
 20
201.8076859475409
 30
0.0
 10
121.4971206959734
 20
201.735891160027
 30
0.0
 10
121.4943694949618
 20
201.6935025964267
 30
0.0
 10
121.4946641704717
 20
201.652376340976
 30
0.0
 10
121.4953346071666
 20
201.6039982679868
 30
0.0
  0
ARC
  5
65
330
4E
100
AcDbEntity
  8
MEGA_002077
  6
HIDDEN2
 62
     7
 48
25.4
100
AcDbCircle
 10
141.6222495865
 20
198.9380918903
 30
0.0
 40
8.713892203200004
100
AcDbArc
 50
61.9199461297
 51
63.374051485
  0
LINE
  5
66
330
4E
100
AcDbEntity
  8
MEGA_002077
  6
CONTINUOUS
 62
     7
 48
25.4
100
AcDbLine
 10
145.5275023088
 20
206.7278876839
 30
0.0
 11
141.4930623708
 21
207.6834129323
 31
0.0
  0
ARC
  5
67
330
4E
100
AcDbEntity
  8
MEGA_002077
  6
CONTINUOUS
 62
     7
 48
25.4
100
AcDbCircle
 10
141.4907809973
 20
198.6839532576
 30
0.0
 40
9.000000000000002
100
AcDbArc
 50
63.3509374762
 51
116.6490625238
  0
LINE
  5
68
330
4E
100
AcDbEntity
  8
MEGA_002077
  6
CONTINUOUS
 62
     7
 48
25.4
100
AcDbLine
 10
151.5654861948
 20
205.2718906236
 30
0.0
 11
151.3152219268
 21
205.3311211115
 31
0.0
  0
LINE
  5
69
330
4E
100
AcDbEntity
  8
MEGA_002077
  6
CONTINUOUS
 62
     7
 48
25.4
100
AcDbLine
 10
131.7904655179
 20
205.3606252364
 30
0.0
 11
131.4160772624
 21
205.2718267179
 31
0.0
  0
LINE
  5
6A
330
4E
100
AcDbEntity
  8
MEGA_002077
  6
CONTINUOUS
 62
     7
 48
25.4
100
AcDbLine
 10
141.4884996238
 20
207.6834129323
 30
0.0
 11
137.4540596858
 21
206.7278876839
 31
0.0
  0
ARC
  5
6B
330
4E
100
AcDbEntity
  8
MEGA_002077
  6
CONTINUOUS
 62
     7
 48
25.4
100
AcDbCircle
 10
141.4907809973
 20
198.6839532576
 30
0.0
 40
9.000000000000002
100
AcDbArc
 50
244.343339235
 51
295.656660765
  0
LINE
  5
6C
330
4E
100
AcDbEntity
  8
MEGA_002077
  6
CONTINUOUS
 62
     7
 48
25.4
100
AcDbLine
 10
141.4885008448
 20
189.6844932938
 30
0.0
 11
137.2902181376
 21
190.6788234086
 31
0.0
  0
ARC
  5
6D
330
4E
100
AcDbEntity
  8
MEGA_002077
  6
HIDDEN2
 62
     7
 48
25.4
100
AcDbCircle
 10
141.4907809973
 20
198.6839532577
 30
0.0
 40
9.000000000000002
100
AcDbArc
 50
116.6490625238
 51
118.0569398616
  0
LINE
  5
6E
330
4E
100
AcDbEntity
  8
MEGA_002077
  6
CONTINUOUS
 62
     7
 48
25.4
100
AcDbLine
 10
141.4930623708
 20
189.6844935829
 30
0.0
 11
145.691343857
 21
190.6788234086
 31
0.0
  0
LINE
  5
6F
330
4E
100
AcDbEntity
  8
MEGA_002077
  6
CONTINUOUS
 62
     7
 48
25.4
100
AcDbLine
 10
141.4930623708
 20
189.6844935829
 30
0.0
 11
141.4885008448
 21
189.6844932938
 31
0.0
  0
LINE
  5
70
330
4E
100
AcDbEntity
  8
MEGA_002077
  6
CONTINUOUS
 62
     7
 48
25.4
100
AcDbLine
 10
141.4930623708
 20
207.6834129323
 30
0.0
 11
141.4884996238
 21
207.6834129323
 31
0.0
  0
SPLINE
  5
71
330
4E
100
AcDbEntity
  8
MEGA_002077
  6
CONTINUOUS
 62
     7
 48
25.4
100
AcDbSpline
210
0.0
220
0.0
230
1.0
 70
     8
 71
     3
 72
     8
 73
     4
 74
     0
 42
0.0000000001
 43
0.0000000001
 40
0.0
 40
0.0
 40
0.0
 40
0.0
 40
1.0
 40
1.0
 40
1.0
 40
1.0
 10
156.8347649318909
 20
193.3361800225713
 30
0.0
 10
157.4353499666362
 20
193.4776857883659
 30
0.0
 10
158.0238486634125
 20
193.6190977758897
 30
0.0
 10
158.5405399448127
 20
193.7487760619358
 30
0.0
  0
SPLINE
  5
72
330
4E
100
AcDbEntity
  8
MEGA_002077
  6
CONTINUOUS
 62
     7
 48
25.4
100
AcDbSpline
210
0.0
220
0.0
230
1.0
 70
     8
 71
     3
 72
     8
 73
     4
 74
     0
 42
0.0000000001
 43
0.0000000001
 40
0.0
 40
0.0
 40
0.0
 40
0.0
 40
1.0
 40
1.0
 40
1.0
 40
1.0
 10
126.1467970627319
 20
204.0317264927028
 30
0.0
 10
125.5462120279866
 20
203.8902207269081
 30
0.0
 10
124.9577133312104
 20
203.7488087393844
 30
0.0
 10
124.4410220498102
 20
203.6191304533383
 30
0.0
  0
SPLINE
  5
73
330
4E
100
AcDbEntity
  8
MEGA_002077
  6
CONTINUOUS
 62
     7
 48
25.4
100
AcDbSpline
210
0.0
220
0.0
230
1.0
 70
     8
 71
     3
 72
     8
 73
     4
 74
     0
 42
0.0000000001
 43
0.0000000001
 40
0.0
 40
0.0
 40
0.0
 40
0.0
 40
1.0
 40
1.0
 40
1.0
 40
1.0
 10
158.7342606864974
 20
203.5701804251976
 30
0.0
 10
158.1737623424061
 20
203.7127190025879
 30
0.0
 10
157.512122016651
 20
203.8721322180368
 30
0.0
 10
156.8347649318909
 20
204.0317264927028
 30
0.0
  0
ARC
  5
74
330
4E
100
AcDbEntity
  8
MEGA_002077
  6
HIDDEN2
 62
     7
 48
25.4
100
AcDbCircle
 10
141.4907809973
 20
198.6839532576
 30
0.0
 40
9.000000000000002
100
AcDbArc
 50
58.9891222097
 51
61.9430601384
  0
ARC
  5
75
330
4E
100
AcDbEntity
  8
MEGA_002077
  6
HIDDEN2
 62
     7
 48
25.4
100
AcDbCircle
 10
141.6004923417
 20
198.9018753015
 30
0.0
 40
9.243939618100001
100
AcDbArc
 50
242.2394889424
 51
244.3152055035
  0
ARC
  5
76
330
4E
100
AcDbEntity
  8
MEGA_002077
  6
CONTINUOUS
 62
     7
 48
25.4
100
AcDbCircle
 10
136.9445185618
 20
189.2192029774
 30
0.0
 40
1.5
100
AcDbArc
 50
64.343339235
 51
76.6754687381
  0
ARC
  5
77
330
4E
100
AcDbEntity
  8
MEGA_002077
  6
CONTINUOUS
 62
     7
 48
25.4
100
AcDbCircle
 10
146.0370434328
 20
189.2192029774
 30
0.0
 40
1.5
100
AcDbArc
 50
103.3245312619
 51
115.6566607651
  0
LINE
  5
78
330
4E
100
AcDbEntity
  8
MEGA_002077
  6
CONTINUOUS
 62
     7
 48
25.4
100
AcDbLine
 10
137.4540596858
 20
206.7278876839
 30
0.0
 11
135.9062496299
 21
206.3613010917
 31
0.0
  0
LINE
  5
79
330
4E
100
AcDbEntity
  8
MEGA_002077
  6
CONTINUOUS
 62
     7
 48
25.4
100
AcDbLine
 10
145.691343857
 20
190.6788234086
 30
0.0
 11
147.0794100826
 21
191.0075759357
 31
0.0
  0
LINE
  5
7A
330
4E
100
AcDbEntity
  8
MEGA_002077
  6
CONTINUOUS
 62
     7
 48
25.4
100
AcDbLine
 10
147.0939594467
 20
206.3568846775
 30
0.0
 11
145.5275023088
 21
206.7278876839
 31
0.0
  0
ARC
  5
7C
330
4E
100
AcDbEntity
  8
STANDARD
  6
CONTINUOUS
 62
     7
 48
25.4
100
AcDbCircle
 10
141.490780997
 20
198.6839505154
 30
0.0
 40
26.0000027296
100
AcDbArc
 50
84.4822662066
 51
95.517733792
  0
ENDBLK
  5
7E
330
4E
100
AcDbEntity
  8
0
100
AcDbBlockEnd
  0
BLOCK
  5
B8
330
7F
100
AcDbEntity
  8
0
100
AcDbBlockBegin
  2
SE6
 70
     0
 71
     0
 10
0.0
 20
0.0
 30
0.0
  3
SE6
  1

  0
LINE
  5
81
330
7F
100
AcDbEntity
  8
MEGA_001411
  6
CONTINUOUS
 62
     7
 48
25.4
100
AcDbLine
 10
119.7247820063
 20
99.1669259409
 30
0.0
 11
163.2567799883
 21
99.1669259409
 31
0.0
  0
LINE
  5
82
330
7F
100
AcDbEntity
  8
MEGA_001411
  6
CONTINUOUS
 62
     7
 48
25.4
100
AcDbLine
 10
167.4907809973
 20
105.6669259409
 30
0.0
 11
143.9907809973
 21
105.6669259409
 31
0.0
  0
LINE
  5
83
330
7F
100
AcDbEntity
  8
MEGA_001411
  6
CONTINUOUS
 62
     7
 48
25.4
100
AcDbLine
 10
138.9907809973
 20
105.6669259409
 30
0.0
 11
115.4907809973
 21
105.6669259409
 31
0.0
  0
LINE
  5
84
330
7F
100
AcDbEntity
  8
MEGA_001411
  6
CONTINUOUS
 62
     7
 48
25.4
100
AcDbLine
 10
115.4907809973
 20
105.6669259409
 30
0.0
 11
115.7400032139
 21
102.8183029699
 31
0.0
  0
ARC
  5
85
330
7F
100
AcDbEntity
  8
MEGA_001411
  6
CONTINUOUS
 62
     7
 48
25.4
100
AcDbCircle
 10
119.7247820063
 20
103.1669259409
 30
0.0
 40
4.0
100
AcDbArc
 50
185.0
 51
270.0
  0
LINE
  5
86
330
7F
100
AcDbEntity
  8
MEGA_001411
  6
CONTINUOUS
 62
     7
 48
25.4
100
AcDbLine
 10
167.2415587807
 20
102.8183029699
 30
0.0
 11
167.4907809973
 21
105.6669259409
 31
0.0
  0
ARC
  5
87
330
7F
100
AcDbEntity
  8
MEGA_001411
  6
CONTINUOUS
 62
     7
 48
25.4
100
AcDbCircle
 10
163.2567799883
 20
103.1669259409
 30
0.0
 40
4.0
100
AcDbArc
 50
270.0
 51
355.0
  0
LINE
  5
89
330
7F
100
AcDbEntity
  8
MEGA_001422
  6
CONTINUOUS
 62
     7
 48
25.4
100
AcDbLine
 10
152.4739299712
 20
106.1494761926
 30
0.0
 11
152.3498792021
 21
109.7018254376
 31
0.0
  0
LINE
  5
8A
330
7F
100
AcDbEntity
  8
MEGA_001422
  6
CONTINUOUS
 62
     7
 48
25.4
100
AcDbLine
 10
163.3333327624
 20
110.6669259409
 30
0.0
 11
157.6482292322
 21
110.6669259409
 31
0.0
  0
LINE
  5
8B
330
7F
100
AcDbEntity
  8
MEGA_001422
  6
CONTINUOUS
 62
     7
 48
25.4
100
AcDbLine
 10
125.3333327624
 20
110.6669259409
 30
0.0
 11
119.6482292322
 21
110.6669259409
 31
0.0
  0
LINE
  5
8C
330
7F
100
AcDbEntity
  8
MEGA_001422
  6
CONTINUOUS
 62
     7
 48
25.4
100
AcDbLine
 10
130.6316827926
 20
109.7018254376
 30
0.0
 11
130.5076320234
 21
106.1494761926
 31
0.0
  0
LINE
  5
8D
330
7F
100
AcDbEntity
  8
MEGA_001422
  6
CONTINUOUS
 62
     7
 48
25.4
100
AcDbLine
 10
163.9739299712
 20
106.1494761926
 30
0.0
 11
163.833028176
 21
110.1843756893
 31
0.0
  0
LINE
  5
8E
330
7F
100
AcDbEntity
  8
MEGA_001422
  6
CONTINUOUS
 62
     7
 48
25.4
100
AcDbLine
 10
157.1485338187
 20
110.1843756893
 30
0.0
 11
157.0076320234
 21
106.1494761926
 31
0.0
  0
LINE
  5
8F
330
7F
100
AcDbEntity
  8
MEGA_001422
  6
CONTINUOUS
 62
     7
 48
25.4
100
AcDbLine
 10
125.9739299712
 20
106.1494761926
 30
0.0
 11
125.833028176
 21
110.1843756893
 31
0.0
  0
LINE
  5
90
330
7F
100
AcDbEntity
  8
MEGA_001422
  6
CONTINUOUS
 62
     7
 48
25.4
100
AcDbLine
 10
119.1485338187
 20
110.1843756893
 30
0.0
 11
119.0076320234
 21
106.1494761926
 31
0.0
  0
LINE
  5
91
330
7F
100
AcDbEntity
  8
MEGA_001422
  6
CONTINUOUS
 62
     7
 48
25.4
100
AcDbLine
 10
131.6310736196
 20
110.6669259409
 30
0.0
 11
151.350488375
 21
110.6669259409
 31
0.0
  0
LINE
  5
92
330
7F
100
AcDbEntity
  8
MEGA_001422
  6
CONTINUOUS
 62
     7
 48
25.4
100
AcDbLine
 10
131.0952493557
 20
98.6669259409
 30
0.0
 11
151.8863126389
 21
98.6669259409
 31
0.0
  0
LINE
  5
93
330
7F
100
AcDbEntity
  8
MEGA_001422
  6
CONTINUOUS
 62
     7
 48
25.4
100
AcDbLine
 10
130.5955539422
 20
99.1666213544
 30
0.0
 11
152.3860080524
 21
99.1666213544
 31
0.0
  0
LINE
  5
94
330
7F
100
AcDbEntity
  8
MEGA_001422
  6
CONTINUOUS
 62
     7
 48
25.4
100
AcDbLine
 10
143.9907809973
 20
105.6669259409
 30
0.0
 11
143.7407809973
 21
105.6669259409
 31
0.0
  0
LINE
  5
95
330
7F
100
AcDbEntity
  8
MEGA_001422
  6
CONTINUOUS
 62
     7
 48
25.4
100
AcDbLine
 10
139.2407809973
 20
105.6669259409
 30
0.0
 11
138.9907809973
 21
105.6669259409
 31
0.0
  0
LINE
  5
96
330
7F
100
AcDbEntity
  8
MEGA_001422
  6
CONTINUOUS
 62
     7
 48
25.4
100
AcDbLine
 10
139.2407809973
 20
105.6669259409
 30
0.0
 11
143.7407809973
 21
105.6669259409
 31
0.0
  0
ARC
  5
97
330
7F
100
AcDbEntity
  8
MEGA_001422
  6
CONTINUOUS
 62
     7
 48
25.4
100
AcDbCircle
 10
126.4736253847
 20
106.1669259409
 30
0.0
 40
0.5
100
AcDbArc
 50
182.0
 51
270.0
  0
ARC
  5
98
330
7F
100
AcDbEntity
  8
MEGA_001422
  6
CONTINUOUS
 62
     7
 48
25.4
100
AcDbCircle
 10
119.6482292322
 20
110.1669259409
 30
0.0
 40
0.5
100
AcDbArc
 50
90.0
 51
178.0
  0
ARC
  5
99
330
7F
100
AcDbEntity
  8
MEGA_001422
  6
CONTINUOUS
 62
     7
 48
25.4
100
AcDbCircle
 10
157.6482292322
 20
110.1669259409
 30
0.0
 40
0.5
100
AcDbArc
 50
90.0
 51
178.0
  0
ARC
  5
9A
330
7F
100
AcDbEntity
  8
MEGA_001422
  6
CONTINUOUS
 62
     7
 48
25.4
100
AcDbCircle
 10
164.4736253847
 20
106.1669259409
 30
0.0
 40
0.5
100
AcDbArc
 50
182.0
 51
270.0
  0
ARC
  5
9B
330
7F
100
AcDbEntity
  8
MEGA_001422
  6
CONTINUOUS
 62
     7
 48
25.4
100
AcDbCircle
 10
152.9736253847
 20
106.1669259409
 30
0.0
 40
0.5
100
AcDbArc
 50
182.0
 51
270.0
  0
ARC
  5
9C
330
7F
100
AcDbEntity
  8
MEGA_001422
  6
CONTINUOUS
 62
     7
 48
25.4
100
AcDbCircle
 10
118.5079366099
 20
106.1669259409
 30
0.0
 40
0.5
100
AcDbArc
 50
270.0
 51
358.0
  0
ARC
  5
9D
330
7F
100
AcDbEntity
  8
MEGA_001422
  6
CONTINUOUS
 62
     7
 48
25.4
100
AcDbCircle
 10
125.3333327624
 20
110.1669259409
 30
0.0
 40
0.5
100
AcDbArc
 50
2.0
 51
90.0
  0
ARC
  5
9E
330
7F
100
AcDbEntity
  8
MEGA_001422
  6
CONTINUOUS
 62
     7
 48
25.4
100
AcDbCircle
 10
163.3333327624
 20
110.1669259409
 30
0.0
 40
0.5
100
AcDbArc
 50
2.0
 51
90.0
  0
ARC
  5
9F
330
7F
100
AcDbEntity
  8
MEGA_001422
  6
CONTINUOUS
 62
     7
 48
25.4
100
AcDbCircle
 10
156.5079366099
 20
106.1669259409
 30
0.0
 40
0.5
100
AcDbArc
 50
270.0
 51
358.0
  0
ARC
  5
A0
330
7F
100
AcDbEntity
  8
MEGA_001422
  6
CONTINUOUS
 62
     7
 48
25.4
100
AcDbCircle
 10
130.0079366099
 20
106.1669259409
 30
0.0
 40
0.5
100
AcDbArc
 50
270.0
 51
358.0
  0
LINE
  5
A1
330
7F
100
AcDbEntity
  8
MEGA_001422
  6
CONTINUOUS
 62
     7
 48
25.4
100
AcDbLine
 10
130.5955433058
 20
99.1669259409
 30
0.0
 11
130.5955539422
 21
99.1666213544
 31
0.0
  0
ARC
  5
A2
330
7F
100
AcDbEntity
  8
MEGA_001422
  6
CONTINUOUS
 62
     7
 48
25.4
100
AcDbCircle
 10
151.350488375
 20
109.6669259409
 30
0.0
 40
1.0
100
AcDbArc
 50
2.0
 51
90.0
  0
LINE
  5
A3
330
7F
100
AcDbEntity
  8
MEGA_001422
  6
CONTINUOUS
 62
     7
 48
25.4
100
AcDbLine
 10
152.3860080524
 20
99.1666213544
 30
0.0
 11
152.3860186888
 21
99.1669259409
 31
0.0
  0
ARC
  5
A4
330
7F
100
AcDbEntity
  8
MEGA_001422
  6
CONTINUOUS
 62
     7
 48
25.4
100
AcDbCircle
 10
131.6310736196
 20
109.6669259409
 30
0.0
 40
1.0
100
AcDbArc
 50
90.0
 51
178.0
  0
LINE
  5
A5
330
7F
100
AcDbEntity
  8
MEGA_001422
  6
CONTINUOUS
 62
     7
 48
25.4
100
AcDbLine
 10
130.5955539422
 20
99.1666213544
 30
0.0
 11
131.0952493557
 21
98.6669259409
 31
0.0
  0
LINE
  5
A6
330
7F
100
AcDbEntity
  8
MEGA_001422
  6
CONTINUOUS
 62
     7
 48
25.4
100
AcDbLine
 10
151.8863126389
 20
98.6669259409
 30
0.0
 11
152.3860080524
 21
99.1666213544
 31
0.0
  0
ARC
  5
A7
330
7F
100
AcDbEntity
  8
MEGA_002077
  6
CONTINUOUS
 62
     7
 48
25.4
100
AcDbCircle
 10
136.3497531992
 20
90.884669746
 30
0.0
 40
0.9306788657000027
100
AcDbArc
 50
12.705802884
 51
57.1952977904
  0
ARC
  5
A8
330
7F
100
AcDbEntity
  8
MEGA_002077
  6
CONTINUOUS
 62
     7
 48
25.4
100
AcDbCircle
 10
130.4907809973
 20
91.6669259409
 30
0.0
 40
2.0
100
AcDbArc
 50
270.0
 51
360.0
  0
ARC
  5
A9
330
7F
100
AcDbEntity
  8
MEGA_002077
  6
CONTINUOUS
 62
     7
 48
25.4
100
AcDbCircle
 10
152.4907809973
 20
91.6669259409
 30
0.0
 40
2.0
100
AcDbArc
 50
180.0
 51
270.0
  0
ARC
  5
AA
330
7F
100
AcDbEntity
  8
MEGA_002077
  6
CONTINUOUS
 62
     7
 48
25.4
100
AcDbCircle
 10
151.4506413917
 20
89.5738117276
 30
0.0
 40
5.923870934799993
100
AcDbArc
 50
165.1767047852
 51
179.09936067
  0
LINE
  5
AB
330
7F
100
AcDbEntity
  8
MEGA_002077
  6
CONTINUOUS
 62
     7
 48
25.4
100
AcDbLine
 10
145.5275023088
 20
89.6669259409
 30
0.0
 11
137.4540596858
 21
89.6669259409
 31
0.0
  0
LINE
  5
AC
330
7F
100
AcDbEntity
  8
MEGA_002077
  6
HIDDEN2
 62
     7
 48
25.4
100
AcDbLine
 10
137.4540596858
 20
89.6669259409
 30
0.0
 11
137.2902181376
 21
89.6669259409
 31
0.0
  0
ARC
  5
AD
330
7F
100
AcDbEntity
  8
MEGA_002077
  6
CONTINUOUS
 62
     7
 48
25.4
100
AcDbCircle
 10
131.536995534
 20
89.5746505841
 30
0.0
 40
5.917783615399998
100
AcDbArc
 50
0.8934430705
 51
14.8304914743
  0
LINE
  5
AE
330
7F
100
AcDbEntity
  8
MEGA_002077
  6
HIDDEN2
 62
     7
 48
25.4
100
AcDbLine
 10
145.5275023088
 20
89.6669259409
 30
0.0
 11
145.691343857
 21
89.6669259409
 31
0.0
  0
ARC
  5
AF
330
7F
100
AcDbEntity
  8
MEGA_002077
  6
CONTINUOUS
 62
     7
 48
25.4
100
AcDbCircle
 10
141.4907809973
 20
89.6669259409
 30
0.0
 40
0.0022815117999926
100
AcDbArc
 50
180.0
 51
360.0
  0
LINE
  5
B0
330
7F
100
AcDbEntity
  8
MEGA_002077
  6
CONTINUOUS
 62
     7
 48
25.4
100
AcDbLine
 10
151.2232985954
 20
89.6669259409
 30
0.0
 11
156.4907809973
 21
89.6669259409
 31
0.0
  0
ARC
  5
B1
330
7F
100
AcDbEntity
  8
MEGA_002077
  6
CONTINUOUS
 62
     7
 48
25.4
100
AcDbCircle
 10
156.4907809973
 20
84.6669259409
 30
0.0
 40
5.0
100
AcDbArc
 50
331.9275130641
 51
90.0
  0
ARC
  5
B2
330
7F
100
AcDbEntity
  8
MEGA_002077
  6
CONTINUOUS
 62
     7
 48
25.4
100
AcDbCircle
 10
141.4907809973
 20
92.6669259409
 30
0.0
 40
22.0
100
AcDbArc
 50
208.0724869359
 51
331.9275130641
  0
ARC
  5
B3
330
7F
100
AcDbEntity
  8
MEGA_002077
  6
CONTINUOUS
 62
     7
 48
25.4
100
AcDbCircle
 10
126.4907809973
 20
84.6669259409
 30
0.0
 40
5.000000000000014
100
AcDbArc
 50
90.0
 51
208.0724869359
  0
LINE
  5
B4
330
7F
100
AcDbEntity
  8
MEGA_002077
  6
CONTINUOUS
 62
     7
 48
25.4
100
AcDbLine
 10
126.4907809973
 20
89.6669259409
 30
0.0
 11
131.7582633992
 21
89.6669259409
 31
0.0
  0
ARC
  5
B5
330
7F
100
AcDbEntity
  8
MEGA_002077
  6
CONTINUOUS
 62
     7
 48
25.4
100
AcDbCircle
 10
146.6318087293
 20
90.8846697923
 30
0.0
 40
0.9306787911000072
100
AcDbArc
 50
122.8047003289
 51
167.2941989967
  0
LINE
  5
B6
330
7F
100
AcDbEntity
  8
MEGA_002077
  6
CONTINUOUS
 62
     7
 48
25.4
100
AcDbLine
 10
132.4907809973
 20
98.6669259409
 30
0.0
 11
132.4907809973
 21
91.6669259409
 31
0.0
  0
LINE
  5
B7
330
7F
100
AcDbEntity
  8
MEGA_002077
  6
CONTINUOUS
 62
     7
 48
25.4
100
AcDbLine
 10
150.4907809973
 20
91.6669259409
 30
0.0
 11
150.4907809973
 21
98.6669259409
 31
0.0
  0
ENDBLK
  5
B9
330
7F
100
AcDbEntity
  8
0
100
AcDbBlockEnd
  0
BLOCK
  5
F0
330
BA
100
AcDbEntity
  8
0
100
AcDbBlockBegin
  2
SE7
 70
     0
 71
     0
 10
0.0
 20
0.0
 30
0.0
  3
SE7
  1

  0
LINE
  5
BC
330
BA
100
AcDbEntity
  8
MEGA_001411
  6
CONTINUOUS
 62
     7
 48
25.4
100
AcDbLine
 10
71.3979327704
 20
172.9331754743
 30
0.0
 11
74.2465557414
 21
172.6839532576
 31
0.0
  0
LINE
  5
BD
330
BA
100
AcDbEntity
  8
MEGA_001411
  6
CONTINUOUS
 62
     7
 48
25.4
100
AcDbLine
 10
67.7465557414
 20
176.9179542666
 30
0.0
 11
67.7465557414
 21
220.4499522486
 31
0.0
  0
LINE
  5
BE
330
BA
100
AcDbEntity
  8
MEGA_001411
  6
CONTINUOUS
 62
     7
 48
25.4
100
AcDbLine
 10
74.2465557414
 20
172.6839532576
 30
0.0
 11
74.2465557414
 21
224.5634818469
 31
0.0
  0
LINE
  5
BF
330
BA
100
AcDbEntity
  8
MEGA_001411
  6
CONTINUOUS
 62
     7
 48
25.4
100
AcDbLine
 10
72.2465557414
 20
224.5089759306
 30
0.0
 11
71.3979327704
 21
224.434731041
 31
0.0
  0
ARC
  5
C0
330
BA
100
AcDbEntity
  8
MEGA_001411
  6
CONTINUOUS
 62
     7
 48
25.4
100
AcDbCircle
 10
71.7465557414
 20
220.4499522486
 30
0.0
 40
4.0
100
AcDbArc
 50
95.0
 51
180.0
  0
ARC
  5
C1
330
BA
100
AcDbEntity
  8
MEGA_001411
  6
CONTINUOUS
 62
     7
 48
25.4
100
AcDbCircle
 10
71.7465557414
 20
176.9179542666
 30
0.0
 40
4.0
100
AcDbArc
 50
180.0
 51
265.0
  0
LINE
  5
C2
330
BA
100
AcDbEntity
  8
MEGA_001422
  6
CONTINUOUS
 62
     7
 48
25.4
100
AcDbLine
 10
74.729105993
 20
187.7008042837
 30
0.0
 11
78.2814552381
 21
187.8248550529
 31
0.0
  0
LINE
  5
C3
330
BA
100
AcDbEntity
  8
MEGA_001422
  6
CONTINUOUS
 62
     7
 48
25.4
100
AcDbLine
 10
78.2814552381
 20
209.5430514624
 30
0.0
 11
74.729105993
 21
209.6671022315
 31
0.0
  0
LINE
  5
C4
330
BA
100
AcDbEntity
  8
MEGA_001422
  6
CONTINUOUS
 62
     7
 48
25.4
100
AcDbLine
 10
74.729105993
 20
195.2008042837
 30
0.0
 11
78.7640054897
 21
195.341706079
 31
0.0
  0
LINE
  5
C5
330
BA
100
AcDbEntity
  8
MEGA_001422
  6
CONTINUOUS
 62
     7
 48
25.4
100
AcDbLine
 10
78.7640054897
 20
202.0262004363
 30
0.0
 11
74.729105993
 21
202.1671022315
 31
0.0
  0
LINE
  5
C6
330
BA
100
AcDbEntity
  8
MEGA_001422
  6
CONTINUOUS
 62
     7
 48
25.4
100
AcDbLine
 10
74.2465557414
 20
224.5864145307
 30
0.0
 11
74.2465557414
 21
224.5634818469
 31
0.0
  0
LINE
  5
C7
330
BA
100
AcDbEntity
  8
MEGA_001422
  6
CONTINUOUS
 62
     7
 48
25.4
100
AcDbLine
 10
79.2465557414
 20
188.8242458799
 30
0.0
 11
79.2465557414
 21
195.8414014925
 31
0.0
  0
LINE
  5
C8
330
BA
100
AcDbEntity
  8
MEGA_001422
  6
CONTINUOUS
 62
     7
 48
25.4
100
AcDbLine
 10
79.2465557414
 20
201.5265050228
 30
0.0
 11
79.2465557414
 21
208.5436606354
 31
0.0
  0
LINE
  5
C9
330
BA
100
AcDbEntity
  8
MEGA_001422
  6
CONTINUOUS
 62
     7
 48
25.4
100
AcDbLine
 10
67.2465557414
 20
188.288421616
 30
0.0
 11
67.2465557414
 21
209.0794848993
 31
0.0
  0
LINE
  5
CA
330
BA
100
AcDbEntity
  8
MEGA_001422
  6
CONTINUOUS
 62
     7
 48
25.4
100
AcDbLine
 10
67.7462511549
 20
187.7887262025
 30
0.0
 11
67.7462511549
 21
209.5791803128
 31
0.0
  0
LINE
  5
CB
330
BA
100
AcDbEntity
  8
MEGA_001422
  6
CONTINUOUS
 62
     7
 48
25.4
100
AcDbLine
 10
74.2465557414
 20
224.6839532576
 30
0.0
 11
74.2465557414
 21
224.5864145307
 31
0.0
  0
ARC
  5
CC
330
BA
100
AcDbEntity
  8
MEGA_001422
  6
CONTINUOUS
 62
     7
 48
25.4
100
AcDbCircle
 10
78.7465557414
 20
201.5265050228
 30
0.0
 40
0.5
100
AcDbArc
 50
0.0
 51
88.0
  0
ARC
  5
CD
330
BA
100
AcDbEntity
  8
MEGA_001422
  6
CONTINUOUS
 62
     7
 48
25.4
100
AcDbCircle
 10
74.7465557414
 20
194.7011088702
 30
0.0
 40
0.5
100
AcDbArc
 50
92.0
 51
180.0
  0
ARC
  5
CE
330
BA
100
AcDbEntity
  8
MEGA_001422
  6
CONTINUOUS
 62
     7
 48
25.4
100
AcDbCircle
 10
74.7465557414
 20
187.2011088702
 30
0.0
 40
0.5
100
AcDbArc
 50
92.0
 51
180.0
  0
ARC
  5
CF
330
BA
100
AcDbEntity
  8
MEGA_001422
  6
CONTINUOUS
 62
     7
 48
25.4
100
AcDbCircle
 10
78.7465557414
 20
195.8414014925
 30
0.0
 40
0.5
100
AcDbArc
 50
272.0
 51
360.0
  0
ARC
  5
D0
330
BA
100
AcDbEntity
  8
MEGA_001422
  6
CONTINUOUS
 62
     7
 48
25.4
100
AcDbCircle
 10
74.7465557414
 20
202.666797645
 30
0.0
 40
0.5
100
AcDbArc
 50
180.0
 51
268.0
  0
ARC
  5
D1
330
BA
100
AcDbEntity
  8
MEGA_001422
  6
CONTINUOUS
 62
     7
 48
25.4
100
AcDbCircle
 10
74.7465557414
 20
210.166797645
 30
0.0
 40
0.5
100
AcDbArc
 50
180.0
 51
268.0
  0
LINE
  5
D2
330
BA
100
AcDbEntity
  8
MEGA_001422
  6
CONTINUOUS
 62
     7
 48
25.4
100
AcDbLine
 10
67.7465557414
 20
209.5791909492
 30
0.0
 11
67.7462511549
 21
209.5791803128
 31
0.0
  0
ARC
  5
D3
330
BA
100
AcDbEntity
  8
MEGA_001422
  6
CONTINUOUS
 62
     7
 48
25.4
100
AcDbCircle
 10
78.2465557414
 20
188.8242458799
 30
0.0
 40
1.0
100
AcDbArc
 50
272.0
 51
360.0
  0
LINE
  5
D4
330
BA
100
AcDbEntity
  8
MEGA_001422
  6
CONTINUOUS
 62
     7
 48
25.4
100
AcDbLine
 10
67.7462511549
 20
187.7887262025
 30
0.0
 11
67.7465557414
 21
187.7887155661
 31
0.0
  0
ARC
  5
D5
330
BA
100
AcDbEntity
  8
MEGA_001422
  6
CONTINUOUS
 62
     7
 48
25.4
100
AcDbCircle
 10
78.2465557414
 20
208.5436606354
 30
0.0
 40
1.0
100
AcDbArc
 50
0.0
 51
88.0
  0
LINE
  5
D6
330
BA
100
AcDbEntity
  8
MEGA_001422
  6
CONTINUOUS
 62
     7
 48
25.4
100
AcDbLine
 10
79.2465557414
 20
195.8414014925
 30
0.0
 11
79.2465557414
 21
201.5265050228
 31
0.0
  0
LINE
  5
D7
330
BA
100
AcDbEntity
  8
MEGA_001422
  6
CONTINUOUS
 62
     7
 48
25.4
100
AcDbLine
 10
67.7462511549
 20
209.5791803128
 30
0.0
 11
67.2465557414
 21
209.0794848993
 31
0.0
  0
LINE
  5
D8
330
BA
100
AcDbEntity
  8
MEGA_001422
  6
CONTINUOUS
 62
     7
 48
25.4
100
AcDbLine
 10
67.2465557414
 20
188.288421616
 30
0.0
 11
67.7462511549
 21
187.7887262025
 31
0.0
  0
LINE
  5
D9
330
BA
100
AcDbEntity
  8
MEGA_002077
  6
CONTINUOUS
 62
     7
 48
25.4
100
AcDbLine
 10
58.2441477402
 20
189.6844932938
 30
0.0
 11
58.2465557414
 21
189.6844932938
 31
0.0
  0
LINE
  5
DA
330
BA
100
AcDbEntity
  8
MEGA_002077
  6
CONTINUOUS
 62
     7
 48
25.4
100
AcDbLine
 10
40.4038456279
 20
193.9098582845
 30
0.0
 11
58.2442755888
 21
189.6844932938
 31
0.0
  0
ARC
  5
DB
330
BA
100
AcDbEntity
  8
MEGA_002077
  6
CONTINUOUS
 62
     7
 48
25.4
100
AcDbCircle
 10
40.7455388576
 20
195.3683001996
 30
0.0
 40
1.496293504400001
100
AcDbArc
 50
179.9240949208
 51
256.7913922188
  0
ARC
  5
DC
330
BA
100
AcDbEntity
  8
MEGA_002077
  6
CONTINUOUS
 62
     7
 48
25.4
100
AcDbCircle
 10
40.7444383567
 20
202.0037833671
 30
0.0
 40
1.492793450699999
100
AcDbArc
 50
103.1575907478
 51
180.2335821757
  0
LINE
  5
DD
330
BA
100
AcDbEntity
  8
MEGA_002077
  6
HIDDEN2
 62
     7
 48
25.4
100
AcDbLine
 10
58.2466844614
 20
207.6834132215
 30
0.0
 11
58.2465557414
 21
207.6834132215
 31
0.0
  0
LINE
  5
DE
330
BA
100
AcDbEntity
  8
MEGA_002077
  6
CONTINUOUS
 62
     7
 48
25.4
100
AcDbLine
 10
58.2465557414
 20
207.6834132215
 30
0.0
 11
58.2441477402
 21
207.6834132215
 31
0.0
  0
LINE
  5
DF
330
BA
100
AcDbEntity
  8
MEGA_002077
  6
CONTINUOUS
 62
     7
 48
25.4
100
AcDbLine
 10
39.2465557414
 20
201.9976407372
 30
0.0
 11
39.2465557414
 21
195.3702657781
 31
0.0
  0
LINE
  5
E0
330
BA
100
AcDbEntity
  8
MEGA_002077
  6
CONTINUOUS
 62
     7
 48
25.4
100
AcDbLine
 10
58.2465557414
 20
206.7278876839
 30
0.0
 11
58.2465557414
 21
207.6839532576
 31
0.0
  0
LINE
  5
E1
330
BA
100
AcDbEntity
  8
MEGA_002077
  6
CONTINUOUS
 62
     7
 48
25.4
100
AcDbLine
 10
58.2465557414
 20
190.5713101603
 30
0.0
 11
58.2465557414
 21
189.6839532576
 31
0.0
  0
LINE
  5
E2
330
BA
100
AcDbEntity
  8
MEGA_002077
  6
CONTINUOUS
 62
     7
 48
25.4
100
AcDbLine
 10
58.2442764603
 20
189.684493294
 30
0.0
 11
58.2465557414
 21
189.6844932938
 31
0.0
  0
LINE
  5
E3
330
BA
100
AcDbEntity
  8
MEGA_002077
  6
CONTINUOUS
 62
     7
 48
25.4
100
AcDbLine
 10
58.2465557414
 20
207.6834129323
 30
0.0
 11
58.2442764603
 21
207.6834132213
 31
0.0
  0
LINE
  5
E4
330
BA
100
AcDbEntity
  8
MEGA_002077
  6
CONTINUOUS
 62
     7
 48
25.4
100
AcDbLine
 10
58.2465557414
 20
202.5721060615
 30
0.0
 11
58.2465557414
 21
194.7958004538
 31
0.0
  0
SPLINE
  5
E5
330
BA
100
AcDbEntity
  8
MEGA_002077
  6
CONTINUOUS
 62
     7
 48
25.4
100
AcDbSpline
210
0.0
220
0.0
230
1.0
 70
    24
 71
     3
 72
    11
 73
     7
 74
     0
 42
0.0000000001
 43
0.0000000001
 40
0.0
 40
0.0
 40
0.0
 40
0.0
 40
0.7309959846918606
 40
0.7309959846918606
 40
0.7309959846918606
 40
0.9999999999999999
 40
0.9999999999999999
 40
0.9999999999999999
 40
0.9999999999999999
 10
40.4008660584262
 20
193.9105667083143
 30
0.0
 10
40.40086122349057
 20
193.9105665160055
 30
0.0
 10
40.40085816275306
 20
193.9105663943222
 30
0.0
 10
40.40085687651381
 20
193.91056634328
 30
0.0
 10
40.40085640318217
 20
193.9105663244967
 30
0.0
 10
40.40085616248154
 20
193.9105663149769
 30
0.0
 10
40.40085615441702
 20
193.9105663147206
 30
0.0
  0
LINE
  5
E6
330
BA
100
AcDbEntity
  8
MEGA_002077
  6
CONTINUOUS
 62
     7
 48
25.4
100
AcDbLine
 10
58.2465557414
 20
203.8101703036
 30
0.0
 11
58.2465557414
 21
202.5721060615
 31
0.0
  0
LINE
  5
E7
330
BA
100
AcDbEntity
  8
MEGA_002077
  6
CONTINUOUS
 62
     7
 48
25.4
100
AcDbLine
 10
58.2465557414
 20
194.7958004538
 30
0.0
 11
58.2465557414
 21
193.5577362117
 31
0.0
  0
SPLINE
  5
E8
330
BA
100
AcDbEntity
  8
MEGA_002077
  6
CONTINUOUS
 62
     7
 48
25.4
100
AcDbSpline
210
0.0
220
0.0
230
1.0
 70
    24
 71
     3
 72
     8
 73
     4
 74
     0
 42
0.0000000001
 43
0.0000000001
 40
0.0
 40
0.0
 40
0.0
 40
0.0
 40
1.0
 40
1.0
 40
1.0
 40
1.0
 10
40.40085615441702
 20
203.4573402005535
 30
0.0
 10
40.4008561244114
 20
203.4573402015071
 30
0.0
 10
40.40085931491581
 20
203.4573400742208
 30
0.0
 10
40.40086572619267
 20
203.4573398186938
 30
0.0
  0
SPLINE
  5
E9
330
BA
100
AcDbEntity
  8
MEGA_002077
  6
CONTINUOUS
 62
     7
 48
25.4
100
AcDbSpline
210
0.0
220
0.0
230
1.0
 70
    24
 71
     3
 72
     8
 73
     4
 74
     0
 42
0.0000000001
 43
0.0000000001
 40
0.0
 40
0.0
 40
0.0
 40
0.0
 40
1.0
 40
1.0
 40
1.0
 40
1.0
 10
39.246555730194
 20
195.3701867459666
 30
0.0
 10
39.2465556838135
 20
195.3701867444256
 30
0.0
 10
39.24655848377331
 20
195.3701868509618
 30
0.0
 10
39.24656413032078
 20
195.3701870655768
 30
0.0
  0
SPLINE
  5
EA
330
BA
100
AcDbEntity
  8
MEGA_002077
  6
CONTINUOUS
 62
     7
 48
25.4
100
AcDbSpline
210
0.0
220
0.0
230
1.0
 70
    24
 71
     3
 72
    11
 73
     7
 74
     0
 42
0.0000000001
 43
0.0000000001
 40
0.0
 40
0.0
 40
0.0
 40
0.0
 40
0.7235938257727501
 40
0.7235938257727501
 40
0.7235938257727501
 40
1.0
 40
1.0
 40
1.0
 40
1.0
 10
39.24656432860389
 20
201.9977194435241
 30
0.0
 10
39.24656018661118
 20
201.997719600605
 30
0.0
 10
39.24655754474775
 20
201.9977197007446
 30
0.0
 10
39.24655640323876
 20
201.9977197439316
 30
0.0
 10
39.24655596719286
 20
201.9977197604286
 30
0.0
 10
39.24655574284293
 20
201.9977197688873
 30
0.0
 10
39.246555730194
 20
201.9977197693075
 30
0.0
  0
LINE
  5
EB
330
BA
100
AcDbEntity
  8
MEGA_002077
  6
CONTINUOUS
 62
     7
 48
25.4
100
AcDbLine
 10
58.2465557414
 20
190.6788234086
 30
0.0
 11
58.2465557414
 21
190.5713101603
 31
0.0
  0
LINE
  5
EC
330
BA
100
AcDbEntity
  8
MEGA_002077
  6
CONTINUOUS
 62
     7
 48
25.4
100
AcDbLine
 10
67.2465557414
 20
207.6839532576
 30
0.0
 11
58.2465557414
 21
207.6839532576
 31
0.0
  0
LINE
  5
ED
330
BA
100
AcDbEntity
  8
MEGA_002077
  6
CONTINUOUS
 62
     7
 48
25.4
100
AcDbLine
 10
58.2442755888
 20
207.6834132215
 30
0.0
 11
40.4038456279
 21
203.4580482308
 31
0.0
  0
LINE
  5
EE
330
BA
100
AcDbEntity
  8
MEGA_002077
  6
CONTINUOUS
 62
     7
 48
25.4
100
AcDbLine
 10
58.2465557414
 20
189.6839532576
 30
0.0
 11
67.2465557414
 21
189.6839532576
 31
0.0
  0
LINE
  5
EF
330
BA
100
AcDbEntity
  8
STANDARD
  6
CONTINUOUS
 62
     7
 48
25.4
100
AcDbLine
 10
72.2465557414
 20
224.5089759306
 30
0.0
 11
74.2465557414
 21
224.6839532576
 31
0.0
  0
ENDBLK
  5
F1
330
BA
100
AcDbEntity
  8
0
100
AcDbBlockEnd
  0
BLOCK
  5
FC
330
F2
100
AcDbEntity
  8
0
100
AcDbBlockBegin
  2
SE8
 70
     0
 71
     0
 10
0.0
 20
0.0
 30
0.0
  3
SE8
  1

  0
POLYLINE
  5
F4
330
F2
100
AcDbEntity
  8
DEFAULT
  6
CONTINUOUS
 62
     7
 48
25.4
100
AcDb2dPolyline
 66
     1
 10
0.0
 20
0.0
 30
0.0
 70
     1
  0
VERTEX
  5
13D
330
F4
100
AcDbEntity
  8
DEFAULT
  6
CONTINUOUS
 62
     7
100
AcDbVertex
100
AcDb2dVertex
 10
95.8785387726
 20
175.6839532837
 30
0.0
  0
VERTEX
  5
13E
330
F4
100
AcDbEntity
  8
DEFAULT
  6
CONTINUOUS
 62
     7
100
AcDbVertex
100
AcDb2dVertex
 10
95.3785387683
 20
172.6839532576
 30
0.0
  0
VERTEX
  5
13F
330
F4
100
AcDbEntity
  8
DEFAULT
  6
CONTINUOUS
 62
     7
100
AcDbVertex
100
AcDb2dVertex
 10
94.8785387639
 20
175.6839532837
 30
0.0
  0
VERTEX
  5
140
330
F4
100
AcDbEntity
  8
DEFAULT
  6
CONTINUOUS
 62
     7
100
AcDbVertex
100
AcDb2dVertex
 10
95.8785387726
 20
175.6839532837
 30
0.0
  0
SEQEND
  5
13C
330
F4
100
AcDbEntity
  8
DEFAULT
  6
CONTINUOUS
 62
     7
 48
25.4
  0
LINE
  5
F5
330
F2
100
AcDbEntity
  8
DEFAULT
  6
CONTINUOUS
 62
     7
 48
25.4
100
AcDbLine
 10
74.2465557414
 20
224.6839532576
 30
0.0
 11
96.8785387813
 21
224.6839532576
 31
0.0
  0
LINE
  5
F6
330
F2
100
AcDbEntity
  8
DEFAULT
  6
CONTINUOUS
 62
     7
 48
25.4
100
AcDbLine
 10
74.2465557414
 20
172.6839532576
 30
0.0
 11
96.8785387813
 21
172.6839532576
 31
0.0
  0
LINE
  5
F7
330
F2
100
AcDbEntity
  8
DEFAULT
  6
CONTINUOUS
 62
     7
 48
25.4
100
AcDbLine
 10
95.3785387683
 20
224.6839532576
 30
0.0
 11
95.3785387683
 21
172.6839521848
 31
0.0
  0
TEXT
  5
F9
330
F2
100
AcDbEntity
  8
DEFAULT
  6
CONTINUOUS
 62
     7
 48
25.4
100
AcDbText
 10
94.6285387683
 20
198.7315311253
 30
0.0
 40
3.0
  1
52
 50
90.0
  7
SEACAD_SEISO_TTF
 11
91.6285387683
 21
198.7315311253
 31
0.0
100
AcDbText
 73
     3
  0
TEXT
  5
FB
330
F2
100
AcDbEntity
  8
DEFAULT
  6
CONTINUOUS
 62
     7
 48
25.4
100
AcDbText
 10
94.6285387683
 20
195.0909197716
 30
0.0
 40
3.0
  1
O
 50
90.0
  7
SEACAD_SEMECI1_TTF
 11
91.6285387683
 21
195.0909197716
 31
0.0
100
AcDbText
 73
     3
  0
ENDBLK
  5
FD
330
F2
100
AcDbEntity
  8
0
100
AcDbBlockEnd
  0
BLOCK
  5
106
330
FE
100
AcDbEntity
  8
0
100
AcDbBlockBegin
  2
SE9
 70
     0
 71
     0
 10
0.0
 20
0.0
 30
0.0
  3
SE9
  1

  0
POLYLINE
  5
100
330
FE
100
AcDbEntity
  8
DEFAULT
  6
CONTINUOUS
 62
     7
 48
25.4
100
AcDb2dPolyline
 66
     1
 10
0.0
 20
0.0
 30
0.0
 70
     1
  0
VERTEX
  5
142
330
100
100
AcDbEntity
  8
DEFAULT
  6
CONTINUOUS
 62
     7
100
AcDbVertex
100
AcDb2dVertex
 10
183.9496573099
 20
190.5839551397
 30
0.0
  0
VERTEX
  5
143
330
100
100
AcDbEntity
  8
DEFAULT
  6
CONTINUOUS
 62
     7
100
AcDbVertex
100
AcDb2dVertex
 10
183.4496574367
 20
187.5839550917
 30
0.0
  0
VERTEX
  5
144
330
100
100
AcDbEntity
  8
DEFAULT
  6
CONTINUOUS
 62
     7
100
AcDbVertex
100
AcDb2dVertex
 10
182.9496573012
 20
190.5839550959
 30
0.0
  0
VERTEX
  5
145
330
100
100
AcDbEntity
  8
DEFAULT
  6
CONTINUOUS
 62
     7
100
AcDbVertex
100
AcDb2dVertex
 10
183.9496573099
 20
190.5839551397
 30
0.0
  0
SEQEND
  5
141
330
100
100
AcDbEntity
  8
DEFAULT
  6
CONTINUOUS
 62
     7
 48
25.4
  0
POLYLINE
  5
101
330
FE
100
AcDbEntity
  8
DEFAULT
  6
CONTINUOUS
 62
     7
 48
25.4
100
AcDb2dPolyline
 66
     1
 10
0.0
 20
0.0
 30
0.0
 70
     1
  0
VERTEX
  5
147
330
101
100
AcDbEntity
  8
DEFAULT
  6
CONTINUOUS
 62
     7
100
AcDbVertex
100
AcDb2dVertex
 10
183.9496566017
 20
206.7839550875
 30
0.0
  0
VERTEX
  5
148
330
101
100
AcDbEntity
  8
DEFAULT
  6
CONTINUOUS
 62
     7
100
AcDbVertex
100
AcDb2dVertex
 10
183.4496564663
 20
209.7839550917
 30
0.0
  0
VERTEX
  5
149
330
101
100
AcDbEntity
  8
DEFAULT
  6
CONTINUOUS
 62
     7
100
AcDbVertex
100
AcDb2dVertex
 10
182.9496565931
 20
206.7839550438
 30
0.0
  0
VERTEX
  5
14A
330
101
100
AcDbEntity
  8
DEFAULT
  6
CONTINUOUS
 62
     7
100
AcDbVertex
100
AcDb2dVertex
 10
183.9496566017
 20
206.7839550875
 30
0.0
  0
SEQEND
  5
146
330
101
100
AcDbEntity
  8
DEFAULT
  6
CONTINUOUS
 62
     7
 48
25.4
  0
LINE
  5
102
330
FE
100
AcDbEntity
  8
DEFAULT
  6
CONTINUOUS
 62
     7
 48
25.4
100
AcDbLine
 10
141.4907814825
 20
187.5839532576
 30
0.0
 11
184.9496574497
 21
187.5839551573
 31
0.0
  0
LINE
  5
103
330
FE
100
AcDbEntity
  8
DEFAULT
  6
CONTINUOUS
 62
     7
 48
25.4
100
AcDbLine
 10
141.4907805121
 20
209.7839532576
 30
0.0
 11
184.9496564793
 21
209.7839551573
 31
0.0
  0
LINE
  5
104
330
FE
100
AcDbEntity
  8
DEFAULT
  6
CONTINUOUS
 62
     7
 48
25.4
100
AcDbLine
 10
183.4496574367
 20
187.5839550917
 30
0.0
 11
183.4496564663
 21
209.7839546328
 31
0.0
  0
TEXT
  5
105
330
FE
100
AcDbEntity
  8
DEFAULT
  6
CONTINUOUS
 62
     7
 48
25.4
100
AcDbText
 10
182.6996569515
 20
195.6498639531
 30
0.0
 40
3.0
  1
22,2
 50
90.0
  7
SEACAD_SEISO_TTF
 11
179.6996569515
 21
195.6498639531
 31
0.0
100
AcDbText
 73
     3
  0
ENDBLK
  5
107
330
FE
100
AcDbEntity
  8
0
100
AcDbBlockEnd
  0
BLOCK
  5
111
330
108
100
AcDbEntity
  8
0
100
AcDbBlockBegin
  2
SE10
 70
     0
 71
     0
 10
0.0
 20
0.0
 30
0.0
  3
SE10
  1

  0
POLYLINE
  5
10A
330
108
100
AcDbEntity
  8
DEFAULT
  6
CONTINUOUS
 62
     7
 48
25.4
100
AcDb2dPolyline
 66
     1
 10
0.0
 20
0.0
 30
0.0
 70
     1
  0
VERTEX
  5
14C
330
10A
100
AcDbEntity
  8
DEFAULT
  6
CONTINUOUS
 62
     7
100
AcDbVertex
100
AcDb2dVertex
 10
125.4907810234
 20
136.975217455
 30
0.0
  0
VERTEX
  5
14D
330
10A
100
AcDbEntity
  8
DEFAULT
  6
CONTINUOUS
 62
     7
100
AcDbVertex
100
AcDb2dVertex
 10
122.4907809973
 20
136.4752174507
 30
0.0
  0
VERTEX
  5
14E
330
10A
100
AcDbEntity
  8
DEFAULT
  6
CONTINUOUS
 62
     7
100
AcDbVertex
100
AcDb2dVertex
 10
125.4907810234
 20
135.9752174463
 30
0.0
  0
VERTEX
  5
14F
330
10A
100
AcDbEntity
  8
DEFAULT
  6
CONTINUOUS
 62
     7
100
AcDbVertex
100
AcDb2dVertex
 10
125.4907810234
 20
136.975217455
 30
0.0
  0
SEQEND
  5
14B
330
10A
100
AcDbEntity
  8
DEFAULT
  6
CONTINUOUS
 62
     7
 48
25.4
  0
POLYLINE
  5
10B
330
108
100
AcDbEntity
  8
DEFAULT
  6
CONTINUOUS
 62
     7
 48
25.4
100
AcDb2dPolyline
 66
     1
 10
0.0
 20
0.0
 30
0.0
 70
     1
  0
VERTEX
  5
151
330
10B
100
AcDbEntity
  8
DEFAULT
  6
CONTINUOUS
 62
     7
100
AcDbVertex
100
AcDb2dVertex
 10
157.4907809712
 20
136.975217455
 30
0.0
  0
VERTEX
  5
152
330
10B
100
AcDbEntity
  8
DEFAULT
  6
CONTINUOUS
 62
     7
100
AcDbVertex
100
AcDb2dVertex
 10
160.4907809973
 20
136.4752174507
 30
0.0
  0
VERTEX
  5
153
330
10B
100
AcDbEntity
  8
DEFAULT
  6
CONTINUOUS
 62
     7
100
AcDbVertex
100
AcDb2dVertex
 10
157.4907809712
 20
135.9752174463
 30
0.0
  0
VERTEX
  5
154
330
10B
100
AcDbEntity
  8
DEFAULT
  6
CONTINUOUS
 62
     7
100
AcDbVertex
100
AcDb2dVertex
 10
157.4907809712
 20
136.975217455
 30
0.0
  0
SEQEND
  5
150
330
10B
100
AcDbEntity
  8
DEFAULT
  6
CONTINUOUS
 62
     7
 48
25.4
  0
LINE
  5
10C
330
108
100
AcDbEntity
  8
DEFAULT
  6
CONTINUOUS
 62
     7
 48
25.4
100
AcDbLine
 10
122.4907809973
 20
134.7688389162
 30
0.0
 11
122.4907809973
 21
137.9752174637
 31
0.0
  0
LINE
  5
10D
330
108
100
AcDbEntity
  8
DEFAULT
  6
CONTINUOUS
 62
     7
 48
25.4
100
AcDbLine
 10
160.4907809973
 20
134.0862875024
 30
0.0
 11
160.4907809973
 21
137.9752174637
 31
0.0
  0
LINE
  5
10E
330
108
100
AcDbEntity
  8
DEFAULT
  6
CONTINUOUS
 62
     7
 48
25.4
100
AcDbLine
 10
122.4907809973
 20
136.4752174507
 30
0.0
 11
160.4907797754
 21
136.4752174507
 31
0.0
  0
TEXT
  5
10F
330
108
100
AcDbEntity
  8
DEFAULT
  6
CONTINUOUS
 62
     7
 48
25.4
100
AcDbText
 10
141.5724496996
 20
137.2252174507
 30
0.0
 40
3.0
  1
38
  7
SEACAD_SEISO_TTF
 11
141.5724496996
 21
140.2252174507
 31
0.0
100
AcDbText
 73
     3
  0
TEXT
  5
110
330
108
100
AcDbEntity
  8
DEFAULT
  6
CONTINUOUS
 62
     7
 48
25.4
100
AcDbText
 10
137.9318383459
 20
137.2252174507
 30
0.0
 40
3.0
  1
O
  7
SEACAD_SEMECI1_TTF
 11
137.9318383459
 21
140.2252174507
 31
0.0
100
AcDbText
 73
     3
  0
ENDBLK
  5
112
330
108
100
AcDbEntity
  8
0
100
AcDbBlockEnd
  0
BLOCK
  5
11C
330
113
100
AcDbEntity
  8
0
100
AcDbBlockBegin
  2
SE11
 70
     0
 71
     0
 10
0.0
 20
0.0
 30
0.0
  3
SE11
  1

  0
POLYLINE
  5
115
330
113
100
AcDbEntity
  8
DEFAULT
  6
CONTINUOUS
 62
     7
 48
25.4
100
AcDb2dPolyline
 66
     1
 10
0.0
 20
0.0
 30
0.0
 70
     1
  0
VERTEX
  5
156
330
115
100
AcDbEntity
  8
DEFAULT
  6
CONTINUOUS
 62
     7
100
AcDbVertex
100
AcDb2dVertex
 10
115.9907809712
 20
125.8268754118
 30
0.0
  0
VERTEX
  5
157
330
115
100
AcDbEntity
  8
DEFAULT
  6
CONTINUOUS
 62
     7
100
AcDbVertex
100
AcDb2dVertex
 10
118.9907809973
 20
125.3268754075
 30
0.0
  0
VERTEX
  5
158
330
115
100
AcDbEntity
  8
DEFAULT
  6
CONTINUOUS
 62
     7
100
AcDbVertex
100
AcDb2dVertex
 10
115.9907809712
 20
124.8268754031
 30
0.0
  0
VERTEX
  5
159
330
115
100
AcDbEntity
  8
DEFAULT
  6
CONTINUOUS
 62
     7
100
AcDbVertex
100
AcDb2dVertex
 10
115.9907809712
 20
125.8268754118
 30
0.0
  0
SEQEND
  5
155
330
115
100
AcDbEntity
  8
DEFAULT
  6
CONTINUOUS
 62
     7
 48
25.4
  0
POLYLINE
  5
116
330
113
100
AcDbEntity
  8
DEFAULT
  6
CONTINUOUS
 62
     7
 48
25.4
100
AcDb2dPolyline
 66
     1
 10
0.0
 20
0.0
 30
0.0
 70
     1
  0
VERTEX
  5
15B
330
116
100
AcDbEntity
  8
DEFAULT
  6
CONTINUOUS
 62
     7
100
AcDbVertex
100
AcDb2dVertex
 10
128.9907810234
 20
125.8268754118
 30
0.0
  0
VERTEX
  5
15C
330
116
100
AcDbEntity
  8
DEFAULT
  6
CONTINUOUS
 62
     7
100
AcDbVertex
100
AcDb2dVertex
 10
125.9907809973
 20
125.3268754075
 30
0.0
  0
VERTEX
  5
15D
330
116
100
AcDbEntity
  8
DEFAULT
  6
CONTINUOUS
 62
     7
100
AcDbVertex
100
AcDb2dVertex
 10
128.9907810234
 20
124.8268754031
 30
0.0
  0
VERTEX
  5
15E
330
116
100
AcDbEntity
  8
DEFAULT
  6
CONTINUOUS
 62
     7
100
AcDbVertex
100
AcDb2dVertex
 10
128.9907810234
 20
125.8268754118
 30
0.0
  0
SEQEND
  5
15A
330
116
100
AcDbEntity
  8
DEFAULT
  6
CONTINUOUS
 62
     7
 48
25.4
  0
LINE
  5
117
330
113
100
AcDbEntity
  8
DEFAULT
  6
CONTINUOUS
 62
     7
 48
25.4
100
AcDbLine
 10
118.9907809973
 20
105.6669259409
 30
0.0
 11
118.9907809973
 21
126.8268754205
 31
0.0
  0
LINE
  5
118
330
113
100
AcDbEntity
  8
DEFAULT
  6
CONTINUOUS
 62
     7
 48
25.4
100
AcDbLine
 10
125.9907809973
 20
105.6669259409
 30
0.0
 11
125.9907809973
 21
126.8268754205
 31
0.0
  0
LINE
  5
119
330
113
100
AcDbEntity
  8
DEFAULT
  6
CONTINUOUS
 62
     7
 48
25.4
100
AcDbLine
 10
108.0759337426
 20
125.3268754075
 30
0.0
 11
131.9907812655
 21
125.3268754075
 31
0.0
  0
TEXT
  5
11A
330
113
100
AcDbEntity
  8
DEFAULT
  6
CONTINUOUS
 62
     7
 48
25.4
100
AcDbText
 10
112.7665453191
 20
126.0768754075
 30
0.0
 40
3.0
  1
7
  7
SEACAD_SEISO_TTF
 11
112.7665453191
 21
129.0768754075
 31
0.0
100
AcDbText
 73
     3
  0
TEXT
  5
11B
330
113
100
AcDbEntity
  8
DEFAULT
  6
CONTINUOUS
 62
     7
 48
25.4
100
AcDbText
 10
109.1259339654
 20
126.0768754075
 30
0.0
 40
3.0
  1
O
  7
SEACAD_SEMECI1_TTF
 11
109.1259339654
 21
129.0768754075
 31
0.0
100
AcDbText
 73
     3
  0
ENDBLK
  5
11D
330
113
100
AcDbEntity
  8
0
100
AcDbBlockEnd
  0
BLOCK
  5
126
330
11E
100
AcDbEntity
  8
0
100
AcDbBlockBegin
  2
SE12
 70
     0
 71
     0
 10
0.0
 20
0.0
 30
0.0
  3
SE12
  1

  0
CIRCLE
  5
120
330
11E
100
AcDbEntity
  8
DEFAULT
  6
CONTINUOUS
 62
     7
 48
25.4
100
AcDbCircle
 10
98.6618472666
 20
105.6669259409
 30
0.0
 40
1.000000008692339
  0
POLYLINE
  5
121
330
11E
100
AcDbEntity
  8
DEFAULT
  6
CONTINUOUS
 62
     7
 48
25.4
100
AcDb2dPolyline
 66
     1
 10
0.0
 20
0.0
 30
0.0
 70
     1
  0
VERTEX
  5
160
330
121
100
AcDbEntity
  8
DEFAULT
  6
CONTINUOUS
 62
     7
100
AcDbVertex
100
AcDb2dVertex
 10
98.1618472622
 20
113.666925967
 30
0.0
  0
VERTEX
  5
161
330
121
100
AcDbEntity
  8
DEFAULT
  6
CONTINUOUS
 62
     7
100
AcDbVertex
100
AcDb2dVertex
 10
98.6618472666
 20
110.6669259409
 30
0.0
  0
VERTEX
  5
162
330
121
100
AcDbEntity
  8
DEFAULT
  6
CONTINUOUS
 62
     7
100
AcDbVertex
100
AcDb2dVertex
 10
99.1618472709
 20
113.666925967
 30
0.0
  0
VERTEX
  5
163
330
121
100
AcDbEntity
  8
DEFAULT
  6
CONTINUOUS
 62
     7
100
AcDbVertex
100
AcDb2dVertex
 10
98.1618472622
 20
113.666925967
 30
0.0
  0
SEQEND
  5
15F
330
121
100
AcDbEntity
  8
DEFAULT
  6
CONTINUOUS
 62
     7
 48
25.4
  0
LINE
  5
122
330
11E
100
AcDbEntity
  8
DEFAULT
  6
CONTINUOUS
 62
     7
 48
25.4
100
AcDbLine
 10
115.4907809973
 20
105.6669259409
 30
0.0
 11
97.1618472536
 21
105.6669259409
 31
0.0
  0
LINE
  5
123
330
11E
100
AcDbEntity
  8
DEFAULT
  6
CONTINUOUS
 62
     7
 48
25.4
100
AcDbLine
 10
119.6482292322
 20
110.6669259409
 30
0.0
 11
97.1618472536
 21
110.6669259409
 31
0.0
  0
LINE
  5
124
330
11E
100
AcDbEntity
  8
DEFAULT
  6
CONTINUOUS
 62
     7
 48
25.4
100
AcDbLine
 10
98.6618472666
 20
99.6669258888
 30
0.0
 11
98.6618472666
 21
116.6669258813
 31
0.0
  0
TEXT
  5
125
330
11E
100
AcDbEntity
  8
DEFAULT
  6
CONTINUOUS
 62
     7
 48
25.4
100
AcDbText
 10
97.9118472666
 20
107.3146531578
 30
0.0
 40
3.0
  1
5
 50
90.0
  7
SEACAD_SEISO_TTF
 11
94.9118472666
 21
107.3146531578
 31
0.0
100
AcDbText
 73
     3
  0
ENDBLK
  5
127
330
11E
100
AcDbEntity
  8
0
100
AcDbBlockEnd
  0
BLOCK
  5
130
330
128
100
AcDbEntity
  8
0
100
AcDbBlockBegin
  2
SE13
 70
     0
 71
     0
 10
0.0
 20
0.0
 30
0.0
  3
SE13
  1

  0
CIRCLE
  5
12A
330
128
100
AcDbEntity
  8
DEFAULT
  6
CONTINUOUS
 62
     7
 48
25.4
100
AcDbCircle
 10
98.6618472666
 20
105.6669259409
 30
0.0
 40
1.000000008692339
  0
POLYLINE
  5
12B
330
128
100
AcDbEntity
  8
DEFAULT
  6
CONTINUOUS
 62
     7
 48
25.4
100
AcDb2dPolyline
 66
     1
 10
0.0
 20
0.0
 30
0.0
 70
     1
  0
VERTEX
  5
165
330
12B
100
AcDbEntity
  8
DEFAULT
  6
CONTINUOUS
 62
     7
100
AcDbVertex
100
AcDb2dVertex
 10
98.1618472622
 20
96.1669259148
 30
0.0
  0
VERTEX
  5
166
330
12B
100
AcDbEntity
  8
DEFAULT
  6
CONTINUOUS
 62
     7
100
AcDbVertex
100
AcDb2dVertex
 10
98.6618472666
 20
99.1669259409
 30
0.0
  0
VERTEX
  5
167
330
12B
100
AcDbEntity
  8
DEFAULT
  6
CONTINUOUS
 62
     7
100
AcDbVertex
100
AcDb2dVertex
 10
99.1618472709
 20
96.1669259148
 30
0.0
  0
VERTEX
  5
168
330
12B
100
AcDbEntity
  8
DEFAULT
  6
CONTINUOUS
 62
     7
100
AcDbVertex
100
AcDb2dVertex
 10
98.1618472622
 20
96.1669259148
 30
0.0
  0
SEQEND
  5
164
330
12B
100
AcDbEntity
  8
DEFAULT
  6
CONTINUOUS
 62
     7
 48
25.4
  0
LINE
  5
12C
330
128
100
AcDbEntity
  8
DEFAULT
  6
CONTINUOUS
 62
     7
 48
25.4
100
AcDbLine
 10
115.4907809973
 20
105.6669259409
 30
0.0
 11
97.1618472536
 21
105.6669259409
 31
0.0
  0
LINE
  5
12D
330
128
100
AcDbEntity
  8
DEFAULT
  6
CONTINUOUS
 62
     7
 48
25.4
100
AcDbLine
 10
119.7247820063
 20
99.1669259409
 30
0.0
 11
97.1618472536
 21
99.1669259409
 31
0.0
  0
LINE
  5
12E
330
128
100
AcDbEntity
  8
DEFAULT
  6
CONTINUOUS
 62
     7
 48
25.4
100
AcDbLine
 10
98.6618472666
 20
111.6669259931
 30
0.0
 11
98.6618472666
 21
93.1669257546
 31
0.0
  0
TEXT
  5
12F
330
128
100
AcDbEntity
  8
DEFAULT
  6
CONTINUOUS
 62
     7
 48
25.4
100
AcDbText
 10
97.9118472666
 20
100.3714713284
 30
0.0
 40
3.0
  1
6,5
 50
90.0
  7
SEACAD_SEISO_TTF
 11
94.9118472666
 21
100.3714713284
 31
0.0
100
AcDbText
 73
     3
  0
ENDBLK
  5
131
330
128
100
AcDbEntity
  8
0
100
AcDbBlockEnd
  0
BLOCK
  5
13A
330
132
100
AcDbEntity
  8
0
100
AcDbBlockBegin
  2
SE14
 70
     0
 71
     0
 10
0.0
 20
0.0
 30
0.0
  3
SE14
  1

  0
POLYLINE
  5
134
330
132
100
AcDbEntity
  8
DEFAULT
  6
CONTINUOUS
 62
     7
 48
25.4
100
AcDb2dPolyline
 66
     1
 10
0.0
 20
0.0
 30
0.0
 70
     1
  0
VERTEX
  5
16A
330
134
100
AcDbEntity
  8
DEFAULT
  6
CONTINUOUS
 62
     7
100
AcDbVertex
100
AcDb2dVertex
 10
183.2905972227
 20
73.666925967
 30
0.0
  0
VERTEX
  5
16B
330
134
100
AcDbEntity
  8
DEFAULT
  6
CONTINUOUS
 62
     7
100
AcDbVertex
100
AcDb2dVertex
 10
182.7905972183
 20
70.6669259409
 30
0.0
  0
VERTEX
  5
16C
330
134
100
AcDbEntity
  8
DEFAULT
  6
CONTINUOUS
 62
     7
100
AcDbVertex
100
AcDb2dVertex
 10
182.290597214
 20
73.666925967
 30
0.0
  0
VERTEX
  5
16D
330
134
100
AcDbEntity
  8
DEFAULT
  6
CONTINUOUS
 62
     7
100
AcDbVertex
100
AcDb2dVertex
 10
183.2905972227
 20
73.666925967
 30
0.0
  0
SEQEND
  5
169
330
134
100
AcDbEntity
  8
DEFAULT
  6
CONTINUOUS
 62
     7
 48
25.4
  0
POLYLINE
  5
135
330
132
100
AcDbEntity
  8
DEFAULT
  6
CONTINUOUS
 62
     7
 48
25.4
100
AcDb2dPolyline
 66
     1
 10
0.0
 20
0.0
 30
0.0
 70
     1
  0
VERTEX
  5
16F
330
135
100
AcDbEntity
  8
DEFAULT
  6
CONTINUOUS
 62
     7
100
AcDbVertex
100
AcDb2dVertex
 10
183.2905972227
 20
107.6669259148
 30
0.0
  0
VERTEX
  5
170
330
135
100
AcDbEntity
  8
DEFAULT
  6
CONTINUOUS
 62
     7
100
AcDbVertex
100
AcDb2dVertex
 10
182.7905972183
 20
110.6669259409
 30
0.0
  0
VERTEX
  5
171
330
135
100
AcDbEntity
  8
DEFAULT
  6
CONTINUOUS
 62
     7
100
AcDbVertex
100
AcDb2dVertex
 10
182.290597214
 20
107.6669259148
 30
0.0
  0
VERTEX
  5
172
330
135
100
AcDbEntity
  8
DEFAULT
  6
CONTINUOUS
 62
     7
100
AcDbVertex
100
AcDb2dVertex
 10
183.2905972227
 20
107.6669259148
 30
0.0
  0
SEQEND
  5
16E
330
135
100
AcDbEntity
  8
DEFAULT
  6
CONTINUOUS
 62
     7
 48
25.4
  0
LINE
  5
136
330
132
100
AcDbEntity
  8
DEFAULT
  6
CONTINUOUS
 62
     7
 48
25.4
100
AcDbLine
 10
141.4907809973
 20
70.6669259409
 30
0.0
 11
184.2905972313
 21
70.6669259409
 31
0.0
  0
LINE
  5
137
330
132
100
AcDbEntity
  8
DEFAULT
  6
CONTINUOUS
 62
     7
 48
25.4
100
AcDbLine
 10
163.3333327624
 20
110.6669259409
 30
0.0
 11
184.2905972313
 21
110.6669259409
 31
0.0
  0
LINE
  5
138
330
132
100
AcDbEntity
  8
DEFAULT
  6
CONTINUOUS
 62
     7
 48
25.4
100
AcDbLine
 10
182.7905972183
 20
70.6669259409
 30
0.0
 11
182.7905972183
 21
110.6669250468
 31
0.0
  0
TEXT
  5
139
330
132
100
AcDbEntity
  8
DEFAULT
  6
CONTINUOUS
 62
     7
 48
25.4
100
AcDbText
 10
182.0405972183
 20
88.8941982211
 30
0.0
 40
3.0
  1
40
 50
90.0
  7
SEACAD_SEISO_TTF
 11
179.0405972183
 21
88.8941982211
 31
0.0
100
AcDbText
 73
     3
  0
ENDBLK
  5
13B
330
132
100
AcDbEntity
  8
0
100
AcDbBlockEnd
  0
ENDSEC
  0
SECTION
  2
ENTITIES
  0
INSERT
  5
2F
330
1F
100
AcDbEntity
  8
0
100
AcDbBlockReference
  2
SE
 10
0.0
 20
0.0
 30
0.0
  0
INSERT
  5
3B
330
1F
100
AcDbEntity
  8
0
100
AcDbBlockReference
  2
SE1
 10
0.0
 20
0.0
 30
0.0
  0
INSERT
  5
40
330
1F
100
AcDbEntity
  8
0
100
AcDbBlockReference
  2
SE2
 10
0.0
 20
0.0
 30
0.0
  0
INSERT
  5
45
330
1F
100
AcDbEntity
  8
0
100
AcDbBlockReference
  2
SE3
 10
0.0
 20
0.0
 30
0.0
  0
INSERT
  5
4A
330
1F
100
AcDbEntity
  8
0
100
AcDbBlockReference
  2
SE4
 10
0.0
 20
0.0
 30
0.0
  0
INSERT
  5
4F
330
1F
100
AcDbEntity
  8
0
100
AcDbBlockReference
  2
SE5
 10
0.0
 20
0.0
 30
0.0
  0
INSERT
  5
80
330
1F
100
AcDbEntity
  8
0
100
AcDbBlockReference
  2
SE6
 10
0.0
 20
0.0
 30
0.0
  0
INSERT
  5
BB
330
1F
100
AcDbEntity
  8
0
100
AcDbBlockReference
  2
SE7
 10
0.0
 20
0.0
 30
0.0
  0
INSERT
  5
F3
330
1F
100
AcDbEntity
  8
0
100
AcDbBlockReference
  2
SE8
 10
0.0
 20
0.0
 30
0.0
  0
INSERT
  5
FF
330
1F
100
AcDbEntity
  8
0
100
AcDbBlockReference
  2
SE9
 10
0.0
 20
0.0
 30
0.0
  0
INSERT
  5
109
330
1F
100
AcDbEntity
  8
0
100
AcDbBlockReference
  2
SE10
 10
0.0
 20
0.0
 30
0.0
  0
INSERT
  5
114
330
1F
100
AcDbEntity
  8
0
100
AcDbBlockReference
  2
SE11
 10
0.0
 20
0.0
 30
0.0
  0
INSERT
  5
11F
330
1F
100
AcDbEntity
  8
0
100
AcDbBlockReference
  2
SE12
 10
0.0
 20
0.0
 30
0.0
  0
INSERT
  5
129
330
1F
100
AcDbEntity
  8
0
100
AcDbBlockReference
  2
SE13
 10
0.0
 20
0.0
 30
0.0
  0
INSERT
  5
133
330
1F
100
AcDbEntity
  8
0
100
AcDbBlockReference
  2
SE14
 10
0.0
 20
0.0
 30
0.0
  0
ENDSEC
  0
SECTION
  2
OBJECTS
  0
DICTIONARY
  5
C
330
0
100
AcDbDictionary
  3
ACAD_GROUP
350
D
  3
ACAD_LAYOUT
350
1A
  3
ACAD_MLINESTYLE
350
17
  3
ACAD_PLOTSETTINGS
350
19
  3
ACAD_TABLESTYLE
350
2A
  3
ACDBVARIABLEDICTIONARY
350
2C
1001
ACAD
1000
TREAT_AS_HARD
1070
     0
  0
DICTIONARY
  5
173
330
29
100
AcDbDictionary
  3
ACAD_XREC_ROUNDTRIP
360
174
  0
DICTIONARY
  5
D
102
{ACAD_REACTORS
330
C
102
}
330
C
100
AcDbDictionary
1001
ACAD
1000
TREAT_AS_HARD
1070
     0
  0
DICTIONARY
  5
1A
102
{ACAD_REACTORS
330
C
102
}
330
C
100
AcDbDictionary
1001
ACAD
1000
TREAT_AS_HARD
1070
     0
  0
DICTIONARY
  5
17
102
{ACAD_REACTORS
330
C
102
}
330
C
100
AcDbDictionary
  3
STANDARD
350
18
1001
ACAD
1000
TREAT_AS_HARD
1070
     0
  0
DICTIONARY
  5
19
102
{ACAD_REACTORS
330
C
102
}
330
C
100
AcDbDictionary
1001
ACAD
1000
TREAT_AS_HARD
1070
     0
  0
DICTIONARY
  5
2A
102
{ACAD_REACTORS
330
C
102
}
330
C
100
AcDbDictionary
  3
STANDARD
350
2B
1001
ACAD
1000
TREAT_AS_HARD
1070
     0
  0
DICTIONARY
  5
2C
102
{ACAD_REACTORS
330
C
102
}
330
C
100
AcDbDictionary
  3
CTABLESTYLE
350
2D
1001
ACAD
1000
TREAT_AS_HARD
1070
     0
  0
XRECORD
  5
174
102
{ACAD_REACTORS
330
173
102
}
330
173
100
AcDbXrecord
102
UCS
 74
     0
 71
     1
 10
0.0
 20
0.0
 30
0.0
 10
1.0
 20
0.0
 30
0.0
 10
0.0
 20
1.0
 30
0.0
146
0.0
 79
     0
102
VIEW
281
     0
  0
MLINESTYLE
  5
18
102
{ACAD_REACTORS
330
17
102
}
330
17
100
AcDbMlineStyle
  2
Standard
 70
     0
  3

 62
   256
 51
90.0
 52
90.0
 71
     2
 49
0.5
 62
   256
  6
BYLAYER
 49
-0.5
 62
   256
  6
BYLAYER
  0
TABLESTYLE
  5
2B
102
{ACAD_REACTORS
330
2A
102
}
330
2A
100
AcDbTableStyle
  3
Standard
 70
     0
 71
     0
 40
0.06
 41
0.06
280
     0
281
     0
  7
STANDARD
140
0.18
170
     2
 62
     0
 63
     7
283
     0
274
    -2
284
     1
 64
     0
275
    -2
285
     1
 65
     0
276
    -2
286
     1
 66
     0
277
    -2
287
     1
 67
     0
278
    -2
288
     1
 68
     0
279
    -2
289
     1
 69
     0
  7
STANDARD
140
0.25
170
     5
 62
     0
 63
     7
283
     0
274
    -2
284
     1
 64
     0
275
    -2
285
     1
 65
     0
276
    -2
286
     1
 66
     0
277
    -2
287
     1
 67
     0
278
    -2
288
     1
 68
     0
279
    -2
289
     1
 69
     0
  7
STANDARD
140
0.18
170
     5
 62
     0
 63
     7
283
     0
274
    -2
284
     1
 64
     0
275
    -2
285
     1
 65
     0
276
    -2
286
     1
 66
     0
277
    -2
287
     1
 67
     0
278
    -2
288
     1
 68
     0
279
    -2
289
     1
 69
     0
  0
DICTIONARYVAR
  5
2D
102
{ACAD_REACTORS
330
2C
102
}
330
2C
100
DictionaryVariables
280
     0
  1
Standard
  0
ENDSEC
  0
EOF
