  0
SECTION
  2
HEADER
  9
$ACADVER
  1
AC1015
  9
$ACADMAINTVER
 70
     6
  9
$DWGCODEPAGE
  3
ANSI_1252
  9
$INSBASE
 10
0.0
 20
0.0
 30
0.0
  9
$EXTMIN
 10
0.0
 20
0.0
 30
0.0
  9
$EXTMAX
 10
210.0
 20
297.0
 30
0.0
  9
$LIMMIN
 10
0.0
 20
0.0
  9
$LIMMAX
 10
210.0
 20
297.0
  9
$ORTHOMODE
 70
     0
  9
$REGENMODE
 70
     1
  9
$FILLMODE
 70
     1
  9
$QTEXTMODE
 70
     0
  9
$MIRRTEXT
 70
     1
  9
$LTSCALE
 40
1.0
  9
$ATTMODE
 70
     1
  9
$TEXTSIZE
 40
0.2
  9
$TRACEWID
 40
0.05
  9
$TEXTSTYLE
  7
Standard
  9
$CLAYER
  8
0
  9
$CELTYPE
  6
ByLayer
  9
$CECOLOR
 62
   256
  9
$CELTSCALE
 40
25.4
  9
$DISPSILH
 70
     0
  9
$DIMSCALE
 40
1.0
  9
$DIMASZ
 40
0.18
  9
$DIMEXO
 40
0.0625
  9
$DIMDLI
 40
0.38
  9
$DIMRND
 40
0.0
  9
$DIMDLE
 40
0.0
  9
$DIMEXE
 40
0.18
  9
$DIMTP
 40
0.0
  9
$DIMTM
 40
0.0
  9
$DIMTXT
 40
0.18
  9
$DIMCEN
 40
0.09
  9
$DIMTSZ
 40
0.0
  9
$DIMTOL
 70
     0
  9
$DIMLIM
 70
     0
  9
$DIMTIH
 70
     1
  9
$DIMTOH
 70
     1
  9
$DIMSE1
 70
     0
  9
$DIMSE2
 70
     0
  9
$DIMTAD
 70
     0
  9
$DIMZIN
 70
     0
  9
$DIMBLK
  1

  9
$DIMASO
 70
     1
  9
$DIMSHO
 70
     1
  9
$DIMPOST
  1

  9
$DIMAPOST
  1

  9
$DIMALT
 70
     0
  9
$DIMALTD
 70
     2
  9
$DIMALTF
 40
25.4
  9
$DIMLFAC
 40
1.0
  9
$DIMTOFL
 70
     0
  9
$DIMTVP
 40
0.0
  9
$DIMTIX
 70
     0
  9
$DIMSOXD
 70
     0
  9
$DIMSAH
 70
     0
  9
$DIMBLK1
  1

  9
$DIMBLK2
  1

  9
$DIMSTYLE
  2
Standard
  9
$DIMCLRD
 70
     0
  9
$DIMCLRE
 70
     0
  9
$DIMCLRT
 70
     0
  9
$DIMTFAC
 40
1.0
  9
$DIMGAP
 40
0.09
  9
$DIMJUST
 70
     0
  9
$DIMSD1
 70
     0
  9
$DIMSD2
 70
     0
  9
$DIMTOLJ
 70
     1
  9
$DIMTZIN
 70
     0
  9
$DIMALTZ
 70
     0
  9
$DIMALTTZ
 70
     0
  9
$DIMUPT
 70
     0
  9
$DIMDEC
 70
     4
  9
$DIMTDEC
 70
     4
  9
$DIMALTU
 70
     2
  9
$DIMALTTD
 70
     2
  9
$DIMTXSTY
  7
Standard
  9
$DIMAUNIT
 70
     0
  9
$DIMADEC
 70
     0
  9
$DIMALTRND
 40
0.0
  9
$DIMAZIN
 70
     0
  9
$DIMDSEP
 70
    46
  9
$DIMATFIT
 70
     3
  9
$DIMFRAC
 70
     0
  9
$DIMLDRBLK
  1

  9
$DIMLUNIT
 70
     2
  9
$DIMLWD
 70
    -2
  9
$DIMLWE
 70
    -2
  9
$DIMTMOVE
 70
     0
  9
$LUNITS
 70
     2
  9
$LUPREC
 70
     4
  9
$SKETCHINC
 40
0.1
  9
$FILLETRAD
 40
0.5
  9
$AUNITS
 70
     0
  9
$AUPREC
 70
     0
  9
$MENU
  1
.
  9
$ELEVATION
 40
0.0
  9
$PELEVATION
 40
0.0
  9
$THICKNESS
 40
0.0
  9
$LIMCHECK
 70
     0
  9
$CHAMFERA
 40
0.5
  9
$CHAMFERB
 40
0.5
  9
$CHAMFERC
 40
1.0
  9
$CHAMFERD
 40
0.0
  9
$SKPOLY
 70
     0
  9
$TDCREATE
 40
2454286.405620371
  9
$TDUCREATE
 40
2454286.322287037
  9
$TDUPDATE
 40
2454286.405620382
  9
$TDUUPDATE
 40
2454286.322287049
  9
$TDINDWG
 40
0.0000000116
  9
$TDUSRTIMER
 40
0.0000000116
  9
$USRTIMER
 70
     1
  9
$ANGBASE
 50
0.0
  9
$ANGDIR
 70
     0
  9
$PDMODE
 70
     0
  9
$PDSIZE
 40
0.0
  9
$PLINEWID
 40
0.0
  9
$SPLFRAME
 70
     0
  9
$SPLINETYPE
 70
     6
  9
$SPLINESEGS
 70
     8
  9
$HANDSEED
  5
CD
  9
$SURFTAB1
 70
     6
  9
$SURFTAB2
 70
     6
  9
$SURFTYPE
 70
     6
  9
$SURFU
 70
     6
  9
$SURFV
 70
     6
  9
$UCSBASE
  2

  9
$UCSNAME
  2

  9
$UCSORG
 10
0.0
 20
0.0
 30
0.0
  9
$UCSXDIR
 10
1.0
 20
0.0
 30
0.0
  9
$UCSYDIR
 10
0.0
 20
1.0
 30
0.0
  9
$UCSORTHOREF
  2

  9
$UCSORTHOVIEW
 70
     0
  9
$UCSORGTOP
 10
0.0
 20
0.0
 30
0.0
  9
$UCSORGBOTTOM
 10
0.0
 20
0.0
 30
0.0
  9
$UCSORGLEFT
 10
0.0
 20
0.0
 30
0.0
  9
$UCSORGRIGHT
 10
0.0
 20
0.0
 30
0.0
  9
$UCSORGFRONT
 10
0.0
 20
0.0
 30
0.0
  9
$UCSORGBACK
 10
0.0
 20
0.0
 30
0.0
  9
$PUCSBASE
  2

  9
$PUCSNAME
  2

  9
$PUCSORG
 10
0.0
 20
0.0
 30
0.0
  9
$PUCSXDIR
 10
1.0
 20
0.0
 30
0.0
  9
$PUCSYDIR
 10
0.0
 20
1.0
 30
0.0
  9
$PUCSORTHOREF
  2

  9
$PUCSORTHOVIEW
 70
     0
  9
$PUCSORGTOP
 10
0.0
 20
0.0
 30
0.0
  9
$PUCSORGBOTTOM
 10
0.0
 20
0.0
 30
0.0
  9
$PUCSORGLEFT
 10
0.0
 20
0.0
 30
0.0
  9
$PUCSORGRIGHT
 10
0.0
 20
0.0
 30
0.0
  9
$PUCSORGFRONT
 10
0.0
 20
0.0
 30
0.0
  9
$PUCSORGBACK
 10
0.0
 20
0.0
 30
0.0
  9
$USERI1
 70
     0
  9
$USERI2
 70
     0
  9
$USERI3
 70
     0
  9
$USERI4
 70
     0
  9
$USERI5
 70
     0
  9
$USERR1
 40
0.0
  9
$USERR2
 40
0.0
  9
$USERR3
 40
0.0
  9
$USERR4
 40
0.0
  9
$USERR5
 40
0.0
  9
$WORLDVIEW
 70
     1
  9
$SHADEDGE
 70
     3
  9
$SHADEDIF
 70
    70
  9
$TILEMODE
 70
     1
  9
$MAXACTVP
 70
    64
  9
$PINSBASE
 10
0.0
 20
0.0
 30
0.0
  9
$PLIMCHECK
 70
     0
  9
$PEXTMIN
 10
0.0
 20
0.0
 30
0.0
  9
$PEXTMAX
 10
210.0
 20
297.0
 30
0.0
  9
$PLIMMIN
 10
0.0
 20
0.0
  9
$PLIMMAX
 10
210.0
 20
297.0
  9
$UNITMODE
 70
     0
  9
$VISRETAIN
 70
     1
  9
$PLINEGEN
 70
     0
  9
$PSLTSCALE
 70
     1
  9
$TREEDEPTH
 70
  3020
  9
$CMLSTYLE
  2
Standard
  9
$CMLJUST
 70
     0
  9
$CMLSCALE
 40
1.0
  9
$PROXYGRAPHICS
 70
     1
  9
$MEASUREMENT
 70
     1
  9
$CELWEIGHT
370
    -1
  9
$ENDCAPS
280
     0
  9
$JOINSTYLE
280
     0
  9
$LWDISPLAY
290
     0
  9
$INSUNITS
 70
     1
  9
$HYPERLINKBASE
  1

  9
$STYLESHEET
  1

  9
$XEDIT
290
     1
  9
$CEPSNTYPE
380
     0
  9
$PSTYLEMODE
290
     1
  9
$FINGERPRINTGUID
  2
{AB31FCC7-44F8-464F-83FF-A0B621E84717}
  9
$VERSIONGUID
  2
{FAEB1C32-E019-11D5-929B-00C0DF256EC4}
  9
$EXTNAMES
290
     1
  9
$PSVPSCALE
 40
0.0
  9
$OLESTARTUP
290
     0
  0
ENDSEC
  0
SECTION
  2
CLASSES
  0
CLASS
  1
ACDBDICTIONARYWDFLT
  2
AcDbDictionaryWithDefault
  3
ObjectDBX Classes
 90
        0
280
     0
281
     0
  0
CLASS
  1
SPATIAL_FILTER
  2
AcDbSpatialFilter
  3
ObjectDBX Classes
 90
        0
280
     0
281
     0
  0
CLASS
  1
ACDBPLACEHOLDER
  2
AcDbPlaceHolder
  3
ObjectDBX Classes
 90
        0
280
     0
281
     0
  0
CLASS
  1
LAYOUT
  2
AcDbLayout
  3
ObjectDBX Classes
 90
        0
280
     0
281
     0
  0
ENDSEC
  0
SECTION
  2
TABLES
  0
TABLE
  2
VPORT
  5
8
330
0
100
AcDbSymbolTable
 70
     1
  0
VPORT
  5
29
330
8
100
AcDbSymbolTableRecord
100
AcDbViewportTableRecord
  2
*Active
 70
     0
 10
0.0
 20
0.0
 11
1.0
 21
1.0
 12
10.4299065421
 22
4.5
 13
0.0
 23
0.0
 14
0.5
 24
0.5
 15
0.5
 25
0.5
 16
0.0
 26
0.0
 36
1.0
 17
0.0
 27
0.0
 37
0.0
 40
9.0
 41
1.9729729729
 42
50.0
 43
0.0
 44
0.0
 50
0.0
 51
0.0
 71
     0
 72
   100
 73
     1
 74
     3
 75
     0
 76
     0
 77
     0
 78
     0
281
     0
 65
     1
110
0.0
120
0.0
130
0.0
111
1.0
121
0.0
131
0.0
112
0.0
122
1.0
132
0.0
 79
     0
146
0.0
  0
ENDTAB
  0
TABLE
  2
LTYPE
  5
5
330
0
100
AcDbSymbolTable
 70
     2
  0
LTYPE
  5
14
330
5
100
AcDbSymbolTableRecord
100
AcDbLinetypeTableRecord
  2
ByBlock
 70
     0
  3

 72
    65
 73
     0
 40
0.0
  0
LTYPE
  5
15
330
5
100
AcDbSymbolTableRecord
100
AcDbLinetypeTableRecord
  2
ByLayer
 70
     0
  3

 72
    65
 73
     0
 40
0.0
  0
LTYPE
  5
16
330
5
100
AcDbSymbolTableRecord
100
AcDbLinetypeTableRecord
  2
Continuous
 70
     0
  3
Solid line
 72
    65
 73
     0
 40
0.0
  0
LTYPE
  5
2D
330
5
100
AcDbSymbolTableRecord
100
AcDbLinetypeTableRecord
  2
CENTER2
 70
     0
  3
___ _ ___ _ ___ _ ___ _ ___ _ ___ _ ___ _ ___ _
 72
    65
 73
     4
 40
1.125
 49
0.75
 74
     4
 75
     0
340
0
 46
0.0
 50
0.0
 44
0.0
 45
0.0
 49
-0.125
 74
     4
 75
     0
340
0
 46
0.0
 50
0.0
 44
0.0
 45
0.0
 49
0.125
 74
     4
 75
     0
340
0
 46
0.0
 50
0.0
 44
0.0
 45
0.0
 49
-0.125
 74
     4
 75
     0
340
0
 46
0.0
 50
0.0
 44
0.0
 45
0.0
  0
ENDTAB
  0
TABLE
  2
LAYER
  5
2
330
0
100
AcDbSymbolTable
 70
     6
  0
LAYER
  5
10
330
2
100
AcDbSymbolTableRecord
100
AcDbLayerTableRecord
  2
0
 70
     0
 62
     7
  6
Continuous
370
    -3
390
F
  0
LAYER
  5
2A
330
2
100
AcDbSymbolTableRecord
100
AcDbLayerTableRecord
  2
Standard
 70
     0
 62
     7
  6
Continuous
370
    -3
390
F
  0
LAYER
  5
44
330
2
100
AcDbSymbolTableRecord
100
AcDbLayerTableRecord
  2
DV1_Standard
 70
     0
 62
     7
  6
Continuous
370
    -3
390
F
  0
LAYER
  5
46
330
2
100
AcDbSymbolTableRecord
100
AcDbLayerTableRecord
  2
MEGA_012289
 70
     0
 62
     7
  6
Continuous
370
    -3
390
F
  0
LAYER
  5
63
330
2
100
AcDbSymbolTableRecord
100
AcDbLayerTableRecord
  2
MEGA_001429
 70
     0
 62
     7
  6
Continuous
370
    -3
390
F
  0
LAYER
  5
79
330
2
100
AcDbSymbolTableRecord
100
AcDbLayerTableRecord
  2
DV3_Standard
 70
     0
 62
     7
  6
Continuous
370
    -3
390
F
  0
ENDTAB
  0
TABLE
  2
STYLE
  5
3
330
0
100
AcDbSymbolTable
 70
     3
  0
STYLE
  5
11
330
3
100
AcDbSymbolTableRecord
100
AcDbTextStyleTableRecord
  2
Standard
 70
     0
 40
0.0
 41
1.0
 50
0.0
 71
     0
 42
0.2
  3
txt
  4

  0
STYLE
  5
40
330
3
100
AcDbSymbolTableRecord
100
AcDbTextStyleTableRecord
  2
SEACAD_seiso_ttf
 70
     0
 40
0.2
 41
1.0
 50
0.0
 71
     0
 42
0.2
  3
seiso.ttf
  4

  0
STYLE
  5
9A
330
3
100
AcDbSymbolTableRecord
100
AcDbTextStyleTableRecord
  2
SEACAD_semeci1_ttf
 70
     0
 40
0.2
 41
1.0
 50
0.0
 71
     0
 42
0.2
  3
semeci1.ttf
  4

  0
ENDTAB
  0
TABLE
  2
VIEW
  5
6
330
0
100
AcDbSymbolTable
 70
     0
  0
ENDTAB
  0
TABLE
  2
UCS
  5
7
330
0
100
AcDbSymbolTable
 70
     0
  0
ENDTAB
  0
TABLE
  2
APPID
  5
9
330
0
100
AcDbSymbolTable
 70
     1
  0
APPID
  5
12
330
9
100
AcDbSymbolTableRecord
100
AcDbRegAppTableRecord
  2
ACAD
 70
     0
  0
ENDTAB
  0
TABLE
  2
DIMSTYLE
  5
A
330
0
100
AcDbSymbolTable
 70
     1
100
AcDbDimStyleTable
  0
DIMSTYLE
105
27
330
A
100
AcDbSymbolTableRecord
100
AcDbDimStyleTableRecord
  2
Standard
 70
     0
340
11
  0
ENDTAB
  0
TABLE
  2
BLOCK_RECORD
  5
1
330
0
100
AcDbSymbolTable
 70
    13
  0
BLOCK_RECORD
  5
1F
330
1
100
AcDbSymbolTableRecord
100
AcDbBlockTableRecord
  2
*Model_Space
340
22
  0
BLOCK_RECORD
  5
1B
330
1
100
AcDbSymbolTableRecord
100
AcDbBlockTableRecord
  2
*Paper_Space
340
1E
  0
BLOCK_RECORD
  5
2B
330
1
100
AcDbSymbolTableRecord
100
AcDbBlockTableRecord
  2
SEANNOT_GROUP
340
0
102
{BLKREFS
331
2C
102
}
  0
BLOCK_RECORD
  5
31
330
1
100
AcDbSymbolTableRecord
100
AcDbBlockTableRecord
  2
SEANNOT_GROUP1
340
0
102
{BLKREFS
331
32
102
}
  0
BLOCK_RECORD
  5
36
330
1
100
AcDbSymbolTableRecord
100
AcDbBlockTableRecord
  2
SEANNOT_GROUP2
340
0
102
{BLKREFS
331
37
102
}
  0
BLOCK_RECORD
  5
3B
330
1
100
AcDbSymbolTableRecord
100
AcDbBlockTableRecord
  2
SEANNOT_GROUP3
340
0
102
{BLKREFS
331
3C
102
}
  0
BLOCK_RECORD
  5
42
330
1
100
AcDbSymbolTableRecord
100
AcDbBlockTableRecord
  2
SE
340
0
102
{BLKREFS
331
43
102
}
  0
BLOCK_RECORD
  5
59
330
1
100
AcDbSymbolTableRecord
100
AcDbBlockTableRecord
  2
SE1
340
0
102
{BLKREFS
331
5A
102
}
  0
BLOCK_RECORD
  5
77
330
1
100
AcDbSymbolTableRecord
100
AcDbBlockTableRecord
  2
SE2
340
0
102
{BLKREFS
331
78
102
}
  0
BLOCK_RECORD
  5
90
330
1
100
AcDbSymbolTableRecord
100
AcDbBlockTableRecord
  2
GDimGGroup
340
0
102
{BLKREFS
331
91
102
}
  0
BLOCK_RECORD
  5
9E
330
1
100
AcDbSymbolTableRecord
100
AcDbBlockTableRecord
  2
GDimGGroup1
340
0
102
{BLKREFS
331
9F
102
}
  0
BLOCK_RECORD
  5
AB
330
1
100
AcDbSymbolTableRecord
100
AcDbBlockTableRecord
  2
GDimGGroup2
340
0
102
{BLKREFS
331
AC
102
}
  0
BLOCK_RECORD
  5
B7
330
1
100
AcDbSymbolTableRecord
100
AcDbBlockTableRecord
  2
GDimGGroup3
340
0
102
{BLKREFS
331
B8
102
}
  0
BLOCK_RECORD
  5
C2
330
1
100
AcDbSymbolTableRecord
100
AcDbBlockTableRecord
  2
GDimGGroup4
340
0
102
{BLKREFS
331
C3
102
}
  0
ENDTAB
  0
ENDSEC
  0
SECTION
  2
BLOCKS
  0
BLOCK
  5
20
330
1F
100
AcDbEntity
  8
0
100
AcDbBlockBegin
  2
*Model_Space
 70
     0
 71
     0
 10
0.0
 20
0.0
 30
0.0
  3
*Model_Space
  1

  0
ENDBLK
  5
21
330
1F
100
AcDbEntity
  8
0
100
AcDbBlockEnd
  0
BLOCK
  5
1C
330
1B
100
AcDbEntity
 67
     1
  8
0
100
AcDbBlockBegin
  2
*Paper_Space
 70
     0
 71
     0
 10
0.0
 20
0.0
 30
0.0
  3
*Paper_Space
  1

  0
ENDBLK
  5
1D
330
1B
100
AcDbEntity
 67
     1
  8
0
100
AcDbBlockEnd
  0
BLOCK
  5
2F
330
2B
100
AcDbEntity
  8
0
100
AcDbBlockBegin
  2
SEANNOT_GROUP
 70
     0
 71
     0
 10
0.0
 20
0.0
 30
0.0
  3
SEANNOT_GROUP
  1

  0
LINE
  5
2E
330
2B
100
AcDbEntity
  8
Standard
  6
CENTER2
 62
     7
 48
25.4
100
AcDbLine
 10
57.087941627
 20
197.9551862161
 30
0.0
 11
76.8089628628
 21
197.9551862161
 31
0.0
  0
ENDBLK
  5
30
330
2B
100
AcDbEntity
  8
0
100
AcDbBlockEnd
  0
BLOCK
  5
34
330
31
100
AcDbEntity
  8
0
100
AcDbBlockBegin
  2
SEANNOT_GROUP1
 70
     0
 71
     0
 10
0.0
 20
0.0
 30
0.0
  3
SEANNOT_GROUP1
  1

  0
LINE
  5
33
330
31
100
AcDbEntity
  8
Standard
  6
CENTER2
 62
     7
 48
25.4
100
AcDbLine
 10
113.020506338
 20
130.9187420158
 30
0.0
 11
113.020506338
 21
143.6751469851
 31
0.0
  0
ENDBLK
  5
35
330
31
100
AcDbEntity
  8
0
100
AcDbBlockEnd
  0
BLOCK
  5
39
330
36
100
AcDbEntity
  8
0
100
AcDbBlockBegin
  2
SEANNOT_GROUP2
 70
     0
 71
     0
 10
0.0
 20
0.0
 30
0.0
  3
SEANNOT_GROUP2
  1

  0
LINE
  5
38
330
36
100
AcDbEntity
  8
Standard
  6
CENTER2
 62
     7
 48
25.4
100
AcDbLine
 10
151.020506338
 20
130.9187420158
 30
0.0
 11
151.020506338
 21
155.8776211639
 31
0.0
  0
ENDBLK
  5
3A
330
36
100
AcDbEntity
  8
0
100
AcDbBlockEnd
  0
BLOCK
  5
3E
330
3B
100
AcDbEntity
  8
0
100
AcDbBlockBegin
  2
SEANNOT_GROUP3
 70
     0
 71
     0
 10
0.0
 20
0.0
 30
0.0
  3
SEANNOT_GROUP3
  1

  0
LINE
  5
3D
330
3B
100
AcDbEntity
  8
Standard
  6
CENTER2
 62
     7
 48
25.4
100
AcDbLine
 10
132.020506338
 20
171.2045770431
 30
0.0
 11
132.020506338
 21
224.705795389
 31
0.0
  0
ENDBLK
  5
3F
330
3B
100
AcDbEntity
  8
0
100
AcDbBlockEnd
  0
BLOCK
  5
57
330
42
100
AcDbEntity
  8
0
100
AcDbBlockBegin
  2
SE
 70
     0
 71
     0
 10
0.0
 20
0.0
 30
0.0
  3
SE
  1

  0
ARC
  5
45
330
42
100
AcDbEntity
  8
DV1_Standard
  6
Continuous
 62
     7
 48
25.4
100
AcDbCircle
 10
132.0205069349
 20
197.955180037
 30
0.0
 40
25.99999379221858
100
AcDbArc
 50
264.4822630076
 51
275.5177343738
  0
LINE
  5
47
330
42
100
AcDbEntity
  8
MEGA_012289
  6
Continuous
 62
     7
 48
25.4
100
AcDbLine
 10
107.019897165
 20
171.9551862161
 30
0.0
 11
129.520506338
 21
171.9551862161
 31
0.0
  0
LINE
  5
48
330
42
100
AcDbEntity
  8
MEGA_012289
  6
Continuous
 62
     7
 48
25.4
100
AcDbLine
 10
157.021115511
 20
223.9551862161
 30
0.0
 11
107.019897165
 21
223.9551862161
 31
0.0
  0
LINE
  5
49
330
42
100
AcDbEntity
  8
MEGA_012289
  6
Continuous
 62
     7
 48
25.4
100
AcDbLine
 10
158.020506338
 20
172.9545770431
 30
0.0
 11
158.020506338
 21
222.955795389
 31
0.0
  0
LINE
  5
4A
330
42
100
AcDbEntity
  8
MEGA_012289
  6
Continuous
 62
     7
 48
25.4
100
AcDbLine
 10
106.020506338
 20
222.955795389
 30
0.0
 11
106.020506338
 21
172.9545770431
 31
0.0
  0
ELLIPSE
  5
4B
330
42
100
AcDbEntity
  8
MEGA_012289
  6
Continuous
 62
     7
 48
25.4
100
AcDbEllipse
 10
157.0198967937
 20
222.9545766718
 30
0.0
 11
-0.7079685445991905
 21
-0.7079685445991905
 31
0.0
210
0.0
220
0.0
230
1.0
 40
0.998782766
 41
2.356803477777919
 42
3.926381829401667
  0
ELLIPSE
  5
4C
330
42
100
AcDbEntity
  8
MEGA_012289
  6
Continuous
 62
     7
 48
25.4
100
AcDbEllipse
 10
157.0198967937
 20
172.9557957604
 30
0.0
 11
-0.7079685445991905
 21
0.7079685445991905
 31
0.0
210
0.0
220
0.0
230
1.0
 40
0.998782766
 41
2.356803477777976
 42
3.92638182940161
  0
ELLIPSE
  5
4D
330
42
100
AcDbEntity
  8
MEGA_012289
  6
Continuous
 62
     7
 48
25.4
100
AcDbEllipse
 10
107.0211158823
 20
222.9545766718
 30
0.0
 11
0.7079685445991905
 21
-0.7079685445991905
 31
0.0
210
0.0
220
0.0
230
1.0
 40
0.998782766
 41
2.356803477777933
 42
3.926381829401653
  0
ELLIPSE
  5
4E
330
42
100
AcDbEntity
  8
MEGA_012289
  6
Continuous
 62
     7
 48
25.4
100
AcDbEllipse
 10
107.0211158823
 20
172.9557957604
 30
0.0
 11
0.7079685445991905
 21
0.7079685445991905
 31
0.0
210
0.0
220
0.0
230
1.0
 40
0.998782766
 41
2.356803477777962
 42
3.926381829401596
  0
LINE
  5
4F
330
42
100
AcDbEntity
  8
MEGA_012289
  6
Continuous
 62
     7
 48
25.4
100
AcDbLine
 10
134.520506338
 20
171.9551862161
 30
0.0
 11
157.021115511
 21
171.9551862161
 31
0.0
  0
LINE
  5
50
330
42
100
AcDbEntity
  8
MEGA_012289
  6
Continuous
 62
     7
 48
25.4
100
AcDbLine
 10
129.6954836651
 20
172.025027755
 30
0.0
 11
134.345529011
 21
172.025027755
 31
0.0
  0
LINE
  5
51
330
42
100
AcDbEntity
  8
MEGA_012289
  6
Continuous
 62
     7
 48
25.4
100
AcDbLine
 10
134.520506338
 20
171.9551862161
 30
0.0
 11
134.345529011
 21
172.025027755
 31
0.0
  0
LINE
  5
52
330
42
100
AcDbEntity
  8
MEGA_012289
  6
Continuous
 62
     7
 48
25.4
100
AcDbLine
 10
129.6954836651
 20
172.025027755
 30
0.0
 11
129.520506338
 21
171.9551862161
 31
0.0
  0
CIRCLE
  5
53
330
42
100
AcDbEntity
  8
MEGA_012289
  6
Continuous
 62
     7
 48
25.4
100
AcDbCircle
 10
132.020506338
 20
204.4551862161
 30
0.0
 40
11.15
  0
ENDBLK
  5
58
330
42
100
AcDbEntity
  8
0
100
AcDbBlockEnd
  0
BLOCK
  5
75
330
59
100
AcDbEntity
  8
0
100
AcDbBlockBegin
  2
SE1
 70
     0
 71
     0
 10
0.0
 20
0.0
 30
0.0
  3
SE1
  1

  0
LINE
  5
5B
330
59
100
AcDbEntity
  8
MEGA_012289
  6
Continuous
 62
     7
 48
25.4
100
AcDbLine
 10
157.021115511
 20
134.0357305472
 30
0.0
 11
107.019897165
 21
134.0357305472
 31
0.0
  0
LINE
  5
5C
330
59
100
AcDbEntity
  8
MEGA_012289
  6
Continuous
 62
     7
 48
25.4
100
AcDbLine
 10
157.021115511
 20
134.0357305472
 30
0.0
 11
158.020506338
 21
134.0357305472
 31
0.0
  0
LINE
  5
5D
330
59
100
AcDbEntity
  8
MEGA_012289
  6
Continuous
 62
     7
 48
25.4
100
AcDbLine
 10
106.020506338
 20
134.0357305472
 30
0.0
 11
107.019897165
 21
134.0357305472
 31
0.0
  0
LINE
  5
5E
330
59
100
AcDbEntity
  8
MEGA_012289
  6
Continuous
 62
     7
 48
25.4
100
AcDbLine
 10
106.2137892875
 20
128.5008310505
 30
0.0
 11
106.020506338
 21
134.0357305472
 31
0.0
  0
LINE
  5
5F
330
59
100
AcDbEntity
  8
MEGA_012289
  6
Continuous
 62
     7
 48
25.4
100
AcDbLine
 10
156.8278325615
 20
127.5357305472
 30
0.0
 11
107.2131801145
 21
127.5357305472
 31
0.0
  0
LINE
  5
60
330
59
100
AcDbEntity
  8
MEGA_012289
  6
Continuous
 62
     7
 48
25.4
100
AcDbLine
 10
158.020506338
 20
134.0357305472
 30
0.0
 11
157.8272233885
 21
128.5008310505
 31
0.0
  0
ARC
  5
61
330
59
100
AcDbEntity
  8
MEGA_012289
  6
Continuous
 62
     7
 48
25.4
100
AcDbCircle
 10
156.8278325615
 20
128.5357305472
 30
0.0
 40
0.9999999999999957
100
AcDbArc
 50
270.0
 51
358.0
  0
ARC
  5
62
330
59
100
AcDbEntity
  8
MEGA_012289
  6
Continuous
 62
     7
 48
25.4
100
AcDbCircle
 10
107.2131801145
 20
128.5357305472
 30
0.0
 40
1.0
100
AcDbArc
 50
182.0
 51
270.0
  0
LINE
  5
64
330
59
100
AcDbEntity
  8
MEGA_001429
  6
Continuous
 62
     7
 48
25.4
100
AcDbLine
 10
148.1779545729
 20
139.0357305472
 30
0.0
 11
153.8630581032
 21
139.0357305472
 31
0.0
  0
LINE
  5
65
330
59
100
AcDbEntity
  8
MEGA_001429
  6
Continuous
 62
     7
 48
25.4
100
AcDbLine
 10
110.1779545729
 20
139.0357305472
 30
0.0
 11
115.8630581032
 21
139.0357305472
 31
0.0
  0
LINE
  5
66
330
59
100
AcDbEntity
  8
MEGA_001429
  6
Continuous
 62
     7
 48
25.4
100
AcDbLine
 10
154.5036553119
 20
134.5182807988
 30
0.0
 11
154.3627535167
 21
138.5531802955
 31
0.0
  0
LINE
  5
67
330
59
100
AcDbEntity
  8
MEGA_001429
  6
Continuous
 62
     7
 48
25.4
100
AcDbLine
 10
147.6782591594
 20
138.5531802955
 30
0.0
 11
147.5373573641
 21
134.5182807988
 31
0.0
  0
LINE
  5
68
330
59
100
AcDbEntity
  8
MEGA_001429
  6
Continuous
 62
     7
 48
25.4
100
AcDbLine
 10
116.5036553119
 20
134.5182807988
 30
0.0
 11
116.3627535167
 21
138.5531802955
 31
0.0
  0
LINE
  5
69
330
59
100
AcDbEntity
  8
MEGA_001429
  6
Continuous
 62
     7
 48
25.4
100
AcDbLine
 10
109.6782591594
 20
138.5531802955
 30
0.0
 11
109.5373573641
 21
134.5182807988
 31
0.0
  0
ARC
  5
6A
330
59
100
AcDbEntity
  8
MEGA_001429
  6
Continuous
 62
     7
 48
25.4
100
AcDbCircle
 10
155.0033507254
 20
134.5357305472
 30
0.0
 40
0.5
100
AcDbArc
 50
182.0
 51
270.0
  0
ARC
  5
6B
330
59
100
AcDbEntity
  8
MEGA_001429
  6
Continuous
 62
     7
 48
25.4
100
AcDbCircle
 10
147.0376619506
 20
134.5357305472
 30
0.0
 40
0.5000000000000013
100
AcDbArc
 50
270.0
 51
358.0
  0
ARC
  5
6C
330
59
100
AcDbEntity
  8
MEGA_001429
  6
Continuous
 62
     7
 48
25.4
100
AcDbCircle
 10
148.1779545729
 20
138.5357305472
 30
0.0
 40
0.5000000000000004
100
AcDbArc
 50
90.0
 51
178.0
  0
ARC
  5
6D
330
59
100
AcDbEntity
  8
MEGA_001429
  6
Continuous
 62
     7
 48
25.4
100
AcDbCircle
 10
153.8630581032
 20
138.5357305472
 30
0.0
 40
0.4999999999999996
100
AcDbArc
 50
2.0
 51
90.0
  0
ARC
  5
6E
330
59
100
AcDbEntity
  8
MEGA_001429
  6
Continuous
 62
     7
 48
25.4
100
AcDbCircle
 10
110.1779545729
 20
138.5357305472
 30
0.0
 40
0.5000000000000004
100
AcDbArc
 50
90.0
 51
178.0
  0
ARC
  5
6F
330
59
100
AcDbEntity
  8
MEGA_001429
  6
Continuous
 62
     7
 48
25.4
100
AcDbCircle
 10
115.8630581032
 20
138.5357305472
 30
0.0
 40
0.4999999999999996
100
AcDbArc
 50
2.0
 51
90.0
  0
ARC
  5
70
330
59
100
AcDbEntity
  8
MEGA_001429
  6
Continuous
 62
     7
 48
25.4
100
AcDbCircle
 10
117.0033507254
 20
134.5357305472
 30
0.0
 40
0.5
100
AcDbArc
 50
182.0
 51
270.0
  0
ARC
  5
71
330
59
100
AcDbEntity
  8
MEGA_001429
  6
Continuous
 62
     7
 48
25.4
100
AcDbCircle
 10
109.0376619506
 20
134.5357305472
 30
0.0
 40
0.4999999999999996
100
AcDbArc
 50
270.0
 51
358.0
  0
ENDBLK
  5
76
330
59
100
AcDbEntity
  8
0
100
AcDbBlockEnd
  0
BLOCK
  5
8E
330
77
100
AcDbEntity
  8
0
100
AcDbBlockBegin
  2
SE2
 70
     0
 71
     0
 10
0.0
 20
0.0
 30
0.0
  3
SE2
  1

  0
LINE
  5
7A
330
77
100
AcDbEntity
  8
DV3_Standard
  6
Continuous
 62
     7
 48
25.4
100
AcDbLine
 10
65.5928234327
 20
172.1301635431
 30
0.0
 11
67.5928234327
 21
171.9551862161
 31
0.0
  0
LINE
  5
7B
330
77
100
AcDbEntity
  8
MEGA_012289
  6
Continuous
 62
     7
 48
25.4
100
AcDbLine
 10
67.5928234327
 20
171.9551862161
 30
0.0
 11
62.057923936
 21
172.1484691655
 31
0.0
  0
LINE
  5
7C
330
77
100
AcDbEntity
  8
MEGA_012289
  6
Continuous
 62
     7
 48
25.4
100
AcDbLine
 10
67.5928234327
 20
172.9545770431
 30
0.0
 11
67.5928234327
 21
222.955795389
 31
0.0
  0
LINE
  5
7D
330
77
100
AcDbEntity
  8
MEGA_012289
  6
Continuous
 62
     7
 48
25.4
100
AcDbLine
 10
67.5928234327
 20
223.9551862161
 30
0.0
 11
67.5928234327
 21
222.955795389
 31
0.0
  0
LINE
  5
7E
330
77
100
AcDbEntity
  8
MEGA_012289
  6
Continuous
 62
     7
 48
25.4
100
AcDbLine
 10
67.5928234327
 20
172.9545770431
 30
0.0
 11
67.5928234327
 21
171.9551862161
 31
0.0
  0
LINE
  5
7F
330
77
100
AcDbEntity
  8
MEGA_012289
  6
Continuous
 62
     7
 48
25.4
100
AcDbLine
 10
62.057923936
 20
223.7619032666
 30
0.0
 11
67.5928234327
 21
223.9551862161
 31
0.0
  0
LINE
  5
80
330
77
100
AcDbEntity
  8
MEGA_012289
  6
Continuous
 62
     7
 48
25.4
100
AcDbLine
 10
61.0928234327
 20
173.1478599926
 30
0.0
 11
61.0928234327
 21
222.7625124395
 31
0.0
  0
ARC
  5
81
330
77
100
AcDbEntity
  8
MEGA_012289
  6
Continuous
 62
     7
 48
25.4
100
AcDbCircle
 10
62.0928234327
 20
222.7625124395
 30
0.0
 40
1.0
100
AcDbArc
 50
92.0
 51
180.0
  0
ARC
  5
82
330
77
100
AcDbEntity
  8
MEGA_012289
  6
Continuous
 62
     7
 48
25.4
100
AcDbCircle
 10
62.0928234327
 20
173.1478599926
 30
0.0
 40
0.9999999999999957
100
AcDbArc
 50
180.0
 51
268.0
  0
LINE
  5
83
330
77
100
AcDbEntity
  8
MEGA_012289
  6
Continuous
 62
     7
 48
25.4
100
AcDbLine
 10
65.5928234327
 20
172.025027755
 30
0.0
 11
67.0881007466
 21
171.9728115206
 31
0.0
  0
LINE
  5
84
330
77
100
AcDbEntity
  8
MEGA_001429
  6
Continuous
 62
     7
 48
25.4
100
AcDbLine
 10
72.5928234327
 20
195.1126344509
 30
0.0
 11
72.5928234327
 21
200.7977379812
 31
0.0
  0
LINE
  5
85
330
77
100
AcDbEntity
  8
MEGA_001429
  6
Continuous
 62
     7
 48
25.4
100
AcDbLine
 10
68.0753736843
 20
194.4720372422
 30
0.0
 11
72.1102731811
 21
194.6129390374
 31
0.0
  0
LINE
  5
86
330
77
100
AcDbEntity
  8
MEGA_001429
  6
Continuous
 62
     7
 48
25.4
100
AcDbLine
 10
72.1102731811
 20
201.2974333947
 30
0.0
 11
68.0753736843
 21
201.4383351899
 31
0.0
  0
ARC
  5
87
330
77
100
AcDbEntity
  8
MEGA_001429
  6
Continuous
 62
     7
 48
25.4
100
AcDbCircle
 10
68.0928234327
 20
193.9723418286
 30
0.0
 40
0.5
100
AcDbArc
 50
92.0
 51
180.0
  0
ARC
  5
88
330
77
100
AcDbEntity
  8
MEGA_001429
  6
Continuous
 62
     7
 48
25.4
100
AcDbCircle
 10
68.0928234327
 20
201.9380306035
 30
0.0
 40
0.5000000000000004
100
AcDbArc
 50
180.0
 51
268.0
  0
ARC
  5
89
330
77
100
AcDbEntity
  8
MEGA_001429
  6
Continuous
 62
     7
 48
25.4
100
AcDbCircle
 10
72.0928234327
 20
200.7977379812
 30
0.0
 40
0.5000000000000004
100
AcDbArc
 50
0.0
 51
88.0
  0
ARC
  5
8A
330
77
100
AcDbEntity
  8
MEGA_001429
  6
Continuous
 62
     7
 48
25.4
100
AcDbCircle
 10
72.0928234327
 20
195.1126344509
 30
0.0
 40
0.4999999999999996
100
AcDbArc
 50
272.0
 51
360.0
  0
ENDBLK
  5
8F
330
77
100
AcDbEntity
  8
0
100
AcDbBlockEnd
  0
BLOCK
  5
9C
330
90
100
AcDbEntity
  8
0
100
AcDbBlockBegin
  2
GDimGGroup
 70
     0
 71
     0
 10
0.0
 20
0.0
 30
0.0
  3
GDimGGroup
  1

  0
HATCH
  5
92
330
90
100
AcDbEntity
  8
Standard
  6
Continuous
 62
   176
 48
25.4
100
AcDbHatch
 10
0.0
 20
0.0
 30
0.0
210
0.0
220
0.0
230
1.0
  2
SOLID
 70
     1
 71
     0
 91
        1
 92
        1
 93
        3
 72
     1
 10
86.09851118047189
 20
174.9551862421297
 11
85.09851117177954
 21
174.9551862421297
 72
     1
 10
85.09851117177954
 20
174.9551862421297
 11
85.59851117612571
 21
171.9551862160527
 72
     1
 10
85.59851117612571
 20
171.9551862160527
 11
86.09851118047189
 21
174.9551862421297
 97
        0
 75
     0
 76
     1
 98
        0
  0
LWPOLYLINE
  5
93
330
90
100
AcDbEntity
  8
Standard
  6
Continuous
 62
   176
 48
25.4
370
     9
100
AcDbPolyline
 90
        4
 70
     1
 43
0.0
 10
86.0985111805
 20
174.9551862421
 10
85.5985111761
 20
171.9551862161
 10
85.0985111718
 20
174.9551862421
 10
86.0985111805
 20
174.9551862421
  0
HATCH
  5
94
330
90
100
AcDbEntity
  8
Standard
  6
Continuous
 62
   176
 48
25.4
100
AcDbHatch
 10
0.0
 20
0.0
 30
0.0
210
0.0
220
0.0
230
1.0
  2
SOLID
 70
     1
 71
     0
 91
        1
 92
        1
 93
        3
 72
     1
 10
86.09851118047189
 20
220.9551872628592
 11
85.59851117612571
 21
223.9551872889363
 72
     1
 10
85.59851117612571
 20
223.9551872889363
 11
85.09851117177954
 21
220.9551872628592
 72
     1
 10
85.09851117177954
 20
220.9551872628592
 11
86.09851118047189
 21
220.9551872628592
 97
        0
 75
     0
 76
     1
 98
        0
  0
LWPOLYLINE
  5
95
330
90
100
AcDbEntity
  8
Standard
  6
Continuous
 62
   176
 48
25.4
370
     9
100
AcDbPolyline
 90
        4
 70
     1
 43
0.0
 10
86.0985111805
 20
220.9551872629
 10
85.5985111761
 20
223.9551872889
 10
85.0985111718
 20
220.9551872629
 10
86.0985111805
 20
220.9551872629
  0
LINE
  5
96
330
90
100
AcDbEntity
  8
Standard
  6
Continuous
 62
     7
 48
25.4
100
AcDbLine
 10
67.5928234327
 20
171.9551862161
 30
0.0
 11
87.0985111892
 21
171.9551862161
 31
0.0
  0
LINE
  5
97
330
90
100
AcDbEntity
  8
Standard
  6
Continuous
 62
     7
 48
25.4
100
AcDbLine
 10
67.5928234327
 20
223.9551862161
 30
0.0
 11
87.0985111892
 21
223.9551862161
 31
0.0
  0
LINE
  5
98
330
90
100
AcDbEntity
  8
Standard
  6
Continuous
 62
     7
 48
25.4
100
AcDbLine
 10
85.5985111761
 20
171.9551862161
 30
0.0
 11
85.5985111761
 21
223.9551872889
 31
0.0
  0
TEXT
  5
99
330
90
100
AcDbEntity
  8
Standard
  6
Continuous
 62
     7
 48
25.4
100
AcDbText
 10
84.8485111761
 20
198.0355162483
 30
0.0
 40
3.0
  1
52
 50
90.0
  7
SEACAD_seiso_ttf
 11
81.8485111761
 21
198.0355162483
 31
0.0
100
AcDbText
 73
     3
  0
TEXT
  5
9B
330
90
100
AcDbEntity
  8
Standard
  6
Continuous
 62
     7
 48
25.4
100
AcDbText
 10
84.8485111761
 20
194.3294027112
 30
0.0
 40
3.0
  1
q
 50
90.0
  7
SEACAD_semeci1_ttf
 11
81.8485111761
 21
194.3294027112
 31
0.0
100
AcDbText
 73
     3
  0
ENDBLK
  5
9D
330
90
100
AcDbEntity
  8
0
100
AcDbBlockEnd
  0
BLOCK
  5
A9
330
9E
100
AcDbEntity
  8
0
100
AcDbBlockBegin
  2
GDimGGroup1
 70
     0
 71
     0
 10
0.0
 20
0.0
 30
0.0
  3
GDimGGroup1
  1

  0
HATCH
  5
A0
330
9E
100
AcDbEntity
  8
Standard
  6
Continuous
 62
   176
 48
25.4
100
AcDbHatch
 10
0.0
 20
0.0
 30
0.0
210
0.0
220
0.0
230
1.0
  2
SOLID
 70
     1
 71
     0
 91
        1
 92
        1
 93
        3
 72
     1
 10
106.695110159402
 20
147.4420715454754
 11
106.695110159402
 21
146.4420715367831
 72
     1
 10
106.695110159402
 20
146.4420715367831
 11
109.695110185479
 21
146.9420715411292
 72
     1
 10
109.695110185479
 20
146.9420715411292
 11
106.695110159402
 21
147.4420715454754
 97
        0
 75
     0
 76
     1
 98
        0
  0
LWPOLYLINE
  5
A1
330
9E
100
AcDbEntity
  8
Standard
  6
Continuous
 62
   176
 48
25.4
370
     9
100
AcDbPolyline
 90
        4
 70
     1
 43
0.0
 10
106.6951101594
 20
147.4420715455
 10
109.6951101855
 20
146.9420715411
 10
106.6951101594
 20
146.4420715368
 10
106.6951101594
 20
147.4420715455
  0
HATCH
  5
A2
330
9E
100
AcDbEntity
  8
Standard
  6
Continuous
 62
   176
 48
25.4
100
AcDbHatch
 10
0.0
 20
0.0
 30
0.0
210
0.0
220
0.0
230
1.0
  2
SOLID
 70
     1
 71
     0
 91
        1
 92
        1
 93
        3
 72
     1
 10
119.3459025166385
 20
147.4420715454754
 11
116.3459024905615
 21
146.9420715411292
 72
     1
 10
116.3459024905615
 20
146.9420715411292
 11
119.3459025166385
 21
146.4420715367831
 72
     1
 10
119.3459025166385
 20
146.4420715367831
 11
119.3459025166385
 21
147.4420715454754
 97
        0
 75
     0
 76
     1
 98
        0
  0
LWPOLYLINE
  5
A3
330
9E
100
AcDbEntity
  8
Standard
  6
Continuous
 62
   176
 48
25.4
370
     9
100
AcDbPolyline
 90
        4
 70
     1
 43
0.0
 10
119.3459025166
 20
147.4420715455
 10
116.3459024906
 20
146.9420715411
 10
119.3459025166
 20
146.4420715368
 10
119.3459025166
 20
147.4420715455
  0
LINE
  5
A4
330
9E
100
AcDbEntity
  8
Standard
  6
Continuous
 62
     7
 48
25.4
100
AcDbLine
 10
109.6951101855
 20
139.0357305472
 30
0.0
 11
109.6951101855
 21
148.4420715542
 31
0.0
  0
LINE
  5
A5
330
9E
100
AcDbEntity
  8
Standard
  6
Continuous
 62
     7
 48
25.4
100
AcDbLine
 10
116.3459024906
 20
139.0357305472
 30
0.0
 11
116.3459024906
 21
148.4420715542
 31
0.0
  0
LINE
  5
A6
330
9E
100
AcDbEntity
  8
Standard
  6
Continuous
 62
     7
 48
25.4
100
AcDbLine
 10
99.1516473651
 20
146.9420715411
 30
0.0
 11
122.3459026724
 21
146.9420715411
 31
0.0
  0
TEXT
  5
A7
330
9E
100
AcDbEntity
  8
Standard
  6
Continuous
 62
     7
 48
25.4
100
AcDbText
 10
103.842258476
 20
147.6920715411
 30
0.0
 40
3.0
  1
7
  7
SEACAD_seiso_ttf
 11
103.842258476
 21
150.6920715411
 31
0.0
100
AcDbText
 73
     3
  0
TEXT
  5
A8
330
9E
100
AcDbEntity
  8
Standard
  6
Continuous
 62
     7
 48
25.4
100
AcDbText
 10
100.2016471223
 20
147.6920715411
 30
0.0
 40
3.0
  1
O
  7
SEACAD_semeci1_ttf
 11
100.2016471223
 21
150.6920715411
 31
0.0
100
AcDbText
 73
     3
  0
ENDBLK
  5
AA
330
9E
100
AcDbEntity
  8
0
100
AcDbBlockEnd
  0
BLOCK
  5
B5
330
AB
100
AcDbEntity
  8
0
100
AcDbBlockBegin
  2
GDimGGroup2
 70
     0
 71
     0
 10
0.0
 20
0.0
 30
0.0
  3
GDimGGroup2
  1

  0
HATCH
  5
AD
330
AB
100
AcDbEntity
  8
Standard
  6
Continuous
 62
   176
 48
25.4
100
AcDbHatch
 10
0.0
 20
0.0
 30
0.0
210
0.0
220
0.0
230
1.0
  2
SOLID
 70
     1
 71
     0
 91
        1
 92
        1
 93
        3
 72
     1
 10
116.0205063640973
 20
156.3776208419141
 11
113.0205063380202
 21
155.8776208375679
 72
     1
 10
113.0205063380202
 20
155.8776208375679
 11
116.0205063640973
 21
155.3776208332218
 72
     1
 10
116.0205063640973
 20
155.3776208332218
 11
116.0205063640973
 21
156.3776208419141
 97
        0
 75
     0
 76
     1
 98
        0
  0
LWPOLYLINE
  5
AE
330
AB
100
AcDbEntity
  8
Standard
  6
Continuous
 62
   176
 48
25.4
370
     9
100
AcDbPolyline
 90
        4
 70
     1
 43
0.0
 10
116.0205063641
 20
156.3776208419
 10
113.020506338
 20
155.8776208376
 10
116.0205063641
 20
155.3776208332
 10
116.0205063641
 20
156.3776208419
  0
HATCH
  5
AF
330
AB
100
AcDbEntity
  8
Standard
  6
Continuous
 62
   176
 48
25.4
100
AcDbHatch
 10
0.0
 20
0.0
 30
0.0
210
0.0
220
0.0
230
1.0
  2
SOLID
 70
     1
 71
     0
 91
        1
 92
        1
 93
        3
 72
     1
 10
148.020505090048
 20
156.3776208419141
 11
148.020505090048
 21
155.3776208332218
 72
     1
 10
148.020505090048
 20
155.3776208332218
 11
151.020505116125
 21
155.8776208375679
 72
     1
 10
151.020505116125
 20
155.8776208375679
 11
148.020505090048
 21
156.3776208419141
 97
        0
 75
     0
 76
     1
 98
        0
  0
LWPOLYLINE
  5
B0
330
AB
100
AcDbEntity
  8
Standard
  6
Continuous
 62
   176
 48
25.4
370
     9
100
AcDbPolyline
 90
        4
 70
     1
 43
0.0
 10
148.02050509
 20
156.3776208419
 10
151.0205051161
 20
155.8776208376
 10
148.02050509
 20
155.3776208332
 10
148.02050509
 20
156.3776208419
  0
LINE
  5
B1
330
AB
100
AcDbEntity
  8
Standard
  6
Continuous
 62
     7
 48
25.4
100
AcDbLine
 10
113.020506338
 20
151.7176869501
 30
0.0
 11
113.020506338
 21
157.3776208506
 31
0.0
  0
LINE
  5
B2
330
AB
100
AcDbEntity
  8
Standard
  6
Continuous
 62
     7
 48
25.4
100
AcDbLine
 10
151.020506338
 20
155.1842996095
 30
0.0
 11
151.020506338
 21
157.3776208506
 31
0.0
  0
LINE
  5
B3
330
AB
100
AcDbEntity
  8
Standard
  6
Continuous
 62
     7
 48
25.4
100
AcDbLine
 10
113.020506338
 20
155.8776208376
 30
0.0
 11
151.0205051161
 21
155.8776208376
 31
0.0
  0
TEXT
  5
B4
330
AB
100
AcDbEntity
  8
Standard
  6
Continuous
 62
     7
 48
25.4
100
AcDbText
 10
130.2818693634
 20
156.6276208376
 30
0.0
 40
3.0
  1
38
  7
SEACAD_seiso_ttf
 11
130.2818693634
 21
159.6276208376
 31
0.0
100
AcDbText
 73
     3
  0
ENDBLK
  5
B6
330
AB
100
AcDbEntity
  8
0
100
AcDbBlockEnd
  0
BLOCK
  5
C0
330
B7
100
AcDbEntity
  8
0
100
AcDbBlockBegin
  2
GDimGGroup3
 70
     0
 71
     0
 10
0.0
 20
0.0
 30
0.0
  3
GDimGGroup3
  1

  0
HATCH
  5
B9
330
B7
100
AcDbEntity
  8
Standard
  6
Continuous
 62
   176
 48
25.4
100
AcDbHatch
 10
0.0
 20
0.0
 30
0.0
210
0.0
220
0.0
230
1.0
  2
SOLID
 70
     1
 71
     0
 91
        1
 92
        1
 93
        1
 72
     3
 10
94.79413236145095
 20
134.0357305471884
 11
1.000000008692339
 21
0.0
 40
1.0
 50
0.0
 51
360.0
 73
     1
 97
        0
 75
     0
 76
     1
 98
        0
  0
HATCH
  5
BA
330
B7
100
AcDbEntity
  8
Standard
  6
Continuous
 62
   176
 48
25.4
100
AcDbHatch
 10
0.0
 20
0.0
 30
0.0
210
0.0
220
0.0
230
1.0
  2
SOLID
 70
     1
 71
     0
 91
        1
 92
        1
 93
        3
 72
     1
 10
94.29413235710477
 20
142.0357305732654
 11
94.79413236145095
 21
139.0357305471884
 72
     1
 10
94.79413236145095
 20
139.0357305471884
 11
95.29413236579713
 21
142.0357305732654
 72
     1
 10
95.29413236579713
 20
142.0357305732654
 11
94.29413235710477
 21
142.0357305732654
 97
        0
 75
     0
 76
     1
 98
        0
  0
LWPOLYLINE
  5
BB
330
B7
100
AcDbEntity
  8
Standard
  6
Continuous
 62
   176
 48
25.4
370
     9
100
AcDbPolyline
 90
        4
 70
     1
 43
0.0
 10
94.2941323571
 20
142.0357305733
 10
94.7941323615
 20
139.0357305472
 10
95.2941323658
 20
142.0357305733
 10
94.2941323571
 20
142.0357305733
  0
LINE
  5
BC
330
B7
100
AcDbEntity
  8
Standard
  6
Continuous
 62
     7
 48
25.4
100
AcDbLine
 10
107.019897165
 20
134.0357305472
 30
0.0
 11
93.2941323484
 21
134.0357305472
 31
0.0
  0
LINE
  5
BD
330
B7
100
AcDbEntity
  8
Standard
  6
Continuous
 62
     7
 48
25.4
100
AcDbLine
 10
113.020506338
 20
139.0357305472
 30
0.0
 11
93.2941323484
 21
139.0357305472
 31
0.0
  0
LINE
  5
BE
330
B7
100
AcDbEntity
  8
Standard
  6
Continuous
 62
     7
 48
25.4
100
AcDbLine
 10
94.7941323615
 20
128.035730495
 30
0.0
 11
94.7941323615
 21
146.2222317224
 31
0.0
  0
TEXT
  5
BF
330
B7
100
AcDbEntity
  8
Standard
  6
Continuous
 62
     7
 48
25.4
100
AcDbText
 10
94.0441323615
 20
143.4676868041
 30
0.0
 40
3.0
  1
5
 50
90.0
  7
SEACAD_seiso_ttf
 11
91.0441323615
 21
143.4676868041
 31
0.0
100
AcDbText
 73
     3
  0
ENDBLK
  5
C1
330
B7
100
AcDbEntity
  8
0
100
AcDbBlockEnd
  0
BLOCK
  5
CB
330
C2
100
AcDbEntity
  8
0
100
AcDbBlockBegin
  2
GDimGGroup4
 70
     0
 71
     0
 10
0.0
 20
0.0
 30
0.0
  3
GDimGGroup4
  1

  0
HATCH
  5
C4
330
C2
100
AcDbEntity
  8
Standard
  6
Continuous
 62
   176
 48
25.4
100
AcDbHatch
 10
0.0
 20
0.0
 30
0.0
210
0.0
220
0.0
230
1.0
  2
SOLID
 70
     1
 71
     0
 91
        1
 92
        1
 93
        1
 72
     3
 10
94.79413236145095
 20
134.0357305471884
 11
1.000000008692339
 21
0.0
 40
1.0
 50
0.0
 51
360.0
 73
     1
 97
        0
 75
     0
 76
     1
 98
        0
  0
HATCH
  5
C5
330
C2
100
AcDbEntity
  8
Standard
  6
Continuous
 62
   176
 48
25.4
100
AcDbHatch
 10
0.0
 20
0.0
 30
0.0
210
0.0
220
0.0
230
1.0
  2
SOLID
 70
     1
 71
     0
 91
        1
 92
        1
 93
        3
 72
     1
 10
94.29413235710477
 20
124.5357305211114
 11
95.29413236579713
 21
124.5357305211114
 72
     1
 10
95.29413236579713
 20
124.5357305211114
 11
94.79413236145095
 21
127.5357305471884
 72
     1
 10
94.79413236145095
 20
127.5357305471884
 11
94.29413235710477
 21
124.5357305211114
 97
        0
 75
     0
 76
     1
 98
        0
  0
LWPOLYLINE
  5
C6
330
C2
100
AcDbEntity
  8
Standard
  6
Continuous
 62
   176
 48
25.4
370
     9
100
AcDbPolyline
 90
        4
 70
     1
 43
0.0
 10
94.2941323571
 20
124.5357305211
 10
94.7941323615
 20
127.5357305472
 10
95.2941323658
 20
124.5357305211
 10
94.2941323571
 20
124.5357305211
  0
LINE
  5
C7
330
C2
100
AcDbEntity
  8
Standard
  6
Continuous
 62
     7
 48
25.4
100
AcDbLine
 10
107.019897165
 20
134.0357305472
 30
0.0
 11
93.2941323484
 21
134.0357305472
 31
0.0
  0
LINE
  5
C8
330
C2
100
AcDbEntity
  8
Standard
  6
Continuous
 62
     7
 48
25.4
100
AcDbLine
 10
107.2131801145
 20
127.5357305472
 30
0.0
 11
93.2941323484
 21
127.5357305472
 31
0.0
  0
LINE
  5
C9
330
C2
100
AcDbEntity
  8
Standard
  6
Continuous
 62
     7
 48
25.4
100
AcDbLine
 10
94.7941323615
 20
140.0357305993
 30
0.0
 11
94.7941323615
 21
121.5357303609
 31
0.0
  0
TEXT
  5
CA
330
C2
100
AcDbEntity
  8
Standard
  6
Continuous
 62
     7
 48
25.4
100
AcDbText
 10
94.0441323615
 20
128.7402759347
 30
0.0
 40
3.0
  1
6,5
 50
90.0
  7
SEACAD_seiso_ttf
 11
91.0441323615
 21
128.7402759347
 31
0.0
100
AcDbText
 73
     3
  0
ENDBLK
  5
CC
330
C2
100
AcDbEntity
  8
0
100
AcDbBlockEnd
  0
ENDSEC
  0
SECTION
  2
ENTITIES
  0
INSERT
  5
2C
330
1F
100
AcDbEntity
  8
Standard
100
AcDbBlockReference
  2
SEANNOT_GROUP
 10
0.0
 20
0.0
 30
0.0
  0
INSERT
  5
32
330
1F
100
AcDbEntity
  8
Standard
100
AcDbBlockReference
  2
SEANNOT_GROUP1
 10
0.0
 20
0.0
 30
0.0
  0
INSERT
  5
37
330
1F
100
AcDbEntity
  8
Standard
100
AcDbBlockReference
  2
SEANNOT_GROUP2
 10
0.0
 20
0.0
 30
0.0
  0
INSERT
  5
3C
330
1F
100
AcDbEntity
  8
Standard
100
AcDbBlockReference
  2
SEANNOT_GROUP3
 10
0.0
 20
0.0
 30
0.0
  0
TEXT
  5
41
330
1F
100
AcDbEntity
  8
Standard
  6
Continuous
 62
     7
 48
25.4
100
AcDbText
 10
63.5100464027
 20
51.4874226826
 30
0.0
 40
5.0
  1
34.186
  7
SEACAD_seiso_ttf
 11
63.5100464027
 21
56.4874226826
 31
0.0
100
AcDbText
 73
     3
  0
INSERT
  5
43
102
{ACAD_XDICTIONARY
360
54
102
}
330
1F
100
AcDbEntity
  8
0
100
AcDbBlockReference
  2
SE
 10
0.0
 20
0.0
 30
0.0
  0
INSERT
  5
5A
102
{ACAD_XDICTIONARY
360
72
102
}
330
1F
100
AcDbEntity
  8
0
100
AcDbBlockReference
  2
SE1
 10
0.0
 20
0.0
 30
0.0
  0
INSERT
  5
78
102
{ACAD_XDICTIONARY
360
8B
102
}
330
1F
100
AcDbEntity
  8
0
100
AcDbBlockReference
  2
SE2
 10
0.0
 20
0.0
 30
0.0
  0
INSERT
  5
91
330
1F
100
AcDbEntity
  8
Standard
100
AcDbBlockReference
  2
GDimGGroup
 10
0.0
 20
0.0
 30
0.0
  0
INSERT
  5
9F
330
1F
100
AcDbEntity
  8
Standard
100
AcDbBlockReference
  2
GDimGGroup1
 10
0.0
 20
0.0
 30
0.0
  0
INSERT
  5
AC
330
1F
100
AcDbEntity
  8
Standard
100
AcDbBlockReference
  2
GDimGGroup2
 10
0.0
 20
0.0
 30
0.0
  0
INSERT
  5
B8
330
1F
100
AcDbEntity
  8
Standard
100
AcDbBlockReference
  2
GDimGGroup3
 10
0.0
 20
0.0
 30
0.0
  0
INSERT
  5
C3
330
1F
100
AcDbEntity
  8
Standard
100
AcDbBlockReference
  2
GDimGGroup4
 10
0.0
 20
0.0
 30
0.0
  0
ENDSEC
  0
SECTION
  2
OBJECTS
  0
DICTIONARY
  5
C
330
0
100
AcDbDictionary
281
     1
  3
ACAD_GROUP
350
D
  3
ACAD_LAYOUT
350
1A
  3
ACAD_MLINESTYLE
350
17
  3
ACAD_PLOTSETTINGS
350
19
  3
ACAD_PLOTSTYLENAME
350
E
  0
DICTIONARY
  5
54
330
43
100
AcDbDictionary
280
     1
281
     1
  3
ACAD_FILTER
360
55
  0
DICTIONARY
  5
72
330
5A
100
AcDbDictionary
280
     1
281
     1
  3
ACAD_FILTER
360
73
  0
DICTIONARY
  5
8B
330
78
100
AcDbDictionary
280
     1
281
     1
  3
ACAD_FILTER
360
8C
  0
DICTIONARY
  5
D
102
{ACAD_REACTORS
330
C
102
}
330
C
100
AcDbDictionary
281
     1
  0
DICTIONARY
  5
1A
102
{ACAD_REACTORS
330
C
102
}
330
C
100
AcDbDictionary
281
     1
  3
Layout1
350
1E
  3
Model
350
22
  0
DICTIONARY
  5
17
102
{ACAD_REACTORS
330
C
102
}
330
C
100
AcDbDictionary
281
     1
  3
Standard
350
18
  0
DICTIONARY
  5
19
102
{ACAD_REACTORS
330
C
102
}
330
C
100
AcDbDictionary
281
     1
  0
ACDBDICTIONARYWDFLT
  5
E
102
{ACAD_REACTORS
330
C
102
}
330
C
100
AcDbDictionary
281
     1
  3
Normal
350
F
100
AcDbDictionaryWithDefault
340
F
  0
DICTIONARY
  5
55
102
{ACAD_REACTORS
330
54
102
}
330
54
100
AcDbDictionary
281
     1
  3
SPATIAL
360
56
  0
DICTIONARY
  5
73
102
{ACAD_REACTORS
330
72
102
}
330
72
100
AcDbDictionary
281
     1
  3
SPATIAL
360
74
  0
DICTIONARY
  5
8C
102
{ACAD_REACTORS
330
8B
102
}
330
8B
100
AcDbDictionary
281
     1
  3
SPATIAL
360
8D
  0
LAYOUT
  5
1E
102
{ACAD_REACTORS
330
1A
102
}
330
1A
100
AcDbPlotSettings
  1

  2

  4

  6

 40
0.0
 41
0.0
 42
0.0
 43
0.0
 44
0.0
 45
0.0
 46
0.0
 47
0.0
 48
0.0
 49
0.0
140
0.0
141
0.0
142
1.0
143
1.0
 70
   688
 72
     0
 73
     0
 74
     5
  7

 75
    16
147
1.0
148
0.0
149
0.0
100
AcDbLayout
  1
Layout1
 70
     1
 71
     1
 10
0.0
 20
0.0
 11
210.0
 21
297.0
 12
0.0
 22
0.0
 32
0.0
 14
0.0
 24
0.0
 34
0.0
 15
210.0
 25
297.0
 35
0.0
146
0.0
 13
0.0
 23
0.0
 33
0.0
 16
1.0
 26
0.0
 36
0.0
 17
0.0
 27
1.0
 37
0.0
 76
     0
330
1B
  0
LAYOUT
  5
22
102
{ACAD_REACTORS
330
1A
102
}
330
1A
100
AcDbPlotSettings
  1

  2

  4

  6

 40
0.0
 41
0.0
 42
0.0
 43
0.0
 44
0.0
 45
0.0
 46
0.0
 47
0.0
 48
0.0
 49
0.0
140
0.0
141
0.0
142
1.0
143
1.0
 70
  1712
 72
     0
 73
     0
 74
     0
  7

 75
     0
147
1.0
148
0.0
149
0.0
100
AcDbLayout
  1
Model
 70
     1
 71
     0
 10
0.0
 20
0.0
 11
210.0
 21
297.0
 12
0.0
 22
0.0
 32
0.0
 14
0.0
 24
0.0
 34
0.0
 15
210.0
 25
297.0
 35
0.0
146
0.0
 13
0.0
 23
0.0
 33
0.0
 16
1.0
 26
0.0
 36
0.0
 17
0.0
 27
1.0
 37
0.0
 76
     0
330
1F
  0
MLINESTYLE
  5
18
102
{ACAD_REACTORS
330
17
102
}
330
17
100
AcDbMlineStyle
  2
Standard
 70
     0
  3

 62
   256
 51
90.0
 52
90.0
 71
     2
 49
0.5
 62
   256
  6
BYLAYER
 49
-0.5
 62
   256
  6
BYLAYER
  0
ACDBPLACEHOLDER
  5
F
102
{ACAD_REACTORS
330
E
102
}
330
E
  0
SPATIAL_FILTER
  5
56
102
{ACAD_REACTORS
330
55
102
}
330
55
100
AcDbFilter
100
AcDbSpatialFilter
 70
     2
 10
99.670506338
 20
165.6051862161
 10
164.370506338
 20
230.3051862161
210
0.0
220
0.0
230
1.0
 11
0.0
 21
0.0
 31
0.0
 71
     1
 72
     0
 73
     0
 40
1.0
 40
0.0
 40
0.0
 40
0.0
 40
0.0
 40
1.0
 40
0.0
 40
0.0
 40
0.0
 40
0.0
 40
1.0
 40
0.0
 40
1.0
 40
0.0
 40
0.0
 40
0.0
 40
0.0
 40
1.0
 40
0.0
 40
0.0
 40
0.0
 40
0.0
 40
1.0
 40
0.0
  0
SPATIAL_FILTER
  5
74
102
{ACAD_REACTORS
330
73
102
}
330
73
100
AcDbFilter
100
AcDbSpatialFilter
 70
     2
 10
99.670506338
 20
121.1857305472
 10
164.370506338
 20
145.3857305472
210
0.0
220
0.0
230
1.0
 11
0.0
 21
0.0
 31
0.0
 71
     1
 72
     0
 73
     0
 40
1.0
 40
0.0
 40
0.0
 40
0.0
 40
0.0
 40
1.0
 40
0.0
 40
0.0
 40
0.0
 40
0.0
 40
1.0
 40
0.0
 40
1.0
 40
0.0
 40
0.0
 40
0.0
 40
0.0
 40
1.0
 40
0.0
 40
0.0
 40
0.0
 40
0.0
 40
1.0
 40
0.0
  0
SPATIAL_FILTER
  5
8D
102
{ACAD_REACTORS
330
8C
102
}
330
8C
100
AcDbFilter
100
AcDbSpatialFilter
 70
     2
 10
54.7428234327
 20
165.6051862161
 10
78.9428234327
 20
230.3051862161
210
0.0
220
0.0
230
1.0
 11
0.0
 21
0.0
 31
0.0
 71
     1
 72
     0
 73
     0
 40
1.0
 40
0.0
 40
0.0
 40
0.0
 40
0.0
 40
1.0
 40
0.0
 40
0.0
 40
0.0
 40
0.0
 40
1.0
 40
0.0
 40
1.0
 40
0.0
 40
0.0
 40
0.0
 40
0.0
 40
1.0
 40
0.0
 40
0.0
 40
0.0
 40
0.0
 40
1.0
 40
0.0
  0
ENDSEC
  0
EOF
