  0
SECTION
  2
HEADER
  9
$ACADVER
  1
AC1015
  9
$ACADMAINTVER
 70
     6
  9
$DWGCODEPAGE
  3
ANSI_1252
  9
$INSBASE
 10
0.0
 20
0.0
 30
0.0
  9
$EXTMIN
 10
0.0
 20
0.0
 30
0.0
  9
$EXTMAX
 10
210.0
 20
297.0
 30
0.0
  9
$LIMMIN
 10
0.0
 20
0.0
  9
$LIMMAX
 10
210.0
 20
297.0
  9
$ORTHOMODE
 70
     0
  9
$REGENMODE
 70
     1
  9
$FILLMODE
 70
     1
  9
$QTEXTMODE
 70
     0
  9
$MIRRTEXT
 70
     1
  9
$LTSCALE
 40
1.0
  9
$ATTMODE
 70
     1
  9
$TEXTSIZE
 40
0.2
  9
$TRACEWID
 40
0.05
  9
$TEXTSTYLE
  7
Standard
  9
$CLAYER
  8
0
  9
$CELTYPE
  6
ByLayer
  9
$CECOLOR
 62
   256
  9
$CELTSCALE
 40
25.4
  9
$DISPSILH
 70
     0
  9
$DIMSCALE
 40
1.0
  9
$DIMASZ
 40
0.18
  9
$DIMEXO
 40
0.0625
  9
$DIMDLI
 40
0.38
  9
$DIMRND
 40
0.0
  9
$DIMDLE
 40
0.0
  9
$DIMEXE
 40
0.18
  9
$DIMTP
 40
0.0
  9
$DIMTM
 40
0.0
  9
$DIMTXT
 40
0.18
  9
$DIMCEN
 40
0.09
  9
$DIMTSZ
 40
0.0
  9
$DIMTOL
 70
     0
  9
$DIMLIM
 70
     0
  9
$DIMTIH
 70
     1
  9
$DIMTOH
 70
     1
  9
$DIMSE1
 70
     0
  9
$DIMSE2
 70
     0
  9
$DIMTAD
 70
     0
  9
$DIMZIN
 70
     0
  9
$DIMBLK
  1

  9
$DIMASO
 70
     1
  9
$DIMSHO
 70
     1
  9
$DIMPOST
  1

  9
$DIMAPOST
  1

  9
$DIMALT
 70
     0
  9
$DIMALTD
 70
     2
  9
$DIMALTF
 40
25.4
  9
$DIMLFAC
 40
1.0
  9
$DIMTOFL
 70
     0
  9
$DIMTVP
 40
0.0
  9
$DIMTIX
 70
     0
  9
$DIMSOXD
 70
     0
  9
$DIMSAH
 70
     0
  9
$DIMBLK1
  1

  9
$DIMBLK2
  1

  9
$DIMSTYLE
  2
Standard
  9
$DIMCLRD
 70
     0
  9
$DIMCLRE
 70
     0
  9
$DIMCLRT
 70
     0
  9
$DIMTFAC
 40
1.0
  9
$DIMGAP
 40
0.09
  9
$DIMJUST
 70
     0
  9
$DIMSD1
 70
     0
  9
$DIMSD2
 70
     0
  9
$DIMTOLJ
 70
     1
  9
$DIMTZIN
 70
     0
  9
$DIMALTZ
 70
     0
  9
$DIMALTTZ
 70
     0
  9
$DIMUPT
 70
     0
  9
$DIMDEC
 70
     4
  9
$DIMTDEC
 70
     4
  9
$DIMALTU
 70
     2
  9
$DIMALTTD
 70
     2
  9
$DIMTXSTY
  7
Standard
  9
$DIMAUNIT
 70
     0
  9
$DIMADEC
 70
     0
  9
$DIMALTRND
 40
0.0
  9
$DIMAZIN
 70
     0
  9
$DIMDSEP
 70
    46
  9
$DIMATFIT
 70
     3
  9
$DIMFRAC
 70
     0
  9
$DIMLDRBLK
  1

  9
$DIMLUNIT
 70
     2
  9
$DIMLWD
 70
    -2
  9
$DIMLWE
 70
    -2
  9
$DIMTMOVE
 70
     0
  9
$LUNITS
 70
     2
  9
$LUPREC
 70
     4
  9
$SKETCHINC
 40
0.1
  9
$FILLETRAD
 40
0.5
  9
$AUNITS
 70
     0
  9
$AUPREC
 70
     0
  9
$MENU
  1
.
  9
$ELEVATION
 40
0.0
  9
$PELEVATION
 40
0.0
  9
$THICKNESS
 40
0.0
  9
$LIMCHECK
 70
     0
  9
$CHAMFERA
 40
0.5
  9
$CHAMFERB
 40
0.5
  9
$CHAMFERC
 40
1.0
  9
$CHAMFERD
 40
0.0
  9
$SKPOLY
 70
     0
  9
$TDCREATE
 40
2454287.389794445
  9
$TDUCREATE
 40
2454287.306461111
  9
$TDUPDATE
 40
2454287.389794456
  9
$TDUUPDATE
 40
2454287.306461123
  9
$TDINDWG
 40
0.0000000116
  9
$TDUSRTIMER
 40
0.0000000116
  9
$USRTIMER
 70
     1
  9
$ANGBASE
 50
0.0
  9
$ANGDIR
 70
     0
  9
$PDMODE
 70
     0
  9
$PDSIZE
 40
0.0
  9
$PLINEWID
 40
0.0
  9
$SPLFRAME
 70
     0
  9
$SPLINETYPE
 70
     6
  9
$SPLINESEGS
 70
     8
  9
$HANDSEED
  5
12B
  9
$SURFTAB1
 70
     6
  9
$SURFTAB2
 70
     6
  9
$SURFTYPE
 70
     6
  9
$SURFU
 70
     6
  9
$SURFV
 70
     6
  9
$UCSBASE
  2

  9
$UCSNAME
  2

  9
$UCSORG
 10
0.0
 20
0.0
 30
0.0
  9
$UCSXDIR
 10
1.0
 20
0.0
 30
0.0
  9
$UCSYDIR
 10
0.0
 20
1.0
 30
0.0
  9
$UCSORTHOREF
  2

  9
$UCSORTHOVIEW
 70
     0
  9
$UCSORGTOP
 10
0.0
 20
0.0
 30
0.0
  9
$UCSORGBOTTOM
 10
0.0
 20
0.0
 30
0.0
  9
$UCSORGLEFT
 10
0.0
 20
0.0
 30
0.0
  9
$UCSORGRIGHT
 10
0.0
 20
0.0
 30
0.0
  9
$UCSORGFRONT
 10
0.0
 20
0.0
 30
0.0
  9
$UCSORGBACK
 10
0.0
 20
0.0
 30
0.0
  9
$PUCSBASE
  2

  9
$PUCSNAME
  2

  9
$PUCSORG
 10
0.0
 20
0.0
 30
0.0
  9
$PUCSXDIR
 10
1.0
 20
0.0
 30
0.0
  9
$PUCSYDIR
 10
0.0
 20
1.0
 30
0.0
  9
$PUCSORTHOREF
  2

  9
$PUCSORTHOVIEW
 70
     0
  9
$PUCSORGTOP
 10
0.0
 20
0.0
 30
0.0
  9
$PUCSORGBOTTOM
 10
0.0
 20
0.0
 30
0.0
  9
$PUCSORGLEFT
 10
0.0
 20
0.0
 30
0.0
  9
$PUCSORGRIGHT
 10
0.0
 20
0.0
 30
0.0
  9
$PUCSORGFRONT
 10
0.0
 20
0.0
 30
0.0
  9
$PUCSORGBACK
 10
0.0
 20
0.0
 30
0.0
  9
$USERI1
 70
     0
  9
$USERI2
 70
     0
  9
$USERI3
 70
     0
  9
$USERI4
 70
     0
  9
$USERI5
 70
     0
  9
$USERR1
 40
0.0
  9
$USERR2
 40
0.0
  9
$USERR3
 40
0.0
  9
$USERR4
 40
0.0
  9
$USERR5
 40
0.0
  9
$WORLDVIEW
 70
     1
  9
$SHADEDGE
 70
     3
  9
$SHADEDIF
 70
    70
  9
$TILEMODE
 70
     1
  9
$MAXACTVP
 70
    64
  9
$PINSBASE
 10
0.0
 20
0.0
 30
0.0
  9
$PLIMCHECK
 70
     0
  9
$PEXTMIN
 10
0.0
 20
0.0
 30
0.0
  9
$PEXTMAX
 10
210.0
 20
297.0
 30
0.0
  9
$PLIMMIN
 10
0.0
 20
0.0
  9
$PLIMMAX
 10
210.0
 20
297.0
  9
$UNITMODE
 70
     0
  9
$VISRETAIN
 70
     1
  9
$PLINEGEN
 70
     0
  9
$PSLTSCALE
 70
     1
  9
$TREEDEPTH
 70
  3020
  9
$CMLSTYLE
  2
Standard
  9
$CMLJUST
 70
     0
  9
$CMLSCALE
 40
1.0
  9
$PROXYGRAPHICS
 70
     1
  9
$MEASUREMENT
 70
     1
  9
$CELWEIGHT
370
    -1
  9
$ENDCAPS
280
     0
  9
$JOINSTYLE
280
     0
  9
$LWDISPLAY
290
     0
  9
$INSUNITS
 70
     1
  9
$HYPERLINKBASE
  1

  9
$STYLESHEET
  1

  9
$XEDIT
290
     1
  9
$CEPSNTYPE
380
     0
  9
$PSTYLEMODE
290
     1
  9
$FINGERPRINTGUID
  2
{570AA65F-B938-4847-BC77-64A0E0C8CAE7}
  9
$VERSIONGUID
  2
{FAEB1C32-E019-11D5-929B-00C0DF256EC4}
  9
$EXTNAMES
290
     1
  9
$PSVPSCALE
 40
0.0
  9
$OLESTARTUP
290
     0
  0
ENDSEC
  0
SECTION
  2
CLASSES
  0
CLASS
  1
ACDBDICTIONARYWDFLT
  2
AcDbDictionaryWithDefault
  3
ObjectDBX Classes
 90
        0
280
     0
281
     0
  0
CLASS
  1
SPATIAL_FILTER
  2
AcDbSpatialFilter
  3
ObjectDBX Classes
 90
        0
280
     0
281
     0
  0
CLASS
  1
ACDBPLACEHOLDER
  2
AcDbPlaceHolder
  3
ObjectDBX Classes
 90
        0
280
     0
281
     0
  0
CLASS
  1
LAYOUT
  2
AcDbLayout
  3
ObjectDBX Classes
 90
        0
280
     0
281
     0
  0
ENDSEC
  0
SECTION
  2
TABLES
  0
TABLE
  2
VPORT
  5
8
330
0
100
AcDbSymbolTable
 70
     1
  0
VPORT
  5
29
330
8
100
AcDbSymbolTableRecord
100
AcDbViewportTableRecord
  2
*Active
 70
     0
 10
0.0
 20
0.0
 11
1.0
 21
1.0
 12
10.4299065421
 22
4.5
 13
0.0
 23
0.0
 14
0.5
 24
0.5
 15
0.5
 25
0.5
 16
0.0
 26
0.0
 36
1.0
 17
0.0
 27
0.0
 37
0.0
 40
9.0
 41
1.9729729729
 42
50.0
 43
0.0
 44
0.0
 50
0.0
 51
0.0
 71
     0
 72
   100
 73
     1
 74
     3
 75
     0
 76
     0
 77
     0
 78
     0
281
     0
 65
     1
110
0.0
120
0.0
130
0.0
111
1.0
121
0.0
131
0.0
112
0.0
122
1.0
132
0.0
 79
     0
146
0.0
  0
ENDTAB
  0
TABLE
  2
LTYPE
  5
5
330
0
100
AcDbSymbolTable
 70
     2
  0
LTYPE
  5
14
330
5
100
AcDbSymbolTableRecord
100
AcDbLinetypeTableRecord
  2
ByBlock
 70
     0
  3

 72
    65
 73
     0
 40
0.0
  0
LTYPE
  5
15
330
5
100
AcDbSymbolTableRecord
100
AcDbLinetypeTableRecord
  2
ByLayer
 70
     0
  3

 72
    65
 73
     0
 40
0.0
  0
LTYPE
  5
16
330
5
100
AcDbSymbolTableRecord
100
AcDbLinetypeTableRecord
  2
Continuous
 70
     0
  3
Solid line
 72
    65
 73
     0
 40
0.0
  0
LTYPE
  5
2D
330
5
100
AcDbSymbolTableRecord
100
AcDbLinetypeTableRecord
  2
CENTER2
 70
     0
  3
___ _ ___ _ ___ _ ___ _ ___ _ ___ _ ___ _ ___ _
 72
    65
 73
     4
 40
1.125
 49
0.75
 74
     4
 75
     0
340
0
 46
0.0
 50
0.0
 44
0.0
 45
0.0
 49
-0.125
 74
     4
 75
     0
340
0
 46
0.0
 50
0.0
 44
0.0
 45
0.0
 49
0.125
 74
     4
 75
     0
340
0
 46
0.0
 50
0.0
 44
0.0
 45
0.0
 49
-0.125
 74
     4
 75
     0
340
0
 46
0.0
 50
0.0
 44
0.0
 45
0.0
  0
ENDTAB
  0
TABLE
  2
LAYER
  5
2
330
0
100
AcDbSymbolTable
 70
     5
  0
LAYER
  5
10
330
2
100
AcDbSymbolTableRecord
100
AcDbLayerTableRecord
  2
0
 70
     0
 62
     7
  6
Continuous
370
    -3
390
F
  0
LAYER
  5
2A
330
2
100
AcDbSymbolTableRecord
100
AcDbLayerTableRecord
  2
Default
 70
     0
 62
     7
  6
Continuous
370
    -3
390
F
  0
LAYER
  5
47
330
2
100
AcDbSymbolTableRecord
100
AcDbLayerTableRecord
  2
MEGA_009641
 70
     0
 62
     7
  6
Continuous
370
    -3
390
F
  0
LAYER
  5
55
330
2
100
AcDbSymbolTableRecord
100
AcDbLayerTableRecord
  2
MEGA_001463
 70
     0
 62
     7
  6
Continuous
370
    -3
390
F
  0
LAYER
  5
60
330
2
100
AcDbSymbolTableRecord
100
AcDbLayerTableRecord
  2
MEGA_001979
 70
     0
 62
     7
  6
Continuous
370
    -3
390
F
  0
ENDTAB
  0
TABLE
  2
STYLE
  5
3
330
0
100
AcDbSymbolTable
 70
     3
  0
STYLE
  5
11
330
3
100
AcDbSymbolTableRecord
100
AcDbTextStyleTableRecord
  2
Standard
 70
     0
 40
0.0
 41
1.0
 50
0.0
 71
     0
 42
0.2
  3
txt
  4

  0
STYLE
  5
DB
330
3
100
AcDbSymbolTableRecord
100
AcDbTextStyleTableRecord
  2
SEACAD_seiso_ttf
 70
     0
 40
0.2
 41
1.0
 50
0.0
 71
     0
 42
0.2
  3
seiso.ttf
  4

  0
STYLE
  5
DD
330
3
100
AcDbSymbolTableRecord
100
AcDbTextStyleTableRecord
  2
SEACAD_semeci1_ttf
 70
     0
 40
0.2
 41
1.0
 50
0.0
 71
     0
 42
0.2
  3
semeci1.ttf
  4

  0
ENDTAB
  0
TABLE
  2
VIEW
  5
6
330
0
100
AcDbSymbolTable
 70
     0
  0
ENDTAB
  0
TABLE
  2
UCS
  5
7
330
0
100
AcDbSymbolTable
 70
     0
  0
ENDTAB
  0
TABLE
  2
APPID
  5
9
330
0
100
AcDbSymbolTable
 70
     1
  0
APPID
  5
12
330
9
100
AcDbSymbolTableRecord
100
AcDbRegAppTableRecord
  2
ACAD
 70
     0
  0
ENDTAB
  0
TABLE
  2
DIMSTYLE
  5
A
330
0
100
AcDbSymbolTable
 70
     1
100
AcDbDimStyleTable
  0
DIMSTYLE
105
27
330
A
100
AcDbSymbolTableRecord
100
AcDbDimStyleTableRecord
  2
Standard
 70
     0
340
11
  0
ENDTAB
  0
TABLE
  2
BLOCK_RECORD
  5
1
330
0
100
AcDbSymbolTable
 70
    16
  0
BLOCK_RECORD
  5
1F
330
1
100
AcDbSymbolTableRecord
100
AcDbBlockTableRecord
  2
*Model_Space
340
22
  0
BLOCK_RECORD
  5
1B
330
1
100
AcDbSymbolTableRecord
100
AcDbBlockTableRecord
  2
*Paper_Space
340
1E
  0
BLOCK_RECORD
  5
2B
330
1
100
AcDbSymbolTableRecord
100
AcDbBlockTableRecord
  2
SEANNOT_GROUP
340
0
102
{BLKREFS
331
2C
102
}
  0
BLOCK_RECORD
  5
31
330
1
100
AcDbSymbolTableRecord
100
AcDbBlockTableRecord
  2
SEANNOT_GROUP1
340
0
102
{BLKREFS
331
32
102
}
  0
BLOCK_RECORD
  5
36
330
1
100
AcDbSymbolTableRecord
100
AcDbBlockTableRecord
  2
SEANNOT_GROUP2
340
0
102
{BLKREFS
331
37
102
}
  0
BLOCK_RECORD
  5
3B
330
1
100
AcDbSymbolTableRecord
100
AcDbBlockTableRecord
  2
SEANNOT_GROUP3
340
0
102
{BLKREFS
331
3C
102
}
  0
BLOCK_RECORD
  5
40
330
1
100
AcDbSymbolTableRecord
100
AcDbBlockTableRecord
  2
SEANNOT_GROUP4
340
0
102
{BLKREFS
331
41
102
}
  0
BLOCK_RECORD
  5
45
330
1
100
AcDbSymbolTableRecord
100
AcDbBlockTableRecord
  2
SE
340
0
102
{BLKREFS
331
46
102
}
  0
BLOCK_RECORD
  5
72
330
1
100
AcDbSymbolTableRecord
100
AcDbBlockTableRecord
  2
SE1
340
0
102
{BLKREFS
331
73
102
}
  0
BLOCK_RECORD
  5
A0
330
1
100
AcDbSymbolTableRecord
100
AcDbBlockTableRecord
  2
SE2
340
0
102
{BLKREFS
331
A1
102
}
  0
BLOCK_RECORD
  5
D2
330
1
100
AcDbSymbolTableRecord
100
AcDbBlockTableRecord
  2
GDimGGroup
340
0
102
{BLKREFS
331
D3
102
}
  0
BLOCK_RECORD
  5
E1
330
1
100
AcDbSymbolTableRecord
100
AcDbBlockTableRecord
  2
GDimGGroup1
340
0
102
{BLKREFS
331
E2
102
}
  0
BLOCK_RECORD
  5
EE
330
1
100
AcDbSymbolTableRecord
100
AcDbBlockTableRecord
  2
GDimGGroup2
340
0
102
{BLKREFS
331
EF
102
}
  0
BLOCK_RECORD
  5
FA
330
1
100
AcDbSymbolTableRecord
100
AcDbBlockTableRecord
  2
GDimGGroup3
340
0
102
{BLKREFS
331
FB
102
}
  0
BLOCK_RECORD
  5
106
330
1
100
AcDbSymbolTableRecord
100
AcDbBlockTableRecord
  2
GDimGGroup4
340
0
102
{BLKREFS
331
107
102
}
  0
BLOCK_RECORD
  5
112
330
1
100
AcDbSymbolTableRecord
100
AcDbBlockTableRecord
  2
GDimGGroup5
340
0
102
{BLKREFS
331
113
102
}
  0
BLOCK_RECORD
  5
11F
330
1
100
AcDbSymbolTableRecord
100
AcDbBlockTableRecord
  2
GDimGGroup6
340
0
102
{BLKREFS
331
120
102
}
  0
ENDTAB
  0
ENDSEC
  0
SECTION
  2
BLOCKS
  0
BLOCK
  5
20
330
1F
100
AcDbEntity
  8
0
100
AcDbBlockBegin
  2
*Model_Space
 70
     0
 71
     0
 10
0.0
 20
0.0
 30
0.0
  3
*Model_Space
  1

  0
ENDBLK
  5
21
330
1F
100
AcDbEntity
  8
0
100
AcDbBlockEnd
  0
BLOCK
  5
1C
330
1B
100
AcDbEntity
 67
     1
  8
0
100
AcDbBlockBegin
  2
*Paper_Space
 70
     0
 71
     0
 10
0.0
 20
0.0
 30
0.0
  3
*Paper_Space
  1

  0
ENDBLK
  5
1D
330
1B
100
AcDbEntity
 67
     1
  8
0
100
AcDbBlockEnd
  0
BLOCK
  5
2F
330
2B
100
AcDbEntity
  8
0
100
AcDbBlockBegin
  2
SEANNOT_GROUP
 70
     0
 71
     0
 10
0.0
 20
0.0
 30
0.0
  3
SEANNOT_GROUP
  1

  0
LINE
  5
2E
330
2B
100
AcDbEntity
  8
Default
  6
CENTER2
 62
     7
 48
25.4
100
AcDbLine
 10
136.1338966086
 20
154.9361907071
 30
0.0
 11
136.1338966086
 21
268.4372703703
 31
0.0
  0
ENDBLK
  5
30
330
2B
100
AcDbEntity
  8
0
100
AcDbBlockEnd
  0
BLOCK
  5
34
330
31
100
AcDbEntity
  8
0
100
AcDbBlockBegin
  2
SEANNOT_GROUP1
 70
     0
 71
     0
 10
0.0
 20
0.0
 30
0.0
  3
SEANNOT_GROUP1
  1

  0
LINE
  5
33
330
31
100
AcDbEntity
  8
Default
  6
CENTER2
 62
     7
 48
25.4
100
AcDbLine
 10
192.0562206096
 20
212.2873755314
 30
0.0
 11
80.2912951286
 21
212.2873755314
 31
0.0
  0
ENDBLK
  5
35
330
31
100
AcDbEntity
  8
0
100
AcDbBlockEnd
  0
BLOCK
  5
39
330
36
100
AcDbEntity
  8
0
100
AcDbBlockBegin
  2
SEANNOT_GROUP2
 70
     0
 71
     0
 10
0.0
 20
0.0
 30
0.0
  3
SEANNOT_GROUP2
  1

  0
LINE
  5
38
330
36
100
AcDbEntity
  8
Default
  6
CENTER2
 62
     7
 48
25.4
100
AcDbLine
 10
136.1338966086
 20
100.8821726233
 30
0.0
 11
136.1338966086
 21
63.7717112602
 31
0.0
  0
ENDBLK
  5
3A
330
36
100
AcDbEntity
  8
0
100
AcDbBlockEnd
  0
BLOCK
  5
3E
330
3B
100
AcDbEntity
  8
0
100
AcDbBlockBegin
  2
SEANNOT_GROUP3
 70
     0
 71
     0
 10
0.0
 20
0.0
 30
0.0
  3
SEANNOT_GROUP3
  1

  0
LINE
  5
3D
330
3B
100
AcDbEntity
  8
Default
  6
CENTER2
 62
     7
 48
25.4
100
AcDbLine
 10
98.1338966086
 20
85.893014389
 30
0.0
 11
98.1338966086
 21
97.4628133824
 31
0.0
  0
ENDBLK
  5
3F
330
3B
100
AcDbEntity
  8
0
100
AcDbBlockEnd
  0
BLOCK
  5
43
330
40
100
AcDbEntity
  8
0
100
AcDbBlockBegin
  2
SEANNOT_GROUP4
 70
     0
 71
     0
 10
0.0
 20
0.0
 30
0.0
  3
SEANNOT_GROUP4
  1

  0
LINE
  5
42
330
40
100
AcDbEntity
  8
Default
  6
CENTER2
 62
     7
 48
25.4
100
AcDbLine
 10
174.1338966086
 20
85.893014389
 30
0.0
 11
174.1338966086
 21
97.4628133824
 31
0.0
  0
ENDBLK
  5
44
330
40
100
AcDbEntity
  8
0
100
AcDbBlockEnd
  0
BLOCK
  5
70
330
45
100
AcDbEntity
  8
0
100
AcDbBlockBegin
  2
SE
 70
     0
 71
     0
 10
0.0
 20
0.0
 30
0.0
  3
SE
  1

  0
LINE
  5
48
330
45
100
AcDbEntity
  8
MEGA_009641
  6
Continuous
 62
     7
 48
25.4
100
AcDbLine
 10
86.1326782626
 20
160.2873755314
 30
0.0
 11
131.1338966086
 21
160.2873755314
 31
0.0
  0
LINE
  5
49
330
45
100
AcDbEntity
  8
MEGA_009641
  6
Continuous
 62
     7
 48
25.4
100
AcDbLine
 10
186.1351149545
 20
264.2873755314
 30
0.0
 11
86.1326782626
 21
264.2873755314
 31
0.0
  0
LINE
  5
4A
330
45
100
AcDbEntity
  8
MEGA_009641
  6
Continuous
 62
     7
 48
25.4
100
AcDbLine
 10
188.1338966086
 20
162.2861571854
 30
0.0
 11
188.1338966086
 21
262.2885938773
 31
0.0
  0
LINE
  5
4B
330
45
100
AcDbEntity
  8
MEGA_009641
  6
Continuous
 62
     7
 48
25.4
100
AcDbLine
 10
84.1338966086
 20
262.2885938773
 30
0.0
 11
84.1338966086
 21
162.2861571854
 31
0.0
  0
ELLIPSE
  5
4C
330
45
100
AcDbEntity
  8
MEGA_009641
  6
Continuous
 62
     7
 48
25.4
100
AcDbEllipse
 10
186.13267752
 20
262.2861564428
 30
0.0
 11
-1.415937089198381
 21
-1.415937089198381
 31
0.0
210
0.0
220
0.0
230
1.0
 40
0.998782766
 41
2.356803477777933
 42
3.926381829401653
  0
ELLIPSE
  5
4D
330
45
100
AcDbEntity
  8
MEGA_009641
  6
Continuous
 62
     7
 48
25.4
100
AcDbEllipse
 10
186.13267752
 20
162.2885946199
 30
0.0
 11
-1.415937089198381
 21
1.415937089198381
 31
0.0
210
0.0
220
0.0
230
1.0
 40
0.998782766
 41
2.356803477777962
 42
3.926381829401624
  0
ELLIPSE
  5
4E
330
45
100
AcDbEntity
  8
MEGA_009641
  6
Continuous
 62
     7
 48
25.4
100
AcDbEllipse
 10
86.1351156972
 20
262.2861564428
 30
0.0
 11
1.415937089198381
 21
-1.415937089198381
 31
0.0
210
0.0
220
0.0
230
1.0
 40
0.998782766
 41
2.356803477777933
 42
3.92638182940166
  0
ELLIPSE
  5
4F
330
45
100
AcDbEntity
  8
MEGA_009641
  6
Continuous
 62
     7
 48
25.4
100
AcDbEllipse
 10
86.1351156972
 20
162.2885946199
 30
0.0
 11
1.415937089198381
 21
1.415937089198381
 31
0.0
210
0.0
220
0.0
230
1.0
 40
0.998782766
 41
2.356803477777955
 42
3.926381829401624
  0
LINE
  5
50
330
45
100
AcDbEntity
  8
MEGA_009641
  6
Continuous
 62
     7
 48
25.4
100
AcDbLine
 10
141.1338966086
 20
160.2873755314
 30
0.0
 11
186.1351149545
 21
160.2873755314
 31
0.0
  0
LINE
  5
51
330
45
100
AcDbEntity
  8
MEGA_009641
  6
Continuous
 62
     7
 48
25.4
100
AcDbLine
 10
131.4838512627
 20
160.4270586093
 30
0.0
 11
140.7839419545
 21
160.4270586093
 31
0.0
  0
LINE
  5
52
330
45
100
AcDbEntity
  8
MEGA_009641
  6
Continuous
 62
     7
 48
25.4
100
AcDbLine
 10
141.1338966086
 20
160.2873755314
 30
0.0
 11
140.7839419545
 21
160.4270586093
 31
0.0
  0
LINE
  5
53
330
45
100
AcDbEntity
  8
MEGA_009641
  6
Continuous
 62
     7
 48
25.4
100
AcDbLine
 10
131.4838512627
 20
160.4270586093
 30
0.0
 11
131.1338966086
 21
160.2873755314
 31
0.0
  0
CIRCLE
  5
54
330
45
100
AcDbEntity
  8
MEGA_009641
  6
Continuous
 62
     7
 48
25.4
100
AcDbCircle
 10
136.1338966086
 20
212.2873755314
 30
0.0
 40
22.3
  0
CIRCLE
  5
56
330
45
100
AcDbEntity
  8
MEGA_001463
  6
Continuous
 62
     7
 48
25.4
100
AcDbCircle
 10
136.1338966086
 20
212.2873755314
 30
0.0
 40
21.79045411026026
  0
ARC
  5
57
330
45
100
AcDbEntity
  8
MEGA_001463
  6
Continuous
 62
     7
 48
25.4
100
AcDbCircle
 10
136.1338966086
 20
212.2873755314
 30
0.0
 40
22.0
100
AcDbArc
 50
73.7148548404
 51
106.2851451596
  0
ARC
  5
58
330
45
100
AcDbEntity
  8
MEGA_001463
  6
Continuous
 62
     7
 48
25.4
100
AcDbCircle
 10
136.1338966086
 20
212.2873755314
 30
0.0
 40
51.99999999999999
100
AcDbArc
 50
265.799460028
 51
274.200539972
  0
ARC
  5
59
330
45
100
AcDbEntity
  8
MEGA_001463
  6
Continuous
 62
     7
 48
25.4
100
AcDbCircle
 10
136.1338966086
 20
212.2873755314
 30
0.0
 40
21.99999999999999
100
AcDbArc
 50
106.2851451596
 51
253.7148548404
  0
LINE
  5
5A
330
45
100
AcDbEntity
  8
MEGA_001463
  6
Continuous
 62
     7
 48
25.4
100
AcDbLine
 10
129.9647038045
 20
233.4046921257
 30
0.0
 11
129.7233123509
 21
233.6460835793
 31
0.0
  0
LINE
  5
5B
330
45
100
AcDbEntity
  8
MEGA_001463
  6
Continuous
 62
     7
 48
25.4
100
AcDbLine
 10
142.5444808662
 20
233.6460835793
 30
0.0
 11
142.3030894127
 21
233.4046921257
 31
0.0
  0
ARC
  5
5C
330
45
100
AcDbEntity
  8
MEGA_001463
  6
Continuous
 62
     7
 48
25.4
100
AcDbCircle
 10
136.1338966086
 20
212.2873755314
 30
0.0
 40
21.99999999999999
100
AcDbArc
 50
253.7148548404
 51
286.2851451596
  0
ARC
  5
5D
330
45
100
AcDbEntity
  8
MEGA_001463
  6
Continuous
 62
     7
 48
25.4
100
AcDbCircle
 10
136.1338966086
 20
212.2873755314
 30
0.0
 40
21.99999999999999
100
AcDbArc
 50
286.2851451596
 51
73.7148548404
  0
LINE
  5
5E
330
45
100
AcDbEntity
  8
MEGA_001463
  6
Continuous
 62
     7
 48
25.4
100
AcDbLine
 10
142.5444808662
 20
190.9286674835
 30
0.0
 11
142.3030894127
 21
191.170058937
 31
0.0
  0
LINE
  5
5F
330
45
100
AcDbEntity
  8
MEGA_001463
  6
Continuous
 62
     7
 48
25.4
100
AcDbLine
 10
129.9647038045
 20
191.170058937
 30
0.0
 11
129.7233123509
 21
190.9286674835
 31
0.0
  0
CIRCLE
  5
61
330
45
100
AcDbEntity
  8
MEGA_001979
  6
Continuous
 62
     7
 48
25.4
100
AcDbCircle
 10
136.1338966086
 20
212.2873755314
 30
0.0
 40
19.0
  0
CIRCLE
  5
62
330
45
100
AcDbEntity
  8
MEGA_001979
  6
Continuous
 62
     7
 48
25.4
100
AcDbCircle
 10
136.1338966086
 20
212.2873755314
 30
0.0
 40
21.0
  0
ARC
  5
63
330
45
100
AcDbEntity
  8
MEGA_001979
  6
Continuous
 62
     7
 48
25.4
100
AcDbCircle
 10
171.6183029612
 20
212.2873755314
 30
0.0
 40
52.48448422146755
100
AcDbArc
 50
177.4042419237
 51
182.5957580763
  0
ARC
  5
64
330
45
100
AcDbEntity
  8
MEGA_001979
  6
Continuous
 62
     7
 48
25.4
100
AcDbCircle
 10
100.649490256
 20
212.2873755314
 30
0.0
 40
52.48448422147259
100
AcDbArc
 50
357.4042419237
 51
2.5957580763
  0
ELLIPSE
  5
65
330
45
100
AcDbEntity
  8
MEGA_001979
  6
Continuous
 62
     7
 48
25.4
100
AcDbEllipse
 10
136.1338966086
 20
209.4919958926
 30
0.0
 11
-49.99999999999842
 21
4.336808689942018E-16
 31
0.0
210
0.0
220
0.0
230
1.0
 40
0.0174550649
 41
4.38288116134087
 42
5.041896799428509
  0
ELLIPSE
  5
66
330
45
100
AcDbEntity
  8
MEGA_001979
  6
Continuous
 62
     7
 48
25.4
100
AcDbEllipse
 10
136.1338966086
 20
212.0329317775
 30
0.0
 11
-99.59784963863122
 21
7.833360696207770E-14
 31
0.0
210
0.0
220
0.0
230
1.0
 40
0.0174524064
 41
1.407631361613204
 42
1.733961291976613
  0
SPLINE
  5
67
330
45
100
AcDbEntity
  8
MEGA_001979
  6
Continuous
 62
     7
 48
25.4
100
AcDbSpline
210
0.0
220
0.0
230
1.0
 70
     8
 71
     3
 72
    12
 73
     8
 74
     0
 42
0.0000000001
 43
0.0000000001
 40
0.0
 40
0.0
 40
0.0
 40
0.0
 40
0.2499999999999999
 40
0.2499999999999999
 40
0.4999999999999998
 40
0.4999999999999998
 40
1.0
 40
1.0
 40
1.0
 40
1.0
 10
119.1876717292361
 20
209.9104042199917
 30
0.0
 10
119.1838716207408
 20
209.9942401968035
 30
0.0
 10
119.2329904494865
 20
210.0693985613059
 30
0.0
 10
119.35348044164
 20
210.1757184178134
 30
0.0
 10
119.4242260749806
 20
210.2119814832047
 30
0.0
 10
119.6438017849865
 20
210.2955591608412
 30
0.0
 10
119.7988157031186
 20
210.3168640486936
 30
0.0
 10
119.9550283515846
 20
210.3177965126785
 30
0.0
  0
SPLINE
  5
68
330
45
100
AcDbEntity
  8
MEGA_001979
  6
Continuous
 62
     7
 48
25.4
100
AcDbSpline
210
0.0
220
0.0
230
1.0
 70
     8
 71
     3
 72
    12
 73
     8
 74
     0
 42
0.0000000001
 43
0.0000000001
 40
0.0
 40
0.0
 40
0.0
 40
0.0
 40
0.4999999999999968
 40
0.4999999999999968
 40
0.7499999999999983
 40
0.7499999999999983
 40
1.0
 40
1.0
 40
1.0
 40
1.0
 10
152.3127648655522
 20
210.3177965126785
 30
0.0
 10
152.4691246871767
 20
210.3168631701881
 30
0.0
 10
152.62195640953
 20
210.2960431569249
 30
0.0
 10
152.8423201130608
 20
210.2125992127638
 30
0.0
 10
152.9144146382035
 20
210.175537210119
 30
0.0
 10
153.0341202786552
 20
210.07009166901
 30
0.0
 10
153.0839291709988
 20
209.9944073036701
 30
0.0
 10
153.0801214879008
 20
209.9104042199917
 30
0.0
  0
ELLIPSE
  5
69
330
45
100
AcDbEntity
  8
MEGA_001979
  6
Continuous
 62
     7
 48
25.4
100
AcDbEllipse
 10
136.1338966086
 20
215.0827551701
 30
0.0
 11
-50.0000000000002
 21
8.673617379884037E-16
 31
0.0
210
0.0
220
0.0
230
1.0
 40
0.0174550649
 41
1.24128850775109
 42
1.900304145838702
  0
ELLIPSE
  5
6A
330
45
100
AcDbEntity
  8
MEGA_001979
  6
Continuous
 62
     7
 48
25.4
100
AcDbEllipse
 10
136.1338966086
 20
212.5418192852
 30
0.0
 11
99.59784963863122
 21
-7.833360696207770E-14
 31
0.0
210
0.0
220
0.0
230
1.0
 40
0.0174524064
 41
1.407631361613204
 42
1.733961291976613
  0
SPLINE
  5
6B
330
45
100
AcDbEntity
  8
MEGA_001979
  6
Continuous
 62
     7
 48
25.4
100
AcDbSpline
210
0.0
220
0.0
230
1.0
 70
     8
 71
     3
 72
    12
 73
     8
 74
     0
 42
0.0000000001
 43
0.0000000001
 40
0.0
 40
0.0
 40
0.0
 40
0.0
 40
0.4999999999999953
 40
0.4999999999999953
 40
0.7499999999999977
 40
0.7499999999999977
 40
1.0
 40
1.0
 40
1.0
 40
1.0
 10
119.9550283515846
 20
214.2569545500262
 30
0.0
 10
119.7986685299602
 20
214.2578878925166
 30
0.0
 10
119.6458368076069
 20
214.2787079057797
 30
0.0
 10
119.4254731040761
 20
214.3621518499408
 30
0.0
 10
119.3533785789334
 20
214.3992138525856
 30
0.0
 10
119.2336729384817
 20
214.5046593936947
 30
0.0
 10
119.183864046138
 20
214.5803437590346
 30
0.0
 10
119.1876717292361
 20
214.664346842713
 30
0.0
  0
SPLINE
  5
6C
330
45
100
AcDbEntity
  8
MEGA_001979
  6
Continuous
 62
     7
 48
25.4
100
AcDbSpline
210
0.0
220
0.0
230
1.0
 70
     8
 71
     3
 72
    12
 73
     8
 74
     0
 42
0.0000000001
 43
0.0000000001
 40
0.0
 40
0.0
 40
0.0
 40
0.0
 40
0.2500000000000024
 40
0.2500000000000024
 40
0.5000000000000048
 40
0.5000000000000048
 40
1.0
 40
1.0
 40
1.0
 40
1.0
 10
153.0801214879008
 20
214.664346842713
 30
0.0
 10
153.0839215963961
 20
214.5805108659011
 30
0.0
 10
153.0348027676504
 20
214.5053525013987
 30
0.0
 10
152.9143127754969
 20
214.3990326448913
 30
0.0
 10
152.8435671421563
 20
214.3627695794999
 30
0.0
 10
152.6239914321504
 20
214.2791919018634
 30
0.0
 10
152.4689775140182
 20
214.2578870140111
 30
0.0
 10
152.3127648655522
 20
214.2569545500262
 30
0.0
  0
ENDBLK
  5
71
330
45
100
AcDbEntity
  8
0
100
AcDbBlockEnd
  0
BLOCK
  5
9E
330
72
100
AcDbEntity
  8
0
100
AcDbBlockBegin
  2
SE1
 70
     0
 71
     0
 10
0.0
 20
0.0
 30
0.0
  3
SE1
  1

  0
LINE
  5
74
330
72
100
AcDbEntity
  8
MEGA_009641
  6
Continuous
 62
     7
 48
25.4
100
AcDbLine
 10
186.1351149545
 20
88.6779138857
 30
0.0
 11
86.1326782626
 21
88.6779138857
 31
0.0
  0
LINE
  5
75
330
72
100
AcDbEntity
  8
MEGA_009641
  6
Continuous
 62
     7
 48
25.4
100
AcDbLine
 10
186.1351149545
 20
88.6779138857
 30
0.0
 11
188.1338966086
 21
88.6779138857
 31
0.0
  0
LINE
  5
76
330
72
100
AcDbEntity
  8
MEGA_009641
  6
Continuous
 62
     7
 48
25.4
100
AcDbLine
 10
84.1338966086
 20
88.6779138857
 30
0.0
 11
86.1326782626
 21
88.6779138857
 31
0.0
  0
LINE
  5
77
330
72
100
AcDbEntity
  8
MEGA_009641
  6
Continuous
 62
     7
 48
25.4
100
AcDbLine
 10
84.5204625075
 20
77.6081148923
 30
0.0
 11
84.1338966086
 21
88.6779138857
 31
0.0
  0
LINE
  5
78
330
72
100
AcDbEntity
  8
MEGA_009641
  6
Continuous
 62
     7
 48
25.4
100
AcDbLine
 10
185.7485490556
 20
75.6779138857
 30
0.0
 11
86.5192441616
 21
75.6779138857
 31
0.0
  0
LINE
  5
79
330
72
100
AcDbEntity
  8
MEGA_009641
  6
Continuous
 62
     7
 48
25.4
100
AcDbLine
 10
188.1338966086
 20
88.6779138857
 30
0.0
 11
187.7473307096
 21
77.6081148923
 31
0.0
  0
ARC
  5
7A
330
72
100
AcDbEntity
  8
MEGA_009641
  6
Continuous
 62
     7
 48
25.4
100
AcDbCircle
 10
185.7485490556
 20
77.6779138857
 30
0.0
 40
1.999999999999991
100
AcDbArc
 50
270.0
 51
358.0
  0
ARC
  5
7B
330
72
100
AcDbEntity
  8
MEGA_009641
  6
Continuous
 62
     7
 48
25.4
100
AcDbCircle
 10
86.5192441616
 20
77.6779138857
 30
0.0
 40
2.0
100
AcDbArc
 50
182.0
 51
270.0
  0
LINE
  5
7C
330
72
100
AcDbEntity
  8
MEGA_001463
  6
Continuous
 62
     7
 48
25.4
100
AcDbLine
 10
155.853311364
 20
96.6779138857
 30
0.0
 11
116.4144818531
 21
96.6779138857
 31
0.0
  0
LINE
  5
7D
330
72
100
AcDbEntity
  8
MEGA_001463
  6
Continuous
 62
     7
 48
25.4
100
AcDbLine
 10
157.9243507188
 20
73.6773047127
 30
0.0
 11
114.3434424983
 21
73.6773047127
 31
0.0
  0
LINE
  5
7E
330
72
100
AcDbEntity
  8
MEGA_001463
  6
Continuous
 62
     7
 48
25.4
100
AcDbLine
 10
168.4487930783
 20
96.6779138857
 30
0.0
 11
179.8190001388
 21
96.6779138857
 31
0.0
  0
LINE
  5
7F
330
72
100
AcDbEntity
  8
MEGA_001463
  6
Continuous
 62
     7
 48
25.4
100
AcDbLine
 10
92.4487930783
 20
96.6779138857
 30
0.0
 11
103.8190001388
 21
96.6779138857
 31
0.0
  0
ARC
  5
80
330
72
100
AcDbEntity
  8
MEGA_001463
  6
Continuous
 62
     7
 48
25.4
100
AcDbCircle
 10
155.853311364
 20
94.6779138857
 30
0.0
 40
2.000000000000005
100
AcDbArc
 50
2.0
 51
90.0
  0
ARC
  5
81
330
72
100
AcDbEntity
  8
MEGA_001463
  6
Continuous
 62
     7
 48
25.4
100
AcDbCircle
 10
116.4144818531
 20
94.6779138857
 30
0.0
 40
1.999999999999993
100
AcDbArc
 50
90.0
 51
178.0
  0
LINE
  5
82
330
72
100
AcDbEntity
  8
MEGA_001463
  6
Continuous
 62
     7
 48
25.4
100
AcDbLine
 10
114.3434424983
 20
73.6773047127
 30
0.0
 11
115.1338966086
 21
72.8868506024
 31
0.0
  0
LINE
  5
83
330
72
100
AcDbEntity
  8
MEGA_001463
  6
Continuous
 62
     7
 48
25.4
100
AcDbLine
 10
157.1338966086
 20
72.8868506024
 30
0.0
 11
157.9243507188
 21
73.6773047127
 31
0.0
  0
LINE
  5
84
330
72
100
AcDbEntity
  8
MEGA_001463
  6
Continuous
 62
     7
 48
25.4
100
AcDbLine
 10
114.2735796865
 20
75.6779138857
 30
0.0
 11
114.3434424983
 21
73.6773047127
 31
0.0
  0
LINE
  5
85
330
72
100
AcDbEntity
  8
MEGA_001463
  6
Continuous
 62
     7
 48
25.4
100
AcDbLine
 10
157.9243507188
 20
73.6773047127
 30
0.0
 11
157.9942135306
 21
75.6779138857
 31
0.0
  0
LINE
  5
86
330
72
100
AcDbEntity
  8
MEGA_001463
  6
Continuous
 62
     7
 48
25.4
100
AcDbLine
 10
158.0640550696
 20
88.6779138857
 30
0.0
 11
157.8520930181
 21
94.7477128791
 31
0.0
  0
LINE
  5
87
330
72
100
AcDbEntity
  8
MEGA_001463
  6
Continuous
 62
     7
 48
25.4
100
AcDbLine
 10
114.4157001991
 20
94.7477128791
 30
0.0
 11
114.2037381476
 21
88.6779138857
 31
0.0
  0
LINE
  5
88
330
72
100
AcDbEntity
  8
MEGA_001463
  6
Continuous
 62
     7
 48
25.4
100
AcDbLine
 10
181.0640550696
 20
88.6779138857
 30
0.0
 11
180.8183909659
 21
95.7128133824
 31
0.0
  0
LINE
  5
89
330
72
100
AcDbEntity
  8
MEGA_001463
  6
Continuous
 62
     7
 48
25.4
100
AcDbLine
 10
167.4494022513
 20
95.7128133824
 30
0.0
 11
167.2037381476
 21
88.6779138857
 31
0.0
  0
LINE
  5
8A
330
72
100
AcDbEntity
  8
MEGA_001463
  6
Continuous
 62
     7
 48
25.4
100
AcDbLine
 10
105.0640550696
 20
88.6779138857
 30
0.0
 11
104.8183909659
 21
95.7128133824
 31
0.0
  0
LINE
  5
8B
330
72
100
AcDbEntity
  8
MEGA_001463
  6
Continuous
 62
     7
 48
25.4
100
AcDbLine
 10
91.4494022513
 20
95.7128133824
 30
0.0
 11
91.2037381476
 21
88.6779138857
 31
0.0
  0
ARC
  5
8C
330
72
100
AcDbEntity
  8
MEGA_001463
  6
Continuous
 62
     7
 48
25.4
100
AcDbCircle
 10
168.4487930783
 20
95.6779138857
 30
0.0
 40
0.9999999999999991
100
AcDbArc
 50
90.0
 51
178.0
  0
ARC
  5
8D
330
72
100
AcDbEntity
  8
MEGA_001463
  6
Continuous
 62
     7
 48
25.4
100
AcDbCircle
 10
179.8190001388
 20
95.6779138857
 30
0.0
 40
0.9999999999999991
100
AcDbArc
 50
2.0
 51
90.0
  0
ARC
  5
8E
330
72
100
AcDbEntity
  8
MEGA_001463
  6
Continuous
 62
     7
 48
25.4
100
AcDbCircle
 10
92.4487930783
 20
95.6779138857
 30
0.0
 40
0.9999999999999991
100
AcDbArc
 50
90.0
 51
178.0
  0
ARC
  5
8F
330
72
100
AcDbEntity
  8
MEGA_001463
  6
Continuous
 62
     7
 48
25.4
100
AcDbCircle
 10
103.8190001388
 20
95.6779138857
 30
0.0
 40
0.9999999999999991
100
AcDbArc
 50
2.0
 51
90.0
  0
LINE
  5
90
330
72
100
AcDbEntity
  8
MEGA_001979
  6
Continuous
 62
     7
 48
25.4
100
AcDbLine
 10
155.1338966086
 20
70.6779138857
 30
0.0
 11
117.1338966086
 21
70.6779138857
 31
0.0
  0
LINE
  5
91
330
72
100
AcDbEntity
  8
MEGA_001979
  6
Continuous
 62
     7
 48
25.4
100
AcDbLine
 10
157.1338966086
 20
72.6779138857
 30
0.0
 11
115.1338966086
 21
72.6779138857
 31
0.0
  0
LINE
  5
92
330
72
100
AcDbEntity
  8
MEGA_001979
  6
Continuous
 62
     7
 48
25.4
100
AcDbLine
 10
119.1338170105
 20
70.3119227487
 30
0.0
 11
119.1876717292
 21
70.3313237054
 31
0.0
  0
LINE
  5
93
330
72
100
AcDbEntity
  8
MEGA_001979
  6
Continuous
 62
     7
 48
25.4
100
AcDbLine
 10
153.1339762066
 20
70.3119227487
 30
0.0
 11
153.0801214879
 21
70.3313237054
 31
0.0
  0
ARC
  5
94
330
72
100
AcDbEntity
  8
MEGA_001979
  6
Continuous
 62
     7
 48
25.4
100
AcDbCircle
 10
136.1338966086
 20
168.897813106
 30
0.0
 40
100.0126360537183
100
AcDbArc
 50
260.2446901934
 51
279.7553098066
  0
ARC
  5
95
330
72
100
AcDbEntity
  8
MEGA_001979
  6
Continuous
 62
     7
 48
25.4
100
AcDbCircle
 10
136.1338966086
 20
168.8563229174
 30
0.0
 40
100.0
100
AcDbArc
 50
259.0472158011
 51
260.2122022807
  0
ARC
  5
96
330
72
100
AcDbEntity
  8
MEGA_001979
  6
Continuous
 62
     7
 48
25.4
100
AcDbCircle
 10
136.1338966086
 20
168.8563229174
 30
0.0
 40
100.0
100
AcDbArc
 50
279.7878130379
 51
280.9527841989
  0
LINE
  5
97
330
72
100
AcDbEntity
  8
MEGA_001979
  6
Continuous
 62
     7
 48
25.4
100
AcDbLine
 10
115.1338966086
 20
72.6779138857
 30
0.0
 11
117.1338966086
 21
70.6779138857
 31
0.0
  0
LINE
  5
98
330
72
100
AcDbEntity
  8
MEGA_001979
  6
Continuous
 62
     7
 48
25.4
100
AcDbLine
 10
155.1338966086
 20
70.6779138857
 30
0.0
 11
157.1338966086
 21
72.6779138857
 31
0.0
  0
LINE
  5
99
330
72
100
AcDbEntity
  8
MEGA_001979
  6
Continuous
 62
     7
 48
25.4
100
AcDbLine
 10
157.1338966086
 20
72.6779138857
 30
0.0
 11
157.1338966086
 21
72.8868506024
 31
0.0
  0
LINE
  5
9A
330
72
100
AcDbEntity
  8
MEGA_001979
  6
Continuous
 62
     7
 48
25.4
100
AcDbLine
 10
115.1338966086
 20
72.8868506024
 30
0.0
 11
115.1338966086
 21
72.6779138857
 31
0.0
  0
ENDBLK
  5
9F
330
72
100
AcDbEntity
  8
0
100
AcDbBlockEnd
  0
BLOCK
  5
D0
330
A0
100
AcDbEntity
  8
0
100
AcDbBlockBegin
  2
SE2
 70
     0
 71
     0
 10
0.0
 20
0.0
 30
0.0
  3
SE2
  1

  0
LINE
  5
A2
330
A0
100
AcDbEntity
  8
MEGA_009641
  6
Continuous
 62
     7
 48
25.4
100
AcDbLine
 10
35.972864183
 20
160.2873755314
 30
0.0
 11
24.9030651895
 21
160.6739414303
 31
0.0
  0
LINE
  5
A3
330
A0
100
AcDbEntity
  8
MEGA_009641
  6
Continuous
 62
     7
 48
25.4
100
AcDbLine
 10
35.972864183
 20
162.2861571854
 30
0.0
 11
35.972864183
 21
262.2885938773
 31
0.0
  0
LINE
  5
A4
330
A0
100
AcDbEntity
  8
MEGA_009641
  6
Continuous
 62
     7
 48
25.4
100
AcDbLine
 10
35.972864183
 20
264.2873755314
 30
0.0
 11
35.972864183
 21
262.2885938773
 31
0.0
  0
LINE
  5
A5
330
A0
100
AcDbEntity
  8
MEGA_009641
  6
Continuous
 62
     7
 48
25.4
100
AcDbLine
 10
35.972864183
 20
162.2861571854
 30
0.0
 11
35.972864183
 21
160.2873755314
 31
0.0
  0
LINE
  5
A6
330
A0
100
AcDbEntity
  8
MEGA_009641
  6
Continuous
 62
     7
 48
25.4
100
AcDbLine
 10
24.9030651895
 20
263.9008096324
 30
0.0
 11
35.972864183
 21
264.2873755314
 31
0.0
  0
LINE
  5
A7
330
A0
100
AcDbEntity
  8
MEGA_009641
  6
Continuous
 62
     7
 48
25.4
100
AcDbLine
 10
22.972864183
 20
162.6727230844
 30
0.0
 11
22.972864183
 21
261.9020279783
 31
0.0
  0
ARC
  5
A8
330
A0
100
AcDbEntity
  8
MEGA_009641
  6
Continuous
 62
     7
 48
25.4
100
AcDbCircle
 10
24.972864183
 20
261.9020279783
 30
0.0
 40
2.0
100
AcDbArc
 50
92.0
 51
180.0
  0
ARC
  5
A9
330
A0
100
AcDbEntity
  8
MEGA_009641
  6
Continuous
 62
     7
 48
25.4
100
AcDbCircle
 10
24.972864183
 20
162.6727230844
 30
0.0
 40
1.999999999999991
100
AcDbArc
 50
180.0
 51
268.0
  0
LINE
  5
AA
330
A0
100
AcDbEntity
  8
MEGA_009641
  6
Continuous
 62
     7
 48
25.4
100
AcDbLine
 10
31.972864183
 20
160.4270586093
 30
0.0
 11
32.9445280662
 21
160.3931273588
 31
0.0
  0
LINE
  5
AB
330
A0
100
AcDbEntity
  8
MEGA_009641
  6
Continuous
 62
     7
 48
25.4
100
AcDbLine
 10
33.972864183
 20
160.3572170703
 30
0.0
 11
35.972864183
 21
160.2873755314
 31
0.0
  0
LINE
  5
AC
330
A0
100
AcDbEntity
  8
MEGA_001463
  6
Continuous
 62
     7
 48
25.4
100
AcDbLine
 10
43.972864183
 20
232.0067902868
 30
0.0
 11
43.972864183
 21
217.9724790616
 31
0.0
  0
LINE
  5
AD
330
A0
100
AcDbEntity
  8
MEGA_001463
  6
Continuous
 62
     7
 48
25.4
100
AcDbLine
 10
43.972864183
 20
206.6022720011
 30
0.0
 11
43.972864183
 21
192.5679607759
 31
0.0
  0
LINE
  5
AE
330
A0
100
AcDbEntity
  8
MEGA_001463
  6
Continuous
 62
     7
 48
25.4
100
AcDbLine
 10
20.97225501
 20
234.0778296416
 30
0.0
 11
20.97225501
 21
190.4969214211
 31
0.0
  0
LINE
  5
AF
330
A0
100
AcDbEntity
  8
MEGA_001463
  6
Continuous
 62
     7
 48
25.4
100
AcDbLine
 10
33.972864183
 20
160.2873755314
 30
0.0
 11
33.972864183
 21
160.3572170703
 31
0.0
  0
LINE
  5
B0
330
A0
100
AcDbEntity
  8
MEGA_001463
  6
Continuous
 62
     7
 48
25.4
100
AcDbLine
 10
32.972864183
 20
160.2873755314
 30
0.0
 11
32.972864183
 21
160.3921378398
 31
0.0
  0
LINE
  5
B1
330
A0
100
AcDbEntity
  8
MEGA_001463
  6
Continuous
 62
     7
 48
25.4
100
AcDbLine
 10
43.972864183
 20
206.6022720011
 30
0.0
 11
43.972864183
 21
217.9724790616
 31
0.0
  0
ARC
  5
B2
330
A0
100
AcDbEntity
  8
MEGA_001463
  6
Continuous
 62
     7
 48
25.4
100
AcDbCircle
 10
41.972864183
 20
192.5679607759
 30
0.0
 40
2.000000000000005
100
AcDbArc
 50
272.0
 51
360.0
  0
ARC
  5
B3
330
A0
100
AcDbEntity
  8
MEGA_001463
  6
Continuous
 62
     7
 48
25.4
100
AcDbCircle
 10
41.972864183
 20
232.0067902868
 30
0.0
 40
1.999999999999993
100
AcDbArc
 50
0.0
 51
88.0
  0
LINE
  5
B4
330
A0
100
AcDbEntity
  8
MEGA_001463
  6
Continuous
 62
     7
 48
25.4
100
AcDbLine
 10
20.97225501
 20
234.0778296416
 30
0.0
 11
20.1818008997
 21
233.2873755314
 31
0.0
  0
LINE
  5
B5
330
A0
100
AcDbEntity
  8
MEGA_001463
  6
Continuous
 62
     7
 48
25.4
100
AcDbLine
 10
20.1818008997
 20
191.2873755314
 30
0.0
 11
20.97225501
 21
190.4969214211
 31
0.0
  0
LINE
  5
B6
330
A0
100
AcDbEntity
  8
MEGA_001463
  6
Continuous
 62
     7
 48
25.4
100
AcDbLine
 10
22.972864183
 20
234.1476924534
 30
0.0
 11
20.97225501
 21
234.0778296416
 31
0.0
  0
LINE
  5
B7
330
A0
100
AcDbEntity
  8
MEGA_001463
  6
Continuous
 62
     7
 48
25.4
100
AcDbLine
 10
20.97225501
 20
190.4969214211
 30
0.0
 11
22.972864183
 21
190.4270586093
 31
0.0
  0
LINE
  5
B8
330
A0
100
AcDbEntity
  8
MEGA_001463
  6
Continuous
 62
     7
 48
25.4
100
AcDbLine
 10
35.972864183
 20
190.3572170703
 30
0.0
 11
42.0426631764
 21
190.5691791218
 31
0.0
  0
LINE
  5
B9
330
A0
100
AcDbEntity
  8
MEGA_001463
  6
Continuous
 62
     7
 48
25.4
100
AcDbLine
 10
42.0426631764
 20
234.0055719409
 30
0.0
 11
35.972864183
 21
234.2175339924
 31
0.0
  0
LINE
  5
BA
330
A0
100
AcDbEntity
  8
MEGA_001463
  6
Continuous
 62
     7
 48
25.4
100
AcDbLine
 10
32.9445280662
 20
160.3931273588
 30
0.0
 11
32.972864183
 21
160.2873755314
 31
0.0
  0
LINE
  5
BB
330
A0
100
AcDbEntity
  8
MEGA_001463
  6
Continuous
 62
     7
 48
25.4
100
AcDbLine
 10
32.972864183
 20
160.2873755314
 30
0.0
 11
33.972864183
 21
160.2873755314
 31
0.0
  0
LINE
  5
BC
330
A0
100
AcDbEntity
  8
MEGA_001463
  6
Continuous
 62
     7
 48
25.4
100
AcDbLine
 10
35.972864183
 20
205.3572170703
 30
0.0
 11
43.0077636797
 21
205.6028811741
 31
0.0
  0
LINE
  5
BD
330
A0
100
AcDbEntity
  8
MEGA_001463
  6
Continuous
 62
     7
 48
25.4
100
AcDbLine
 10
43.0077636797
 20
218.9718698886
 30
0.0
 11
35.972864183
 21
219.2175339924
 31
0.0
  0
ARC
  5
BE
330
A0
100
AcDbEntity
  8
MEGA_001463
  6
Continuous
 62
     7
 48
25.4
100
AcDbCircle
 10
42.972864183
 20
217.9724790616
 30
0.0
 40
0.9999999999999991
100
AcDbArc
 50
0.0
 51
88.0
  0
ARC
  5
BF
330
A0
100
AcDbEntity
  8
MEGA_001463
  6
Continuous
 62
     7
 48
25.4
100
AcDbCircle
 10
42.972864183
 20
206.6022720011
 30
0.0
 40
1.0
100
AcDbArc
 50
272.0
 51
360.0
  0
LINE
  5
C0
330
A0
100
AcDbEntity
  8
MEGA_001979
  6
Continuous
 62
     7
 48
25.4
100
AcDbLine
 10
17.972864183
 20
231.2873755314
 30
0.0
 11
17.972864183
 21
193.2873755314
 31
0.0
  0
LINE
  5
C1
330
A0
100
AcDbEntity
  8
MEGA_001979
  6
Continuous
 62
     7
 48
25.4
100
AcDbLine
 10
19.972864183
 20
233.2873755314
 30
0.0
 11
19.972864183
 21
191.2873755314
 31
0.0
  0
ARC
  5
C2
330
A0
100
AcDbEntity
  8
MEGA_001979
  6
Continuous
 62
     7
 48
25.4
100
AcDbCircle
 10
163.2220293081
 20
212.2873755314
 30
0.0
 40
145.6151570255759
100
AcDbArc
 50
179.0646820295
 51
180.9353179705
  0
LINE
  5
C3
330
A0
100
AcDbEntity
  8
MEGA_001979
  6
Continuous
 62
     7
 48
25.4
100
AcDbLine
 10
17.6122636764
 20
210.3128494443
 30
0.0
 11
16.5730341432
 21
210.2947096253
 31
0.0
  0
LINE
  5
C4
330
A0
100
AcDbEntity
  8
MEGA_001979
  6
Continuous
 62
     7
 48
25.4
100
AcDbLine
 10
17.6101397551
 20
214.2619386916
 30
0.0
 11
16.5730341432
 21
214.2800414374
 31
0.0
  0
ARC
  5
C5
330
A0
100
AcDbEntity
  8
MEGA_001979
  6
Continuous
 62
     7
 48
25.4
100
AcDbCircle
 10
116.1512732147
 20
212.2873755314
 30
0.0
 40
100.0
100
AcDbArc
 50
169.0472158011
 51
178.6235004456
  0
ARC
  5
C6
330
A0
100
AcDbEntity
  8
MEGA_001979
  6
Continuous
 62
     7
 48
25.4
100
AcDbCircle
 10
116.1512732147
 20
212.2873755314
 30
0.0
 40
100.0
100
AcDbArc
 50
181.3764995544
 51
190.9527841989
  0
LINE
  5
C7
330
A0
100
AcDbEntity
  8
MEGA_001979
  6
Continuous
 62
     7
 48
25.4
100
AcDbLine
 10
19.972864183
 20
233.2873755314
 30
0.0
 11
17.972864183
 21
231.2873755314
 31
0.0
  0
LINE
  5
C8
330
A0
100
AcDbEntity
  8
MEGA_001979
  6
Continuous
 62
     7
 48
25.4
100
AcDbLine
 10
17.972864183
 20
193.2873755314
 30
0.0
 11
19.972864183
 21
191.2873755314
 31
0.0
  0
LINE
  5
C9
330
A0
100
AcDbEntity
  8
MEGA_001979
  6
Continuous
 62
     7
 48
25.4
100
AcDbLine
 10
19.972864183
 20
191.2873755314
 30
0.0
 11
20.1818008997
 21
191.2873755314
 31
0.0
  0
LINE
  5
CA
330
A0
100
AcDbEntity
  8
MEGA_001979
  6
Continuous
 62
     7
 48
25.4
100
AcDbLine
 10
20.1818008997
 20
233.2873755314
 30
0.0
 11
19.972864183
 21
233.2873755314
 31
0.0
  0
ARC
  5
CB
330
A0
100
AcDbEntity
  8
MEGA_001979
  6
Continuous
 62
     7
 48
25.4
100
AcDbCircle
 10
16.5800151058
 20
209.8947705472
 30
0.0
 40
0.4000000000000001
100
AcDbArc
 50
91.0
 51
181.3764995544
  0
ARC
  5
CC
330
A0
100
AcDbEntity
  8
MEGA_001979
  6
Continuous
 62
     7
 48
25.4
100
AcDbCircle
 10
16.5800151058
 20
214.6799805155
 30
0.0
 40
0.4000000000000074
100
AcDbArc
 50
178.6235004456
 51
269.0
  0
ENDBLK
  5
D1
330
A0
100
AcDbEntity
  8
0
100
AcDbBlockEnd
  0
BLOCK
  5
DF
330
D2
100
AcDbEntity
  8
0
100
AcDbBlockBegin
  2
GDimGGroup
 70
     0
 71
     0
 10
0.0
 20
0.0
 30
0.0
  3
GDimGGroup
  1

  0
HATCH
  5
D4
330
D2
100
AcDbEntity
  8
Default
  6
Continuous
 62
   176
 48
25.4
100
AcDbHatch
 10
0.0
 20
0.0
 30
0.0
210
0.0
220
0.0
230
1.0
  2
SOLID
 70
     1
 71
     0
 91
        1
 92
        1
 93
        3
 72
     1
 10
120.1338964968097
 20
142.1427214349376
 11
120.1338964968097
 21
143.8093880643514
 72
     1
 10
120.1338964968097
 20
143.8093880643514
 11
115.1338966085684
 21
142.9760547496445
 72
     1
 10
115.1338966085684
 20
142.9760547496445
 11
120.1338964968097
 21
142.1427214349376
 97
        0
 75
     0
 76
     1
 98
        0
  0
LWPOLYLINE
  5
D5
330
D2
100
AcDbEntity
  8
Default
  6
Continuous
 62
   176
 48
25.4
370
     9
100
AcDbPolyline
 90
        4
 70
     1
 43
0.00013
 10
120.1338964968
 20
142.1427214349
 10
115.1338966086
 20
142.9760547496
 10
120.1338964968
 20
143.8093880644
 10
120.1338964968
 20
142.1427214349
  0
HATCH
  5
D6
330
D2
100
AcDbEntity
  8
Default
  6
Continuous
 62
   176
 48
25.4
100
AcDbHatch
 10
0.0
 20
0.0
 30
0.0
210
0.0
220
0.0
230
1.0
  2
SOLID
 70
     1
 71
     0
 91
        1
 92
        1
 93
        3
 72
     1
 10
152.133896154083
 20
142.1427214349376
 11
157.1338960423243
 21
142.9760547496445
 72
     1
 10
157.1338960423243
 20
142.9760547496445
 11
152.133896154083
 21
143.8093880643514
 72
     1
 10
152.133896154083
 20
143.8093880643514
 11
152.133896154083
 21
142.1427214349376
 97
        0
 75
     0
 76
     1
 98
        0
  0
LWPOLYLINE
  5
D7
330
D2
100
AcDbEntity
  8
Default
  6
Continuous
 62
   176
 48
25.4
370
     9
100
AcDbPolyline
 90
        4
 70
     1
 43
0.00013
 10
152.1338961541
 20
142.1427214349
 10
157.1338960423
 20
142.9760547496
 10
152.1338961541
 20
143.8093880644
 10
152.1338961541
 20
142.1427214349
  0
LINE
  5
D8
330
D2
100
AcDbEntity
  8
Default
  6
Continuous
 62
     7
 48
25.4
100
AcDbLine
 10
115.1338966086
 20
212.2873755314
 30
0.0
 11
115.1338966086
 21
140.4760548055
 31
0.0
  0
LINE
  5
D9
330
D2
100
AcDbEntity
  8
Default
  6
Continuous
 62
     7
 48
25.4
100
AcDbLine
 10
157.1338966086
 20
212.2873755314
 30
0.0
 11
157.1338966086
 21
140.4760548055
 31
0.0
  0
LINE
  5
DA
330
D2
100
AcDbEntity
  8
Default
  6
Continuous
 62
     7
 48
25.4
100
AcDbLine
 10
115.1338966086
 20
142.9760547496
 30
0.0
 11
157.1338960423
 21
142.9760547496
 31
0.0
  0
TEXT
  5
DC
330
D2
100
AcDbEntity
  8
Default
  6
Continuous
 62
     7
 48
25.4
100
AcDbText
 10
136.6109209384
 20
144.2260547496
 30
0.0
 40
5.0
  1
21
  7
SEACAD_seiso_ttf
 11
136.6109209384
 21
149.2260547496
 31
0.0
100
AcDbText
 73
     3
  0
TEXT
  5
DE
330
D2
100
AcDbEntity
  8
Default
  6
Continuous
 62
     7
 48
25.4
100
AcDbText
 10
130.5432353489
 20
144.2260547496
 30
0.0
 40
5.0
  1
O
  7
SEACAD_semeci1_ttf
 11
130.5432353489
 21
149.2260547496
 31
0.0
100
AcDbText
 73
     3
  0
ENDBLK
  5
E0
330
D2
100
AcDbEntity
  8
0
100
AcDbBlockEnd
  0
BLOCK
  5
EC
330
E1
100
AcDbEntity
  8
0
100
AcDbBlockBegin
  2
GDimGGroup1
 70
     0
 71
     0
 10
0.0
 20
0.0
 30
0.0
  3
GDimGGroup1
  1

  0
HATCH
  5
E3
330
E1
100
AcDbEntity
  8
Default
  6
Continuous
 62
   176
 48
25.4
100
AcDbHatch
 10
0.0
 20
0.0
 30
0.0
210
0.0
220
0.0
230
1.0
  2
SOLID
 70
     1
 71
     0
 91
        1
 92
        1
 93
        3
 72
     1
 10
206.3447485445629
 20
259.287375643111
 11
205.511415229856
 21
264.2873755313523
 72
     1
 10
205.511415229856
 20
264.2873755313523
 11
204.6780819151491
 21
259.287375643111
 72
     1
 10
204.6780819151491
 20
259.287375643111
 11
206.3447485445629
 21
259.287375643111
 97
        0
 75
     0
 76
     1
 98
        0
  0
LWPOLYLINE
  5
E4
330
E1
100
AcDbEntity
  8
Default
  6
Continuous
 62
   176
 48
25.4
370
     9
100
AcDbPolyline
 90
        4
 70
     1
 43
0.00013
 10
206.3447485446
 20
259.2873756431
 10
205.5114152299
 20
264.2873755314
 10
204.6780819151
 20
259.2873756431
 10
206.3447485446
 20
259.2873756431
  0
HATCH
  5
E5
330
E1
100
AcDbEntity
  8
Default
  6
Continuous
 62
   176
 48
25.4
100
AcDbHatch
 10
0.0
 20
0.0
 30
0.0
210
0.0
220
0.0
230
1.0
  2
SOLID
 70
     1
 71
     0
 91
        1
 92
        1
 93
        3
 72
     1
 10
206.3447485445629
 20
165.2873732738264
 11
204.6780819151491
 21
165.2873732738264
 72
     1
 10
204.6780819151491
 20
165.2873732738264
 11
205.511415229856
 21
160.2873733855851
 72
     1
 10
205.511415229856
 20
160.2873733855851
 11
206.3447485445629
 21
165.2873732738264
 97
        0
 75
     0
 76
     1
 98
        0
  0
LWPOLYLINE
  5
E6
330
E1
100
AcDbEntity
  8
Default
  6
Continuous
 62
   176
 48
25.4
370
     9
100
AcDbPolyline
 90
        4
 70
     1
 43
0.00013
 10
206.3447485446
 20
165.2873732738
 10
205.5114152299
 20
160.2873733856
 10
204.6780819151
 20
165.2873732738
 10
206.3447485446
 20
165.2873732738
  0
LINE
  5
E7
330
E1
100
AcDbEntity
  8
Default
  6
Continuous
 62
     7
 48
25.4
100
AcDbLine
 10
186.1351149545
 20
264.2873755314
 30
0.0
 11
208.011415174
 21
264.2873755314
 31
0.0
  0
LINE
  5
E8
330
E1
100
AcDbEntity
  8
Default
  6
Continuous
 62
     7
 48
25.4
100
AcDbLine
 10
186.1351149545
 20
160.2873755314
 30
0.0
 11
208.011415174
 21
160.2873755314
 31
0.0
  0
LINE
  5
E9
330
E1
100
AcDbEntity
  8
Default
  6
Continuous
 62
     7
 48
25.4
100
AcDbLine
 10
205.5114152299
 20
264.2873755314
 30
0.0
 11
205.5114152299
 21
160.2873733856
 31
0.0
  0
TEXT
  5
EA
330
E1
100
AcDbEntity
  8
Default
  6
Continuous
 62
     7
 48
25.4
100
AcDbText
 10
204.2614152299
 20
212.4212569515
 30
0.0
 40
5.0
  1
52
 50
90.0
  7
SEACAD_seiso_ttf
 11
199.2614152299
 21
212.4212569515
 31
0.0
100
AcDbText
 73
     3
  0
TEXT
  5
EB
330
E1
100
AcDbEntity
  8
Default
  6
Continuous
 62
     7
 48
25.4
100
AcDbText
 10
204.2614152299
 20
206.2444010563
 30
0.0
 40
5.0
  1
q
 50
90.0
  7
SEACAD_semeci1_ttf
 11
199.2614152299
 21
206.2444010563
 31
0.0
100
AcDbText
 73
     3
  0
ENDBLK
  5
ED
330
E1
100
AcDbEntity
  8
0
100
AcDbBlockEnd
  0
BLOCK
  5
F8
330
EE
100
AcDbEntity
  8
0
100
AcDbBlockBegin
  2
GDimGGroup2
 70
     0
 71
     0
 10
0.0
 20
0.0
 30
0.0
  3
GDimGGroup2
  1

  0
HATCH
  5
F0
330
EE
100
AcDbEntity
  8
Default
  6
Continuous
 62
   176
 48
25.4
100
AcDbHatch
 10
0.0
 20
0.0
 30
0.0
210
0.0
220
0.0
230
1.0
  2
SOLID
 70
     1
 71
     0
 91
        1
 92
        1
 93
        3
 72
     1
 10
201.9829954710278
 20
101.6779137739202
 11
200.316328841614
 21
101.6779137739202
 72
     1
 10
200.316328841614
 20
101.6779137739202
 11
201.1496621563209
 21
96.67791388567888
 72
     1
 10
201.1496621563209
 20
96.67791388567888
 11
201.9829954710278
 21
101.6779137739202
 97
        0
 75
     0
 76
     1
 98
        0
  0
LWPOLYLINE
  5
F1
330
EE
100
AcDbEntity
  8
Default
  6
Continuous
 62
   176
 48
25.4
370
     9
100
AcDbPolyline
 90
        4
 70
     1
 43
0.00013
 10
201.982995471
 20
101.6779137739
 10
201.1496621563
 20
96.6779138857
 10
200.3163288416
 20
101.6779137739
 10
201.982995471
 20
101.6779137739
  0
HATCH
  5
F2
330
EE
100
AcDbEntity
  8
Default
  6
Continuous
 62
   176
 48
25.4
100
AcDbHatch
 10
0.0
 20
0.0
 30
0.0
210
0.0
220
0.0
230
1.0
  2
SOLID
 70
     1
 71
     0
 91
        1
 92
        1
 93
        3
 72
     1
 10
201.9829954710278
 20
83.67791399743759
 11
201.1496621563209
 21
88.67791388567888
 72
     1
 10
201.1496621563209
 20
88.67791388567888
 11
200.316328841614
 21
83.67791399743759
 72
     1
 10
200.316328841614
 20
83.67791399743759
 11
201.9829954710278
 21
83.67791399743759
 97
        0
 75
     0
 76
     1
 98
        0
  0
LWPOLYLINE
  5
F3
330
EE
100
AcDbEntity
  8
Default
  6
Continuous
 62
   176
 48
25.4
370
     9
100
AcDbPolyline
 90
        4
 70
     1
 43
0.00013
 10
201.982995471
 20
83.6779139974
 10
201.1496621563
 20
88.6779138857
 10
200.3163288416
 20
83.6779139974
 10
201.982995471
 20
83.6779139974
  0
LINE
  5
F4
330
EE
100
AcDbEntity
  8
Default
  6
Continuous
 62
     7
 48
25.4
100
AcDbLine
 10
98.1338966086
 20
96.6779138857
 30
0.0
 11
203.6496621004
 21
96.6779138857
 31
0.0
  0
LINE
  5
F5
330
EE
100
AcDbEntity
  8
Default
  6
Continuous
 62
     7
 48
25.4
100
AcDbLine
 10
186.1351160926
 20
88.6779138857
 30
0.0
 11
203.6496621004
 21
88.6779138857
 31
0.0
  0
LINE
  5
F6
330
EE
100
AcDbEntity
  8
Default
  6
Continuous
 62
     7
 48
25.4
100
AcDbLine
 10
201.1496621563
 20
106.6779136622
 30
0.0
 11
201.1496621563
 21
78.6779146605
 31
0.0
  0
TEXT
  5
F7
330
EE
100
AcDbEntity
  8
Default
  6
Continuous
 62
     7
 48
25.4
100
AcDbText
 10
199.8996621563
 20
91.2006409684
 30
0.0
 40
5.0
  1
4
 50
90.0
  7
SEACAD_seiso_ttf
 11
194.8996621563
 21
91.2006409684
 31
0.0
100
AcDbText
 73
     3
  0
ENDBLK
  5
F9
330
EE
100
AcDbEntity
  8
0
100
AcDbBlockEnd
  0
BLOCK
  5
104
330
FA
100
AcDbEntity
  8
0
100
AcDbBlockBegin
  2
GDimGGroup3
 70
     0
 71
     0
 10
0.0
 20
0.0
 30
0.0
  3
GDimGGroup3
  1

  0
HATCH
  5
FC
330
FA
100
AcDbEntity
  8
Default
  6
Continuous
 62
   176
 48
25.4
100
AcDbHatch
 10
0.0
 20
0.0
 30
0.0
210
0.0
220
0.0
230
1.0
  2
SOLID
 70
     1
 71
     0
 91
        1
 92
        1
 93
        3
 72
     1
 10
201.9829970552216
 20
83.67791399743759
 11
201.1496637405147
 21
88.67791388567888
 72
     1
 10
201.1496637405147
 20
88.67791388567888
 11
200.3163304258079
 21
83.67791399743759
 72
     1
 10
200.3163304258079
 20
83.67791399743759
 11
201.9829970552216
 21
83.67791399743759
 97
        0
 75
     0
 76
     1
 98
        0
  0
LWPOLYLINE
  5
FD
330
FA
100
AcDbEntity
  8
Default
  6
Continuous
 62
   176
 48
25.4
370
     9
100
AcDbPolyline
 90
        4
 70
     1
 43
0.00013
 10
201.9829970552
 20
83.6779139974
 10
201.1496637405
 20
88.6779138857
 10
200.3163304258
 20
83.6779139974
 10
201.9829970552
 20
83.6779139974
  0
HATCH
  5
FE
330
FA
100
AcDbEntity
  8
Default
  6
Continuous
 62
   176
 48
25.4
100
AcDbHatch
 10
0.0
 20
0.0
 30
0.0
210
0.0
220
0.0
230
1.0
  2
SOLID
 70
     1
 71
     0
 91
        1
 92
        1
 93
        3
 72
     1
 10
201.9829970552216
 20
80.67791377392017
 11
200.3163304258079
 21
80.67791377392017
 72
     1
 10
200.3163304258079
 20
80.67791377392017
 11
201.1496637405147
 21
75.67791388567888
 72
     1
 10
201.1496637405147
 20
75.67791388567888
 11
201.9829970552216
 21
80.67791377392017
 97
        0
 75
     0
 76
     1
 98
        0
  0
LWPOLYLINE
  5
FF
330
FA
100
AcDbEntity
  8
Default
  6
Continuous
 62
   176
 48
25.4
370
     9
100
AcDbPolyline
 90
        4
 70
     1
 43
0.00013
 10
201.9829970552
 20
80.6779137739
 10
201.1496637405
 20
75.6779138857
 10
200.3163304258
 20
80.6779137739
 10
201.9829970552
 20
80.6779137739
  0
LINE
  5
100
330
FA
100
AcDbEntity
  8
Default
  6
Continuous
 62
     7
 48
25.4
100
AcDbLine
 10
186.1351149545
 20
88.6779138857
 30
0.0
 11
203.6496636846
 21
88.6779138857
 31
0.0
  0
LINE
  5
101
330
FA
100
AcDbEntity
  8
Default
  6
Continuous
 62
     7
 48
25.4
100
AcDbLine
 10
185.7485490556
 20
75.6779138857
 30
0.0
 11
203.6496636846
 21
75.6779138857
 31
0.0
  0
LINE
  5
102
330
FA
100
AcDbEntity
  8
Default
  6
Continuous
 62
     7
 48
25.4
100
AcDbLine
 10
201.1496637405
 20
88.6779138857
 30
0.0
 11
201.1496637405
 21
64.62370139
 31
0.0
  0
TEXT
  5
103
330
FA
100
AcDbEntity
  8
Default
  6
Continuous
 62
     7
 48
25.4
100
AcDbText
 10
199.8996637405
 20
66.3737010493
 30
0.0
 40
5.0
  1
6,5
 50
90.0
  7
SEACAD_seiso_ttf
 11
194.8996637405
 21
66.3737010493
 31
0.0
100
AcDbText
 73
     3
  0
ENDBLK
  5
105
330
FA
100
AcDbEntity
  8
0
100
AcDbBlockEnd
  0
BLOCK
  5
110
330
106
100
AcDbEntity
  8
0
100
AcDbBlockBegin
  2
GDimGGroup4
 70
     0
 71
     0
 10
0.0
 20
0.0
 30
0.0
  3
GDimGGroup4
  1

  0
HATCH
  5
108
330
106
100
AcDbEntity
  8
Default
  6
Continuous
 62
   176
 48
25.4
100
AcDbHatch
 10
0.0
 20
0.0
 30
0.0
210
0.0
220
0.0
230
1.0
  2
SOLID
 70
     1
 71
     0
 91
        1
 92
        1
 93
        3
 72
     1
 10
103.1338964968098
 20
119.4122953775368
 11
98.13389660856846
 21
118.5789620628299
 72
     1
 10
98.13389660856846
 20
118.5789620628299
 11
103.1338964968098
 21
117.745628748123
 72
     1
 10
103.1338964968098
 20
117.745628748123
 11
103.1338964968098
 21
119.4122953775368
 97
        0
 75
     0
 76
     1
 98
        0
  0
LWPOLYLINE
  5
109
330
106
100
AcDbEntity
  8
Default
  6
Continuous
 62
   176
 48
25.4
370
     9
100
AcDbPolyline
 90
        4
 70
     1
 43
0.00013
 10
103.1338964968
 20
119.4122953775
 10
98.1338966086
 20
118.5789620628
 10
103.1338964968
 20
117.7456287481
 10
103.1338964968
 20
119.4122953775
  0
HATCH
  5
10A
330
106
100
AcDbEntity
  8
Default
  6
Continuous
 62
   176
 48
25.4
100
AcDbHatch
 10
0.0
 20
0.0
 30
0.0
210
0.0
220
0.0
230
1.0
  2
SOLID
 70
     1
 71
     0
 91
        1
 92
        1
 93
        3
 72
     1
 10
169.1338942765368
 20
119.4122953775368
 11
169.1338942765368
 21
117.745628748123
 72
     1
 10
169.1338942765368
 20
117.745628748123
 11
174.133894164778
 21
118.5789620628299
 72
     1
 10
174.133894164778
 20
118.5789620628299
 11
169.1338942765368
 21
119.4122953775368
 97
        0
 75
     0
 76
     1
 98
        0
  0
LWPOLYLINE
  5
10B
330
106
100
AcDbEntity
  8
Default
  6
Continuous
 62
   176
 48
25.4
370
     9
100
AcDbPolyline
 90
        4
 70
     1
 43
0.00013
 10
169.1338942765
 20
119.4122953775
 10
174.1338941648
 20
118.5789620628
 10
169.1338942765
 20
117.7456287481
 10
169.1338942765
 20
119.4122953775
  0
LINE
  5
10C
330
106
100
AcDbEntity
  8
Default
  6
Continuous
 62
     7
 48
25.4
100
AcDbLine
 10
98.1338966086
 20
97.4628133824
 30
0.0
 11
98.1338966086
 21
121.078962007
 31
0.0
  0
LINE
  5
10D
330
106
100
AcDbEntity
  8
Default
  6
Continuous
 62
     7
 48
25.4
100
AcDbLine
 10
174.1338966086
 20
97.4628133824
 30
0.0
 11
174.1338966086
 21
121.078962007
 31
0.0
  0
LINE
  5
10E
330
106
100
AcDbEntity
  8
Default
  6
Continuous
 62
     7
 48
25.4
100
AcDbLine
 10
98.1338966086
 20
118.5789620628
 30
0.0
 11
174.1338941648
 21
118.5789620628
 31
0.0
  0
TEXT
  5
10F
330
106
100
AcDbEntity
  8
Default
  6
Continuous
 62
     7
 48
25.4
100
AcDbText
 10
133.2361681139
 20
119.8289620628
 30
0.0
 40
5.0
  1
38
  7
SEACAD_seiso_ttf
 11
133.2361681139
 21
124.8289620628
 31
0.0
100
AcDbText
 73
     3
  0
ENDBLK
  5
111
330
106
100
AcDbEntity
  8
0
100
AcDbBlockEnd
  0
BLOCK
  5
11D
330
112
100
AcDbEntity
  8
0
100
AcDbBlockBegin
  2
GDimGGroup5
 70
     0
 71
     0
 10
0.0
 20
0.0
 30
0.0
  3
GDimGGroup5
  1

  0
HATCH
  5
114
330
112
100
AcDbEntity
  8
Default
  6
Continuous
 62
   176
 48
25.4
100
AcDbHatch
 10
0.0
 20
0.0
 30
0.0
210
0.0
220
0.0
230
1.0
  2
SOLID
 70
     1
 71
     0
 91
        1
 92
        1
 93
        3
 72
     1
 10
96.16759854902178
 20
111.3397283146261
 11
91.16759866078048
 21
110.5063949999192
 72
     1
 10
91.16759866078048
 20
110.5063949999192
 11
96.16759854902178
 21
109.6730616852124
 72
     1
 10
96.16759854902178
 20
109.6730616852124
 11
96.16759854902178
 21
111.3397283146261
 97
        0
 75
     0
 76
     1
 98
        0
  0
LWPOLYLINE
  5
115
330
112
100
AcDbEntity
  8
Default
  6
Continuous
 62
   176
 48
25.4
370
     9
100
AcDbPolyline
 90
        4
 70
     1
 43
0.00013
 10
96.167598549
 20
111.3397283146
 10
91.1675986608
 20
110.5063949999
 10
96.167598549
 20
109.6730616852
 10
96.167598549
 20
111.3397283146
  0
HATCH
  5
116
330
112
100
AcDbEntity
  8
Default
  6
Continuous
 62
   176
 48
25.4
100
AcDbHatch
 10
0.0
 20
0.0
 30
0.0
210
0.0
220
0.0
230
1.0
  2
SOLID
 70
     1
 71
     0
 91
        1
 92
        1
 93
        3
 72
     1
 10
100.1001947333351
 20
111.3397283146261
 11
100.1001947333351
 21
109.6730616852124
 72
     1
 10
100.1001947333351
 20
109.6730616852124
 11
105.1001946215764
 21
110.5063949999192
 72
     1
 10
105.1001946215764
 20
110.5063949999192
 11
100.1001947333351
 21
111.3397283146261
 97
        0
 75
     0
 76
     1
 98
        0
  0
LWPOLYLINE
  5
117
330
112
100
AcDbEntity
  8
Default
  6
Continuous
 62
   176
 48
25.4
370
     9
100
AcDbPolyline
 90
        4
 70
     1
 43
0.00013
 10
100.1001947333
 20
111.3397283146
 10
105.1001946216
 20
110.5063949999
 10
100.1001947333
 20
109.6730616852
 10
100.1001947333
 20
111.3397283146
  0
LINE
  5
118
330
112
100
AcDbEntity
  8
Default
  6
Continuous
 62
     7
 48
25.4
100
AcDbLine
 10
91.1675986608
 20
87.643014389
 30
0.0
 11
91.1675986608
 21
113.006394944
 31
0.0
  0
LINE
  5
119
330
112
100
AcDbEntity
  8
Default
  6
Continuous
 62
     7
 48
25.4
100
AcDbLine
 10
105.1001945564
 20
87.643014389
 30
0.0
 11
105.1001945564
 21
113.006394944
 31
0.0
  0
LINE
  5
11A
330
112
100
AcDbEntity
  8
Default
  6
Continuous
 62
     7
 48
25.4
100
AcDbLine
 10
67.7723937442
 20
110.5063949999
 30
0.0
 11
105.1001946216
 21
110.5063949999
 31
0.0
  0
TEXT
  5
11B
330
112
100
AcDbEntity
  8
Default
  6
Continuous
 62
     7
 48
25.4
100
AcDbText
 10
75.5900798603
 20
111.7563949999
 30
0.0
 40
5.0
  1
7
  7
SEACAD_seiso_ttf
 11
75.5900798603
 21
116.7563949999
 31
0.0
100
AcDbText
 73
     3
  0
TEXT
  5
11C
330
112
100
AcDbEntity
  8
Default
  6
Continuous
 62
     7
 48
25.4
100
AcDbText
 10
69.5223942708
 20
111.7563949999
 30
0.0
 40
5.0
  1
O
  7
SEACAD_semeci1_ttf
 11
69.5223942708
 21
116.7563949999
 31
0.0
100
AcDbText
 73
     3
  0
ENDBLK
  5
11E
330
112
100
AcDbEntity
  8
0
100
AcDbBlockEnd
  0
BLOCK
  5
129
330
11F
100
AcDbEntity
  8
0
100
AcDbBlockBegin
  2
GDimGGroup6
 70
     0
 71
     0
 10
0.0
 20
0.0
 30
0.0
  3
GDimGGroup6
  1

  0
HATCH
  5
121
330
11F
100
AcDbEntity
  8
Default
  6
Continuous
 62
   176
 48
25.4
100
AcDbHatch
 10
0.0
 20
0.0
 30
0.0
210
0.0
220
0.0
230
1.0
  2
SOLID
 70
     1
 71
     0
 91
        1
 92
        1
 93
        3
 72
     1
 10
69.80817315009969
 20
93.67791385960184
 11
70.80817315879204
 21
93.67791385960184
 72
     1
 10
70.80817315879204
 20
93.67791385960184
 11
70.30817315444587
 21
96.67791388567888
 72
     1
 10
70.30817315444587
 20
96.67791388567888
 11
69.80817315009969
 21
93.67791385960184
 97
        0
 75
     0
 76
     1
 98
        0
  0
LWPOLYLINE
  5
122
330
11F
100
AcDbEntity
  8
Default
  6
Continuous
 62
   176
 48
25.4
370
     9
100
AcDbPolyline
 90
        4
 70
     1
 43
0.00013
 10
69.8081731501
 20
93.6779138596
 10
70.3081731544
 20
96.6779138857
 10
70.8081731588
 20
93.6779138596
 10
69.8081731501
 20
93.6779138596
  0
HATCH
  5
123
330
11F
100
AcDbEntity
  8
Default
  6
Continuous
 62
   176
 48
25.4
100
AcDbHatch
 10
0.0
 20
0.0
 30
0.0
210
0.0
220
0.0
230
1.0
  2
SOLID
 70
     1
 71
     0
 91
        1
 92
        1
 93
        3
 72
     1
 10
69.80817315009969
 20
71.88517702382409
 11
70.30817315444587
 21
68.88517699774705
 72
     1
 10
70.30817315444587
 20
68.88517699774705
 11
70.80817315879204
 21
71.88517702382409
 72
     1
 10
70.80817315879204
 20
71.88517702382409
 11
69.80817315009969
 21
71.88517702382409
 97
        0
 75
     0
 76
     1
 98
        0
  0
LWPOLYLINE
  5
124
330
11F
100
AcDbEntity
  8
Default
  6
Continuous
 62
   176
 48
25.4
370
     9
100
AcDbPolyline
 90
        4
 70
     1
 43
0.00013
 10
69.8081731501
 20
71.8851770238
 10
70.3081731544
 20
68.8851769977
 10
70.8081731588
 20
71.8851770238
 10
69.8081731501
 20
71.8851770238
  0
LINE
  5
125
330
11F
100
AcDbEntity
  8
Default
  6
Continuous
 62
     7
 48
25.4
100
AcDbLine
 10
116.4144818531
 20
96.6779138857
 30
0.0
 11
68.8081731414
 21
96.6779138857
 31
0.0
  0
LINE
  5
126
330
11F
100
AcDbEntity
  8
Default
  6
Continuous
 62
     7
 48
25.4
100
AcDbLine
 10
136.1338966086
 20
68.8851770523
 30
0.0
 11
68.8081731414
 21
68.8851770523
 31
0.0
  0
LINE
  5
127
330
11F
100
AcDbEntity
  8
Default
  6
Continuous
 62
     7
 48
25.4
100
AcDbLine
 10
70.3081731544
 20
96.6779138857
 30
0.0
 11
70.3081731544
 21
68.8851769977
 31
0.0
  0
TEXT
  5
128
330
11F
100
AcDbEntity
  8
Default
  6
Continuous
 62
     7
 48
25.4
100
AcDbText
 10
69.5581731544
 20
80.1906363508
 30
0.0
 40
3.0
  1
13,9
 50
90.0
  7
SEACAD_seiso_ttf
 11
66.5581731544
 21
80.1906363508
 31
0.0
100
AcDbText
 73
     3
  0
ENDBLK
  5
12A
330
11F
100
AcDbEntity
  8
0
100
AcDbBlockEnd
  0
ENDSEC
  0
SECTION
  2
ENTITIES
  0
INSERT
  5
2C
330
1F
100
AcDbEntity
  8
Default
100
AcDbBlockReference
  2
SEANNOT_GROUP
 10
0.0
 20
0.0
 30
0.0
  0
INSERT
  5
32
330
1F
100
AcDbEntity
  8
Default
100
AcDbBlockReference
  2
SEANNOT_GROUP1
 10
0.0
 20
0.0
 30
0.0
  0
INSERT
  5
37
330
1F
100
AcDbEntity
  8
Default
100
AcDbBlockReference
  2
SEANNOT_GROUP2
 10
0.0
 20
0.0
 30
0.0
  0
INSERT
  5
3C
330
1F
100
AcDbEntity
  8
Default
100
AcDbBlockReference
  2
SEANNOT_GROUP3
 10
0.0
 20
0.0
 30
0.0
  0
INSERT
  5
41
330
1F
100
AcDbEntity
  8
Default
100
AcDbBlockReference
  2
SEANNOT_GROUP4
 10
0.0
 20
0.0
 30
0.0
  0
INSERT
  5
46
102
{ACAD_XDICTIONARY
360
6D
102
}
330
1F
100
AcDbEntity
  8
Default
100
AcDbBlockReference
  2
SE
 10
0.0
 20
0.0
 30
0.0
  0
INSERT
  5
73
102
{ACAD_XDICTIONARY
360
9B
102
}
330
1F
100
AcDbEntity
  8
Default
100
AcDbBlockReference
  2
SE1
 10
0.0
 20
0.0
 30
0.0
  0
INSERT
  5
A1
102
{ACAD_XDICTIONARY
360
CD
102
}
330
1F
100
AcDbEntity
  8
Default
100
AcDbBlockReference
  2
SE2
 10
0.0
 20
0.0
 30
0.0
  0
INSERT
  5
D3
330
1F
100
AcDbEntity
  8
Default
100
AcDbBlockReference
  2
GDimGGroup
 10
0.0
 20
0.0
 30
0.0
  0
INSERT
  5
E2
330
1F
100
AcDbEntity
  8
Default
100
AcDbBlockReference
  2
GDimGGroup1
 10
0.0
 20
0.0
 30
0.0
  0
INSERT
  5
EF
330
1F
100
AcDbEntity
  8
Default
100
AcDbBlockReference
  2
GDimGGroup2
 10
0.0
 20
0.0
 30
0.0
  0
INSERT
  5
FB
330
1F
100
AcDbEntity
  8
Default
100
AcDbBlockReference
  2
GDimGGroup3
 10
0.0
 20
0.0
 30
0.0
  0
INSERT
  5
107
330
1F
100
AcDbEntity
  8
Default
100
AcDbBlockReference
  2
GDimGGroup4
 10
0.0
 20
0.0
 30
0.0
  0
INSERT
  5
113
330
1F
100
AcDbEntity
  8
Default
100
AcDbBlockReference
  2
GDimGGroup5
 10
0.0
 20
0.0
 30
0.0
  0
INSERT
  5
120
330
1F
100
AcDbEntity
  8
Default
100
AcDbBlockReference
  2
GDimGGroup6
 10
0.0
 20
0.0
 30
0.0
  0
ENDSEC
  0
SECTION
  2
OBJECTS
  0
DICTIONARY
  5
C
330
0
100
AcDbDictionary
281
     1
  3
ACAD_GROUP
350
D
  3
ACAD_LAYOUT
350
1A
  3
ACAD_MLINESTYLE
350
17
  3
ACAD_PLOTSETTINGS
350
19
  3
ACAD_PLOTSTYLENAME
350
E
  0
DICTIONARY
  5
6D
330
46
100
AcDbDictionary
280
     1
281
     1
  3
ACAD_FILTER
360
6E
  0
DICTIONARY
  5
9B
330
73
100
AcDbDictionary
280
     1
281
     1
  3
ACAD_FILTER
360
9C
  0
DICTIONARY
  5
CD
330
A1
100
AcDbDictionary
280
     1
281
     1
  3
ACAD_FILTER
360
CE
  0
DICTIONARY
  5
D
102
{ACAD_REACTORS
330
C
102
}
330
C
100
AcDbDictionary
281
     1
  0
DICTIONARY
  5
1A
102
{ACAD_REACTORS
330
C
102
}
330
C
100
AcDbDictionary
281
     1
  3
Layout1
350
1E
  3
Model
350
22
  0
DICTIONARY
  5
17
102
{ACAD_REACTORS
330
C
102
}
330
C
100
AcDbDictionary
281
     1
  3
Standard
350
18
  0
DICTIONARY
  5
19
102
{ACAD_REACTORS
330
C
102
}
330
C
100
AcDbDictionary
281
     1
  0
ACDBDICTIONARYWDFLT
  5
E
102
{ACAD_REACTORS
330
C
102
}
330
C
100
AcDbDictionary
281
     1
  3
Normal
350
F
100
AcDbDictionaryWithDefault
340
F
  0
DICTIONARY
  5
6E
102
{ACAD_REACTORS
330
6D
102
}
330
6D
100
AcDbDictionary
281
     1
  3
SPATIAL
360
6F
  0
DICTIONARY
  5
9C
102
{ACAD_REACTORS
330
9B
102
}
330
9B
100
AcDbDictionary
281
     1
  3
SPATIAL
360
9D
  0
DICTIONARY
  5
CE
102
{ACAD_REACTORS
330
CD
102
}
330
CD
100
AcDbDictionary
281
     1
  3
SPATIAL
360
CF
  0
LAYOUT
  5
1E
102
{ACAD_REACTORS
330
1A
102
}
330
1A
100
AcDbPlotSettings
  1

  2

  4

  6

 40
0.0
 41
0.0
 42
0.0
 43
0.0
 44
0.0
 45
0.0
 46
0.0
 47
0.0
 48
0.0
 49
0.0
140
0.0
141
0.0
142
1.0
143
1.0
 70
   688
 72
     0
 73
     0
 74
     5
  7

 75
    16
147
1.0
148
0.0
149
0.0
100
AcDbLayout
  1
Layout1
 70
     1
 71
     1
 10
0.0
 20
0.0
 11
210.0
 21
297.0
 12
0.0
 22
0.0
 32
0.0
 14
0.0
 24
0.0
 34
0.0
 15
210.0
 25
297.0
 35
0.0
146
0.0
 13
0.0
 23
0.0
 33
0.0
 16
1.0
 26
0.0
 36
0.0
 17
0.0
 27
1.0
 37
0.0
 76
     0
330
1B
  0
LAYOUT
  5
22
102
{ACAD_REACTORS
330
1A
102
}
330
1A
100
AcDbPlotSettings
  1

  2

  4

  6

 40
0.0
 41
0.0
 42
0.0
 43
0.0
 44
0.0
 45
0.0
 46
0.0
 47
0.0
 48
0.0
 49
0.0
140
0.0
141
0.0
142
1.0
143
1.0
 70
  1712
 72
     0
 73
     0
 74
     0
  7

 75
     0
147
1.0
148
0.0
149
0.0
100
AcDbLayout
  1
Model
 70
     1
 71
     0
 10
0.0
 20
0.0
 11
210.0
 21
297.0
 12
0.0
 22
0.0
 32
0.0
 14
0.0
 24
0.0
 34
0.0
 15
210.0
 25
297.0
 35
0.0
146
0.0
 13
0.0
 23
0.0
 33
0.0
 16
1.0
 26
0.0
 36
0.0
 17
0.0
 27
1.0
 37
0.0
 76
     0
330
1F
  0
MLINESTYLE
  5
18
102
{ACAD_REACTORS
330
17
102
}
330
17
100
AcDbMlineStyle
  2
Standard
 70
     0
  3

 62
   256
 51
90.0
 52
90.0
 71
     2
 49
0.5
 62
   256
  6
BYLAYER
 49
-0.5
 62
   256
  6
BYLAYER
  0
ACDBPLACEHOLDER
  5
F
102
{ACAD_REACTORS
330
E
102
}
330
E
  0
SPATIAL_FILTER
  5
6F
102
{ACAD_REACTORS
330
6E
102
}
330
6E
100
AcDbFilter
100
AcDbSpatialFilter
 70
     2
 10
77.7838966086
 20
153.9373755314
 10
194.4838966086
 20
270.6373755314
210
0.0
220
0.0
230
1.0
 11
0.0
 21
0.0
 31
0.0
 71
     1
 72
     0
 73
     0
 40
1.0
 40
0.0
 40
0.0
 40
0.0
 40
0.0
 40
1.0
 40
0.0
 40
0.0
 40
0.0
 40
0.0
 40
1.0
 40
0.0
 40
1.0
 40
0.0
 40
0.0
 40
0.0
 40
0.0
 40
1.0
 40
0.0
 40
0.0
 40
0.0
 40
0.0
 40
1.0
 40
0.0
  0
SPATIAL_FILTER
  5
9D
102
{ACAD_REACTORS
330
9C
102
}
330
9C
100
AcDbFilter
100
AcDbSpatialFilter
 70
     2
 10
77.7838966086
 20
62.5351770523
 10
194.4838966086
 20
103.0279138857
210
0.0
220
0.0
230
1.0
 11
0.0
 21
0.0
 31
0.0
 71
     1
 72
     0
 73
     0
 40
1.0
 40
0.0
 40
0.0
 40
0.0
 40
0.0
 40
1.0
 40
0.0
 40
0.0
 40
0.0
 40
0.0
 40
1.0
 40
0.0
 40
1.0
 40
0.0
 40
0.0
 40
0.0
 40
0.0
 40
1.0
 40
0.0
 40
0.0
 40
0.0
 40
0.0
 40
1.0
 40
0.0
  0
SPATIAL_FILTER
  5
CF
102
{ACAD_REACTORS
330
CE
102
}
330
CE
100
AcDbFilter
100
AcDbSpatialFilter
 70
     2
 10
9.8300151058
 20
153.9373755314
 10
50.322864183
 20
270.6373755314
210
0.0
220
0.0
230
1.0
 11
0.0
 21
0.0
 31
0.0
 71
     1
 72
     0
 73
     0
 40
1.0
 40
0.0
 40
0.0
 40
0.0
 40
0.0
 40
1.0
 40
0.0
 40
0.0
 40
0.0
 40
0.0
 40
1.0
 40
0.0
 40
1.0
 40
0.0
 40
0.0
 40
0.0
 40
0.0
 40
1.0
 40
0.0
 40
0.0
 40
0.0
 40
0.0
 40
1.0
 40
0.0
  0
ENDSEC
  0
EOF
