  0
SECTION
  2
HEADER
  9
$ACADVER
  1
AC1009
  9
$INSBASE
 10
0
 20
0
  9
$EXTMIN
 10
-51.5
 20
-262.3096804126291
  9
$EXTMAX
 10
260.285635829153
 20
75.5
  9
$LIMMIN
 10
-51.5
 20
-262.3096804126291
  9
$LIMMAX
 10
260.285635829153
 20
75.5
  9
$VIEWCTR
 10
10
 20
10
  9
$VIEWSIZE
 40
10
  9
$SNAPMODE
 70
0
  9
$SNAPUNIT
 10
1
 20
1
  9
$SNAPBASE
 10
0
 20
0
  9
$SNAPANG
 50
0
  9
$SNAPSTYLE
 70
0
  9
$SNAPISOPAIR
 70
0
  9
$GRIDMODE
 70
0
  9
$GRIDUNIT
 10
0
 20
0
  9
$ORTHOMODE
 70
0
  9
$REGENMODE
 70
1
  9
$FILLMODE
 70
1
  9
$QTEXTMODE
 70
0
  9
$DRAGMODE
 70
2
  9
$LTSCALE
 40
1
  9
$OSMODE
 70
0
  9
$ATTMODE
 70
1
  9
$TEXTSIZE
 40
3.5
  9
$TRACEWID
 40
0.5
  9
$TEXTSTYLE
  7
STANDARD
  9
$CLAYER
  8
0
  9
$CELTYPE
  6
BYLAYER
  9
$CECOLOR
 62
256
  9
$DIMSCALE
 40
1
  9
$DIMASZ
 40
0.18
  9
$DIMEXO
 40
0.0625
  9
$DIMDLI
 40
0.38
  9
$DIMRND
 40
0
  9
$DIMDLE
 40
0
  9
$DIMEXE
 40
0.18
  9
$DIMTP
 40
0
  9
$DIMTM
 40
0
  9
$DIMTXT
 40
0.18
  9
$DIMCEN
 40
0.09
  9
$DIMTSZ
 40
0
  9
$DIMTOL
 70
0
  9
$DIMLIM
 70
0
  9
$DIMTIH
 70
1
  9
$DIMTOH
 70
1
  9
$DIMSE1
 70
0
  9
$DIMSE2
 70
0
  9
$DIMTAD
 70
0
  9
$DIMZIN
 70
0
  9
$DIMBLK
  1

  9
$DIMASO
 70
1
  9
$DIMSHO
 70
1
  9
$DIMPOST
  1

  9
$DIMAPOST
  1

  9
$DIMALT
 70
0
  9
$DIMALTD
 70
2
  9
$DIMALTF
 40
25.4
  9
$DIMLFAC
 40
1
  9
$DIMTOFL
 70
0
  9
$DIMTVP
 40
0
  9
$DIMTIX
 70
0
  9
$DIMSOXD
 70
0
  9
$DIMSAH
 70
0
  9
$DIMBLK1
  1

  9
$DIMBLK2
  1

  9
$DIMSTYLE
  2
*UNNAMED
  9
$DIMCLRD
 70
0
  9
$DIMCLRE
 70
0
  9
$DIMCLRT
 70
0
  9
$DIMTFAC
 40
1
  9
$DIMGAP
 40
0.09
  9
$LUNITS
 70
2
  9
$LUPREC
 70
4
  9
$AXISMODE
 70
0
  9
$AXISUNIT
 10
0
 20
0
  9
$SKETCHINC
 40
0.1
  9
$FILLETRAD
 40
2
  9
$AUNITS
 70
0
  9
$AUPREC
 70
0
  9
$MENU
  1
ACAD
  9
$ELEVATION
 40
0
  9
$THICKNESS
 40
0
  9
$VIEWDIR
 10
0
 20
0
 30
1
  9
$LIMCHECK
 70
0
  9
$BLIPMODE
 70
1
  9
$CHAMFERA
 40
0
  9
$CHAMFERB
 40
0
  9
$FASTZOOM
 70
1
  9
$SKPOLY
 70
0
  9
$ANGBASE
 50
0
  9
$ANGDIR
 70
0
  9
$PDMODE
 70
0
  9
$PDSIZE
 40
0
  9
$PLINEWID
 40
0
  9
$COORDS
 70
2
  0
ENDSEC
  0
SECTION
  2
TABLES
  0
TABLE
  2
DIMSTYLE
 70
0
  0
ENDTAB
  0
TABLE
  2
LTYPE
 70
9
  0
LTYPE
  2
CONTINUOUS
 70
64
  3
Solid line
 72
65
 73
0
 40
0
  0
LTYPE
  2
BORDER
 70
64
  3
__ __ . __ __ .
 72
65
 73
6
 40
15.55702475584476
 49
4.444864215955646
 49
-2.222432107977823
 49
4.444864215955646
 49
-2.222432107977823
 49
0
 49
-2.222432107977823
  0
LTYPE
  2
CENTER
 70
64
  3
____ _ ____ _
 72
65
 73
4
 40
17.77945686382258
 49
11.11216053988912
 49
-2.222432107977823
 49
2.222432107977823
 49
-2.222432107977823
  0
LTYPE
  2
DASHDOT
 70
64
  3
__ . __ . __ .
 72
65
 73
4
 40
8.889728431911292
 49
4.444864215955646
 49
-2.222432107977823
 49
0
 49
-2.222432107977823
  0
LTYPE
  2
DASHED
 70
64
  3
__ __ __ __ __
 72
65
 73
2
 40
6.667296323933469
 49
4.444864215955646
 49
-2.222432107977823
  0
LTYPE
  2
DIVIDE
 70
64
  3
__ . . __ . . 
 72
65
 73
6
 40
11.11216053988912
 49
4.444864215955646
 49
-2.222432107977823
 49
0
 49
-2.222432107977823
 49
0
 49
-2.222432107977823
  0
LTYPE
  2
DOT
 70
64
  3
..............
 72
65
 73
4
 40
4.444864215955646
 49
0
 49
-2.222432107977823
 49
0
 49
-2.222432107977823
  0
LTYPE
  2
HIDDEN
 70
64
  3
_ _ _ _ _ _ _
 72
65
 73
2
 40
3.333648161966734
 49
2.222432107977823
 49
-1.111216053988912
  0
LTYPE
  2
PHANTOM
 70
64
  3
_____ _ _ _____ _ _ 
 72
65
 73
6
 40
22.22432107977823
 49
11.11216053988912
 49
-2.222432107977823
 49
2.222432107977823
 49
-2.222432107977823
 49
2.222432107977823
 49
-2.222432107977823
  0
ENDTAB
  0
TABLE
  2
LAYER
 70
3
  0
LAYER
  2
106
 70
0
 62
7
  6
CONTINUOUS
  0
LAYER
  2
0
 70
0
 62
7
  6
CONTINUOUS
  0
ENDTAB
  0
TABLE
  2
STYLE
 70
4
  0
STYLE
  2
STANDARD
 70
0
 40
0
 41
1
 50
0
 71
0
 42
3.5
  3
txt
  4

  0
STYLE
  2
SIMPLEX
 70
0
 40
0
 41
1
 50
0
 71
0
 42
3.5
  3
simplex
  4

  0
STYLE
  2
COMPLEX
 70
0
 40
0
 41
1
 50
0
 71
0
 42
3.5
  3
complex
  4

  0
STYLE
  2
ITALIC
 70
0
 40
0
 41
1
 50
0
 71
0
 42
3.5
  3
italic
  4

  0
ENDTAB
  0
TABLE
  2
VIEW
 70
0
  0
ENDTAB
  0
ENDSEC
  0
SECTION
  2
BLOCKS
  0
ENDSEC
  0
SECTION
  2
ENTITIES
  0
LINE
  8
106
 62
1
  6
DASHDOT
 10
-6.365257933531012
 20
-91.8
 30
0
 11
7.181772691913011
 21
-91.8
 31
0
  0
LINE
  8
106
 62
1
  6
DASHDOT
 10
-10.03639982057899
 20
-72
 30
0
 11
10.542677236393
 21
-72
 31
0
  0
LINE
  8
106
 62
7
 10
5.199999999999989
 20
-91.8
 30
0
 11
5.199999999999989
 21
-78.97495519698873
 31
0
  0
LINE
  8
106
 62
7
 10
-5.199999999999989
 20
-78.97495519698873
 30
0
 11
-5.199999999999989
 21
-91.8
 31
0
  0
LINE
  8
106
 62
1
  6
DASHDOT
 10
111.3489984737169
 20
-112
 30
0
 11
100.8743680707487
 21
-112
 31
0
  0
LINE
  8
106
 62
1
  6
DASHDOT
 10
106
 20
-117.459045167632
 30
0
 11
106
 21
-106.107876655629
 31
0
  0
LINE
  8
106
 62
1
  6
DASHDOT
 10
106
 20
27.3490347090823
 30
0
 11
106
 21
38.63140826040679
 31
0
  0
LINE
  8
106
 62
1
  6
DASHDOT
 10
5.400809317126999
 20
-21.5
 30
0
 11
-5.143092024344014
 21
-21.5
 31
0
  0
LINE
  8
106
 62
1
  6
DASHED
 10
136
 20
56
 30
0
 11
136
 21
-135
 31
0
  0
LINE
  8
106
 62
1
  6
DASHED
 10
-32
 20
-142
 30
0
 11
129
 21
-142
 31
0
  0
LINE
  8
106
 62
1
  6
DASHED
 10
129
 20
63
 30
0
 11
-32
 21
63
 31
0
  0
LINE
  8
106
 62
1
  6
DASHED
 10
-39
 20
56
 30
0
 11
-39
 21
-135
 31
0
  0
LINE
  8
106
 62
1
  6
DASHDOT
 10
0
 20
22.8648213665769
 30
0
 11
0
 21
-124.706568591339
 31
0
  0
LINE
  8
106
 62
1
  6
DASHDOT
 10
100.2329868997775
 20
33
 30
0
 11
111.7416072572272
 21
33
 31
0
  0
LINE
  8
106
 62
1
  6
DASHDOT
 10
112.909367088268
 20
0
 30
0
 11
-18.056998006952
 21
0
 31
0
  0
LINE
  8
106
 62
1
  6
DASHDOT
 10
5.400809317126999
 20
-112
 30
0
 11
-5.143092024344014
 21
-112
 31
0
  0
LINE
  8
106
 62
1
  6
DASHED
 10
3
 20
-227.4
 30
0
 11
4.599999999999994
 21
-229
 31
0
  0
LINE
  8
106
 62
1
  6
DASHED
 10
-3
 20
-227.4
 30
0
 11
-4.599999999999994
 21
-229
 31
0
  0
LINE
  8
106
 62
1
  6
DASHED
 10
3
 20
-227.4
 30
0
 11
-3
 21
-227.4
 31
0
  0
LINE
  8
106
 62
1
  6
DASHED
 10
-3
 20
-227
 30
0
 11
-3
 21
-227.4
 31
0
  0
LINE
  8
106
 62
1
  6
DASHED
 10
3
 20
-227
 30
0
 11
3
 21
-227.4
 31
0
  0
LINE
  8
106
 62
1
  6
DASHDOT
 10
0
 20
-225.069376112576
 30
0
 11
0
 21
-230.300136940455
 31
0
  0
LINE
  8
106
 62
1
  6
DASHED
 10
109
 20
-227.4
 30
0
 11
110.6
 21
-229
 31
0
  0
LINE
  8
106
 62
1
  6
DASHED
 10
103
 20
-227.4
 30
0
 11
101.4
 21
-229
 31
0
  0
LINE
  8
106
 62
1
  6
DASHED
 10
109
 20
-227.4
 30
0
 11
103
 21
-227.4
 31
0
  0
LINE
  8
106
 62
1
  6
DASHED
 10
103
 20
-227
 30
0
 11
103
 21
-227.4
 31
0
  0
LINE
  8
106
 62
1
  6
DASHED
 10
109
 20
-227
 30
0
 11
109
 21
-227.4
 31
0
  0
LINE
  8
106
 62
1
  6
DASHDOT
 10
106
 20
-225.069376112576
 30
0
 11
106
 21
-230.300136940455
 31
0
  0
LINE
  8
106
 62
7
 10
227
 20
11.74999999999999
 30
0
 11
225.4077946802642
 21
11.74999999999999
 31
0
  0
LINE
  8
0
 62
1
  6
DASHDOT
 10
239.5077946802642
 20
-3.43474654455588
 30
0
 11
239.5077946802642
 21
-13.0615513007871
 31
0
  0
LINE
  8
106
 62
1
  6
DASHED
 10
238.0077946802642
 20
-4
 30
0
 11
236.5077946802642
 21
-5.5
 31
0
  0
LINE
  8
106
 62
1
  6
DASHED
 10
236.5077946802642
 20
-5.5
 30
0
 11
236.5077946802642
 21
-11.5
 31
0
  0
LINE
  8
106
 62
1
  6
DASHED
 10
236.5077946802642
 20
-11.5
 30
0
 11
237.3738200840486
 21
-12
 31
0
  0
LINE
  8
106
 62
1
  6
DASHED
 10
241.6417692764797
 20
-12
 30
0
 11
242.5077946802642
 21
-11.5
 31
0
  0
LINE
  8
106
 62
1
  6
DASHED
 10
242.5077946802642
 20
-11.5
 30
0
 11
242.5077946802642
 21
-5.5
 31
0
  0
LINE
  8
106
 62
1
  6
DASHED
 10
242.5077946802642
 20
-5.5
 30
0
 11
241.0077946802642
 21
-4
 31
0
  0
LINE
  8
106
 62
1
  6
DASHED
 10
237.0077946802642
 20
-11.78867513459483
 30
0
 11
237.0077946802642
 21
-5
 31
0
  0
LINE
  8
106
 62
1
  6
DASHED
 10
242.0077946802642
 20
-11.78867513459483
 30
0
 11
242.0077946802642
 21
-5
 31
0
  0
LINE
  8
106
 62
1
  6
DASHED
 10
236.5077946802642
 20
-11.5
 30
0
 11
242.5077946802642
 21
-11.5
 31
0
  0
LINE
  8
106
 62
1
  6
DASHED
 10
236.5077946802642
 20
-5.5
 30
0
 11
242.5077946802642
 21
-5.5
 31
0
  0
LINE
  8
106
 62
1
  6
DASHED
 10
237.7757438726953
 20
-12
 30
0
 11
237.7757438726953
 21
-9
 31
0
  0
LINE
  8
106
 62
1
  6
DASHED
 10
237.7757438726953
 20
-9
 30
0
 11
239.5077946802642
 21
-8
 31
0
  0
LINE
  8
106
 62
1
  6
DASHED
 10
239.5077946802642
 20
-8
 30
0
 11
241.239845487833
 21
-9
 31
0
  0
LINE
  8
106
 62
1
  6
DASHED
 10
241.239845487833
 20
-9
 30
0
 11
241.239845487833
 21
-12
 31
0
  0
LINE
  8
106
 62
1
  6
DASHED
 10
238.6417692764797
 20
-12
 30
0
 11
238.6417692764797
 21
-9
 31
0
  0
LINE
  8
106
 62
1
  6
DASHED
 10
240.3738200840486
 20
-9
 30
0
 11
240.3738200840486
 21
-12
 31
0
  0
LINE
  8
106
 62
1
  6
DASHED
 10
234.5077946802642
 20
-12
 30
0
 11
234.5077946802642
 21
12
 31
0
  0
LINE
  8
106
 62
1
  6
DASHED
 10
234.5077946802642
 20
12
 30
0
 11
252
 21
12
 31
0
  0
LINE
  8
106
 62
7
 10
256.6707264465945
 20
-12
 30
0
 11
252
 21
-12
 31
0
  0
LINE
  8
106
 62
1
  6
DASHED
 10
225.4077946802642
 20
-4
 30
0
 11
247.4077946802642
 21
-4
 31
0
  0
LINE
  8
106
 62
1
  6
DASHED
 10
247.4077946802642
 20
-4
 30
0
 11
247.4077946802642
 21
4
 31
0
  0
LINE
  8
106
 62
1
  6
DASHED
 10
247.4077946802642
 20
4
 30
0
 11
225.4077946802642
 21
4
 31
0
  0
LINE
  8
106
 62
7
 10
252
 20
12
 30
0
 11
256.6707264465945
 21
12
 31
0
  0
LINE
  8
106
 62
1
  6
DASHED
 10
252
 20
-12
 30
0
 11
234.5077946802642
 21
-12
 31
0
  0
LINE
  8
106
 62
1
  6
DASHED
 10
229
 20
-129
 30
0
 11
251.0453609692243
 21
-130.0010293385336
 31
0
  0
LINE
  8
106
 62
7
 10
250
 20
-143
 30
0
 11
229
 21
-143
 31
0
  0
LINE
  8
106
 62
7
 10
252
 20
-132
 30
0
 11
252
 21
53
 31
0
  0
LINE
  8
106
 62
1
  6
DASHED
 10
250
 20
-132
 30
0
 11
252
 21
-132
 31
0
  0
LINE
  8
106
 62
7
 10
252
 20
53
 30
0
 11
252
 21
75.5
 31
0
  0
LINE
  8
106
 62
7
 10
250
 20
-154.5
 30
0
 11
252
 21
-154.5
 31
0
  0
LINE
  8
106
 62
7
 10
252
 20
-154.5
 30
0
 11
252
 21
-132
 31
0
  0
LINE
  8
106
 62
7
 10
252
 20
75.5
 30
0
 11
250
 21
75.5
 31
0
  0
LINE
  8
106
 62
7
 10
250
 20
75.5
 30
0
 11
250
 21
-154.5
 31
0
  0
LINE
  8
106
 62
7
 10
225.4077946802642
 20
11.74999999999999
 30
0
 11
225.4077946802642
 21
-11.75000000000001
 31
0
  0
LINE
  8
106
 62
7
 10
225.4077946802642
 20
-11.75000000000001
 30
0
 11
227
 21
-11.75000000000001
 31
0
  0
LINE
  8
106
 62
1
  6
DASHED
 10
227.4
 20
-109
 30
0
 11
229
 21
-107.4
 31
0
  0
LINE
  8
106
 62
1
  6
DASHED
 10
227.4
 20
-115
 30
0
 11
229
 21
-116.6
 31
0
  0
LINE
  8
106
 62
1
  6
DASHED
 10
227.4
 20
-109
 30
0
 11
227.4
 21
-115
 31
0
  0
LINE
  8
106
 62
1
  6
DASHED
 10
227
 20
-115
 30
0
 11
227.4
 21
-115
 31
0
  0
LINE
  8
106
 62
1
  6
DASHED
 10
227
 20
-109
 30
0
 11
227.4
 21
-109
 31
0
  0
LINE
  8
106
 62
1
  6
DASHDOT
 10
225.069376112576
 20
-112
 30
0
 11
230.300136940455
 21
-112
 31
0
  0
LINE
  8
106
 62
1
  6
DASHED
 10
227.4
 20
29.99999999999999
 30
0
 11
229
 21
28.4
 31
0
  0
LINE
  8
106
 62
1
  6
DASHED
 10
227.4
 20
36
 30
0
 11
229
 21
37.6
 31
0
  0
LINE
  8
106
 62
1
  6
DASHED
 10
227.4
 20
36
 30
0
 11
227.4
 21
29.99999999999999
 31
0
  0
LINE
  8
106
 62
1
  6
DASHED
 10
227
 20
30
 30
0
 11
227.4
 21
29.99999999999999
 31
0
  0
LINE
  8
106
 62
1
  6
DASHED
 10
227
 20
36
 30
0
 11
227.4
 21
36
 31
0
  0
LINE
  8
106
 62
1
  6
DASHDOT
 10
225.069376112576
 20
33
 30
0
 11
230.300136940455
 21
33
 31
0
  0
LINE
  8
106
 62
1
  6
DASHED
 10
232.9597309692928
 20
11.19843850076822
 30
0
 11
232.9597309692928
 21
-11.19843850076822
 31
0
  0
LINE
  8
106
 62
1
  6
DASHED
 10
234.5077946802642
 20
-11.34485357832085
 30
0
 11
232.7077946802642
 21
-12
 31
0
  0
LINE
  8
106
 62
1
  6
DASHED
 10
232.7077946802642
 20
12.00000000000006
 30
0
 11
234.5077946802642
 21
11.34485357832088
 31
0
  0
LINE
  8
106
 62
1
  6
DASHED
 10
250
 20
52.99999999999999
 30
0
 11
252
 21
53
 31
0
  0
LINE
  8
106
 62
1
  6
DASHED
 10
251.0453609692243
 20
51.00102933853361
 30
0
 11
229
 21
49.99999999999999
 31
0
  0
LINE
  8
106
 62
7
 10
229
 20
64
 30
0
 11
250
 21
64
 31
0
  0
LINE
  8
106
 62
7
 10
227
 20
11.74999999999999
 30
0
 11
227
 21
-142
 31
0
  0
LINE
  8
106
 62
1
  6
DASHED
 10
227.4
 20
-24.50000000000001
 30
0
 11
229
 21
-26.1
 31
0
  0
LINE
  8
106
 62
7
 10
229
 20
64
 30
0
 11
229
 21
-142
 31
0
  0
LINE
  8
106
 62
1
  6
DASHED
 10
227.4
 20
-18.5
 30
0
 11
229
 21
-16.9
 31
0
  0
LINE
  8
106
 62
1
  6
DASHED
 10
227.4
 20
-18.5
 30
0
 11
227.4
 21
-24.50000000000001
 31
0
  0
LINE
  8
106
 62
1
  6
DASHED
 10
227
 20
-24.5
 30
0
 11
227.4
 21
-24.50000000000001
 31
0
  0
LINE
  8
106
 62
1
  6
DASHED
 10
227
 20
-18.5
 30
0
 11
227.4
 21
-18.5
 31
0
  0
LINE
  8
106
 62
1
  6
DASHDOT
 10
223.492782281815
 20
0
 30
0
 11
260.285635829153
 21
0
 31
0
  0
LINE
  8
106
 62
1
  6
DASHED
 10
231.5
 20
-13.30662432702593
 30
0
 11
229.5
 21
-14.46132486540517
 31
0
  0
LINE
  8
106
 62
1
  6
DASHED
 10
229.5
 20
14.46132486540519
 30
0
 11
231.5
 21
13.30662432702594
 31
0
  0
LINE
  8
106
 62
7
 10
227
 20
63
 30
0
 11
227
 21
16
 31
0
  0
LINE
  8
106
 62
7
 10
227
 20
-142
 30
0
 11
229
 21
-142
 31
0
  0
LINE
  8
106
 62
7
 10
227
 20
63
 30
0
 11
229
 21
63
 31
0
  0
LINE
  8
106
 62
1
  6
DASHED
 10
227
 20
-97
 30
0
 11
229
 21
-97
 31
0
  0
LINE
  8
106
 62
1
  6
DASHED
 10
227
 20
-63.3
 30
0
 11
229
 21
-63.3
 31
0
  0
LINE
  8
106
 62
1
  6
DASHDOT
 10
224.8876772696535
 20
-72
 30
0
 11
231.7395752655292
 21
-72
 31
0
  0
LINE
  8
106
 62
1
  6
DASHDOT
 10
224.5270510593442
 20
-91.8
 30
0
 11
231.7395752655292
 21
-91.8
 31
0
  0
LINE
  8
106
 62
1
  6
DASHED
 10
227
 20
-78.97495519698873
 30
0
 11
229
 21
-78.97495519698873
 31
0
  0
LINE
  8
106
 62
7
 10
227
 20
16
 30
0
 11
227
 21
11.74999999999999
 31
0
  0
LINE
  8
106
 62
1
  6
DASHDOT
 10
225.069376112576
 20
-21.5
 30
0
 11
230.300136940455
 21
-21.5
 31
0
  0
LINE
  8
106
 62
7
 10
-51.5
 20
67.5
 30
0
 11
-51.5
 21
-146.5
 31
0
  0
LINE
  8
106
 62
7
 10
140.5
 20
75.5
 30
0
 11
-43.5
 21
75.5
 31
0
  0
LINE
  8
106
 62
7
 10
148.5
 20
-146.5
 30
0
 11
148.5
 21
67.50000000000001
 31
0
  0
LINE
  8
106
 62
7
 10
-43.5
 20
-154.5
 30
0
 11
140.5
 21
-154.5
 31
0
  0
LINE
  8
106
 62
1
  6
DASHED
 10
137
 20
-135
 30
0
 11
137
 21
56.00000000000002
 31
0
  0
LINE
  8
106
 62
1
  6
DASHED
 10
-32
 20
-143
 30
0
 11
129
 21
-143
 31
0
  0
LINE
  8
106
 62
1
  6
DASHED
 10
-40
 20
55.99999999999997
 30
0
 11
-40
 21
-135
 31
0
  0
LINE
  8
106
 62
1
  6
DASHED
 10
129
 20
64
 30
0
 11
-31.99999999999998
 21
63.99999999999997
 31
0
  0
LINE
  8
106
 62
7
 10
-29
 20
44.99999999999998
 30
0
 11
-29
 21
-124
 31
0
  0
LINE
  8
106
 62
7
 10
118
 20
53
 30
0
 11
-21.00000000000001
 21
52.99999999999997
 31
0
  0
LINE
  8
106
 62
7
 10
126
 20
-124
 30
0
 11
126
 21
45.00000000000001
 31
0
  0
LINE
  8
106
 62
7
 10
-21
 20
-132
 30
0
 11
118
 21
-132
 31
0
  0
LINE
  8
106
 62
7
 10
124.0010293385336
 20
-124
 30
0
 11
124.0010293385336
 21
44.99999999999999
 31
0
  0
LINE
  8
106
 62
7
 10
-21
 20
-130.0010293385336
 30
0
 11
118
 21
-130.0010293385336
 31
0
  0
LINE
  8
106
 62
7
 10
-27.00102933853361
 20
44.99999999999998
 30
0
 11
-27.00102933853361
 21
-124
 31
0
  0
LINE
  8
106
 62
7
 10
118
 20
51.00102933853361
 30
0
 11
-21.00000000000001
 21
51.00102933853359
 31
0
  0
LINE
  8
106
 62
7
 10
-26
 20
44.99999999999997
 30
0
 11
-26
 21
-124
 31
0
  0
LINE
  8
106
 62
7
 10
118
 20
49.99999999999997
 30
0
 11
-21.00000000000001
 21
49.99999999999997
 31
0
  0
LINE
  8
106
 62
7
 10
123
 20
-124
 30
0
 11
123
 21
44.99999999999998
 31
0
  0
LINE
  8
106
 62
7
 10
-21
 20
-129
 30
0
 11
118
 21
-129
 31
0
  0
LINE
  8
106
 62
1
  6
DASHDOT
 10
3.599999999999994
 20
-239.5077946802642
 30
0
 11
-3.599999999999994
 21
-239.5077946802642
 31
0
  0
LINE
  8
106
 62
1
  6
DASHED
 10
1.5
 20
-240.3494596967642
 30
0
 11
1.5
 21
-238.6661296637642
 31
0
  0
LINE
  8
106
 62
1
  6
DASHED
 10
1.478903285765682
 20
-238.6295890828376
 30
0
 11
0.02109671423431791
 21
-237.7879240663375
 31
0
  0
LINE
  8
106
 62
1
  6
DASHED
 10
-0.02109671423431791
 20
-237.7879240663375
 30
0
 11
-1.478903285765682
 21
-238.6295890828376
 31
0
  0
LINE
  8
106
 62
1
  6
DASHED
 10
-1.5
 20
-238.6661296637642
 30
0
 11
-1.5
 21
-240.3494596967642
 31
0
  0
LINE
  8
106
 62
1
  6
DASHED
 10
-1.478903285765682
 20
-240.3860002776909
 30
0
 11
-0.02109671423431791
 21
-241.2276652941909
 31
0
  0
LINE
  8
106
 62
1
  6
DASHED
 10
0.02109671423431791
 20
-241.2276652941909
 30
0
 11
1.478903285765682
 21
-240.3860002776909
 31
0
  0
LINE
  8
106
 62
1
  6
DASHED
 10
12
 20
-234.5077946802642
 30
0
 11
12
 21
-245.5448441261106
 31
0
  0
LINE
  8
106
 62
1
  6
DASHED
 10
110
 20
-247.1945507966356
 30
0
 11
110
 21
-249.6000328352677
 31
0
  0
LINE
  8
106
 62
1
  6
DASHED
 10
-11.99999999999989
 20
-251.6797153107221
 30
0
 11
-12
 21
-234.5077946802642
 31
0
  0
LINE
  8
106
 62
1
  6
DASHED
 10
-4
 20
-225.4077946802642
 30
0
 11
-4
 21
-247.4077946802642
 31
0
  0
LINE
  8
106
 62
1
  6
DASHED
 10
-4
 20
-247.4077946802642
 30
0
 11
4
 21
-247.4077946802642
 31
0
  0
LINE
  8
106
 62
1
  6
DASHED
 10
4
 20
-247.4077946802642
 30
0
 11
4
 21
-225.4077946802642
 31
0
  0
LINE
  8
106
 62
1
  6
DASHDOT
 10
49
 20
-247.8181301276155
 30
0
 11
49
 21
-262.3096804126291
 31
0
  0
LINE
  8
106
 62
7
 10
-51.5
 20
-252
 30
0
 11
148.5
 21
-252
 31
0
  0
LINE
  8
106
 62
7
 10
148.5
 20
-252
 30
0
 11
148.5
 21
-250
 31
0
  0
LINE
  8
106
 62
7
 10
148.5
 20
-250
 30
0
 11
-51.5
 21
-250
 31
0
  0
LINE
  8
106
 62
7
 10
-51.5
 20
-250
 30
0
 11
-51.5
 21
-252
 31
0
  0
LINE
  8
106
 62
1
  6
DASHED
 10
-29
 20
-250
 30
0
 11
-29
 21
-252
 31
0
  0
LINE
  8
106
 62
1
  6
DASHED
 10
126
 20
-250
 30
0
 11
126
 21
-252
 31
0
  0
LINE
  8
106
 62
7
 10
11.75
 20
-225.4077946802642
 30
0
 11
9.150000000000006
 21
-225.4077946802642
 31
0
  0
LINE
  8
106
 62
7
 10
9.150000000000006
 20
-225.4077946802642
 30
0
 11
-11.75
 21
-225.4077946802642
 31
0
  0
LINE
  8
106
 62
7
 10
-11.75
 20
-225.4077946802642
 30
0
 11
-11.75
 21
-227
 31
0
  0
LINE
  8
106
 62
7
 10
137
 20
-229
 30
0
 11
-40
 21
-229
 31
0
  0
LINE
  8
106
 62
1
  6
DASHED
 10
-13.3066243270259
 20
-231.5
 30
0
 11
-14.4613248654052
 21
-229.5
 31
0
  0
LINE
  8
106
 62
1
  6
DASHED
 10
-11.34485357832091
 20
-234.5077946802642
 30
0
 11
-12
 21
-232.7077946802642
 31
0
  0
LINE
  8
106
 62
1
  6
DASHED
 10
-12
 20
-234.5077946802642
 30
0
 11
12
 21
-234.5077946802642
 31
0
  0
LINE
  8
106
 62
1
  6
DASHED
 10
14.4613248654052
 20
-229.5
 30
0
 11
13.3066243270259
 21
-231.5
 31
0
  0
LINE
  8
106
 62
7
 10
135.899279835391
 20
-227
 30
0
 11
-39
 21
-227
 31
0
  0
LINE
  8
106
 62
7
 10
-39
 20
-229
 30
0
 11
-39
 21
-227
 31
0
  0
LINE
  8
106
 62
1
  6
DASHED
 10
-26
 20
-229
 30
0
 11
-27.00102933853361
 21
-251.0453609692243
 31
0
  0
LINE
  8
106
 62
7
 10
-40
 20
-250
 30
0
 11
-40
 21
-229
 31
0
  0
LINE
  8
106
 62
1
  6
DASHED
 10
-11.19843850076819
 20
-232.9597309692928
 30
0
 11
11.19843850076821
 21
-232.9597309692928
 31
0
  0
LINE
  8
106
 62
7
 10
135.899279835391
 20
-229
 30
0
 11
135.899279835391
 21
-227
 31
0
  0
LINE
  8
106
 62
1
  6
DASHED
 10
12
 20
-232.7077946802642
 30
0
 11
11.34485357832091
 21
-234.5077946802642
 31
0
  0
LINE
  8
106
 62
7
 10
11.75
 20
-227
 30
0
 11
11.75
 21
-225.4077946802642
 31
0
  0
LINE
  8
106
 62
1
  6
DASHED
 10
124.0010293385336
 20
-251.0453609692243
 30
0
 11
123
 21
-229
 31
0
  0
LINE
  8
106
 62
7
 10
137
 20
-229
 30
0
 11
137
 21
-250
 31
0
  0
LINE
  8
106
 62
1
  6
DASHDOT
 10
0
 20
-222.317739112855
 30
0
 11
0
 21
-249.98249307311
 31
0
  0
LINE
  8
106
 62
1
  6
DASHDOT
 10
48.5
 20
-223.54494401895
 30
0
 11
48.5
 21
-235.8169930799
 31
0
  0
LINE
  8
106
 62
1
 10
108.8897856160125
 20
10.95525307174471
 30
0
 11
108.8897856160125
 21
-11.1131485450309
 31
0
  0
LINE
  8
106
 62
1
  6
DASHED
 10
-4
 20
4
 30
0
 11
-4
 21
-4
 31
0
  0
LINE
  8
106
 62
1
  6
DASHED
 10
4
 20
4
 30
0
 11
-4
 21
4
 31
0
  0
LINE
  8
106
 62
1
  6
DASHED
 10
4
 20
-4
 30
0
 11
4
 21
4
 31
0
  0
LINE
  8
106
 62
1
  6
DASHED
 10
-4
 20
-4
 30
0
 11
4
 21
-4
 31
0
  0
LINE
  8
106
 62
7
 10
110
 20
11
 30
0
 11
110
 21
-11
 31
0
  0
LINE
  8
106
 62
7
 10
109
 20
-12
 30
0
 11
0
 21
-12
 31
0
  0
LINE
  8
106
 62
7
 10
109
 20
12
 30
0
 11
0
 21
12
 31
0
  0
LINE
  8
106
 62
1
  6
DASHED
 10
-1.5
 20
-4
 30
0
 11
-3
 21
-5.5
 31
0
  0
LINE
  8
106
 62
1
  6
DASHED
 10
-3
 20
-5.5
 30
0
 11
-3
 21
-11.5
 31
0
  0
LINE
  8
106
 62
1
  6
DASHED
 10
-3
 20
-11.5
 30
0
 11
-2.133974596215609
 21
-12
 31
0
  0
LINE
  8
106
 62
1
  6
DASHED
 10
2.133974596215495
 20
-12
 30
0
 11
3
 21
-11.5
 31
0
  0
LINE
  8
106
 62
1
  6
DASHED
 10
3
 20
-11.5
 30
0
 11
3
 21
-5.5
 31
0
  0
LINE
  8
106
 62
1
  6
DASHED
 10
3
 20
-5.5
 30
0
 11
1.5
 21
-4
 31
0
  0
LINE
  8
106
 62
1
  6
DASHED
 10
-2.5
 20
-11.78867513459483
 30
0
 11
-2.5
 21
-5
 31
0
  0
LINE
  8
106
 62
1
  6
DASHED
 10
2.5
 20
-11.78867513459483
 30
0
 11
2.5
 21
-5
 31
0
  0
LINE
  8
106
 62
1
  6
DASHED
 10
-3
 20
-11.5
 30
0
 11
3
 21
-11.5
 31
0
  0
LINE
  8
106
 62
1
  6
DASHED
 10
-3
 20
-5.5
 30
0
 11
3
 21
-5.5
 31
0
  0
LINE
  8
106
 62
1
  6
DASHED
 10
-1.732050807568896
 20
-12
 30
0
 11
-1.732050807568896
 21
-9
 31
0
  0
LINE
  8
106
 62
1
  6
DASHED
 10
-1.732050807568896
 20
-9
 30
0
 11
0
 21
-8
 31
0
  0
LINE
  8
106
 62
1
  6
DASHED
 10
0
 20
-8
 30
0
 11
1.732050807568811
 21
-9
 31
0
  0
LINE
  8
106
 62
1
  6
DASHED
 10
1.732050807568811
 20
-9
 30
0
 11
1.732050807568811
 21
-12
 31
0
  0
LINE
  8
106
 62
1
  6
DASHED
 10
-0.866025403784505
 20
-12
 30
0
 11
-0.866025403784505
 21
-9
 31
0
  0
LINE
  8
106
 62
1
  6
DASHED
 10
0.8660254037843913
 20
-9
 30
0
 11
0.8660254037843913
 21
-12
 31
0
  0
ARC
  8
106
 62
7
 10
0
 20
-91.8
 30
0
 40
5.199999999999989
 50
180
 51
0
  0
ARC
  8
106
 62
7
 10
0
 20
-72
 30
0
 40
8.699999999999999
 50
306.7054314115095
 51
233.2945685884905
  0
ARC
  8
106
 62
1
  6
DASHED
 10
0
 20
0
 30
0
 40
14.75
 50
305.5548410153001
 51
54.44515898469987
  0
ARC
  8
106
 62
7
 10
0
 20
0
 30
0
 40
14.75
 50
54.44515898469987
 51
305.5548410153001
  0
ARC
  8
106
 62
1
  6
DASHED
 10
238.2087565745875
 20
-9.75
 30
0
 40
0.8660254037844196
 50
60.00000000000217
 51
119.9999999999994
  0
ARC
  8
106
 62
1
  6
DASHED
 10
239.5077946802642
 20
-12.17403810567666
 30
0
 40
3.290063509461086
 50
74.73851957514069
 51
105.2614804248612
  0
ARC
  8
106
 62
1
  6
DASHED
 10
240.8068327859408
 20
-9.75
 30
0
 40
0.8660254037844339
 50
60.00000000000054
 51
119.9999999999994
  0
ARC
  8
106
 62
7
 10
256.6707264465945
 20
11
 30
0
 40
1.000000000000146
 50
6.379370208443485
 51
90
  0
ARC
  8
106
 62
7
 10
256.6707264465945
 20
-11
 30
0
 40
1
 50
270
 51
353.6206297915594
  0
ARC
  8
106
 62
1
 10
152.5077946802642
 20
7.105427357601002e-15
 30
0
 40
100
 50
353.6206297915572
 51
6.379370208442812
  0
ARC
  8
106
 62
7
 10
158.2837354366038
 20
7.105427357601002e-15
 30
0
 40
100.0000000000001
 50
353.6206297915572
 51
6.379370208442811
  0
ARC
  8
106
 62
1
  6
DASHED
 10
251
 20
-131
 30
0
 40
1
 50
270
 51
87.40011579392871
  0
ARC
  8
106
 62
1
  6
DASHED
 10
251
 20
51.99999999999999
 30
0
 40
0.999999999999773
 50
272.5998842060714
 51
90
  0
ARC
  8
106
 62
1
  6
DASHED
 10
0
 20
-239.5077946802642
 30
0
 40
2.499999999999988
 50
170.0000000000008
 51
100
  0
ARC
  8
106
 62
1
  6
DASHED
 10
49
 20
66.71626456339621
 30
0
 40
318
 50
263.9673288649656
 51
280.7327640012476
  0
ARC
  8
106
 62
7
 10
49
 20
66.71626456339621
 30
0
 40
324.9999999999999
 50
259.3280707142379
 51
280.3027329158157
  0
ARC
  8
106
 62
1
  6
DASHED
 10
9.204524068535306
 20
-244.2659066671382
 30
0
 40
5.204524068535284
 50
208.8424987153834
 51
262.7076602784456
  0
ARC
  8
106
 62
1
  6
DASHED
 10
49
 20
66.71626456339621
 30
0
 40
318.7226108320732
 50
262.7076602784461
 51
280.7451572267642
  0
ARC
  8
106
 62
1
 10
49
 20
66.71626456339621
 30
0
 40
324.2773891679267
 50
259.3736718465839
 51
280.4482669808939
  0
ARC
  8
106
 62
1
  6
DASHED
 10
-28
 20
-251
 30
0
 40
1
 50
180
 51
357.4001157939287
  0
ARC
  8
106
 62
1
  6
DASHED
 10
125
 20
-251
 30
0
 40
0.9999999999997941
 50
182.5998842060713
 51
0
  0
ARC
  8
106
 62
1
  6
DASHED
 10
0
 20
0
 30
0
 40
12
 50
270
 51
90
  0
ARC
  8
106
 62
7
 10
0
 20
0
 30
0
 40
12
 50
90
 51
270
  0
ARC
  8
106
 62
1
  6
DASHED
 10
-1.299038105676686
 20
-9.75
 30
0
 40
0.8660254037844195
 50
60.0000000000022
 51
119.9999999999994
  0
ARC
  8
106
 62
1
  6
DASHED
 10
0
 20
-12.17403810567666
 30
0
 40
3.290063509461086
 50
74.73851957514069
 51
105.2614804248612
  0
ARC
  8
106
 62
1
  6
DASHED
 10
1.299038105676601
 20
-9.75
 30
0
 40
0.8660254037844339
 50
60.00000000000053
 51
119.9999999999994
  0
CIRCLE
  8
106
 62
7
 10
0
 20
-21.5
 30
0
 40
4.6
  0
CIRCLE
  8
106
 62
7
 10
0
 20
-21.5
 30
0
 40
3
  0
CIRCLE
  8
106
 62
7
 10
106
 20
-112
 30
0
 40
4.599999999999994
  0
CIRCLE
  8
106
 62
7
 10
106
 20
-112
 30
0
 40
3
  0
CIRCLE
  8
106
 62
7
 10
106
 20
33
 30
0
 40
4.599999999999994
  0
CIRCLE
  8
106
 62
7
 10
106
 20
33
 30
0
 40
3
  0
CIRCLE
  8
106
 62
7
 10
0
 20
-112
 30
0
 40
4.6
  0
CIRCLE
  8
106
 62
7
 10
0
 20
-112
 30
0
 40
3
  0
CIRCLE
  8
106
 62
1
  6
DASHED
 10
0
 20
-239.5077946802642
 30
0
 40
3
  0
CIRCLE
  8
106
 62
1
  6
DASHED
 10
0
 20
-239.5077946802642
 30
0
 40
1.719999999999999
  0
ARC
  8
106
 62
1
  6
DASHED
 10
-32
 20
-135
 30
0
 40
7
 50
180
 51
270
  0
ARC
  8
106
 62
1
  6
DASHED
 10
129
 20
-135
 30
0
 40
7
 50
270
 51
0
  0
ARC
  8
106
 62
1
  6
DASHED
 10
129
 20
56
 30
0
 40
7
 50
0
 51
90
  0
ARC
  8
106
 62
1
  6
DASHED
 10
-32
 20
56
 30
0
 40
7
 50
90
 51
180
  0
ARC
  8
106
 62
1
  6
DASHED
 10
230
 20
-10.70854811567261
 30
0
 40
3.000000000000003
 50
299.9999999999999
 51
350.6016938993362
  0
ARC
  8
106
 62
1
  6
DASHED
 10
230
 20
-15.32735026918962
 30
0
 40
1.000000000000011
 50
119.9999999999996
 51
180
  0
ARC
  8
106
 62
1
  6
DASHED
 10
230
 20
10.70854811567263
 30
0
 40
2.999999999999993
 50
9.398306100663447
 51
59.99999999999996
  0
ARC
  8
106
 62
1
  6
DASHED
 10
230
 20
15.32735026918964
 30
0
 40
1
 50
180
 51
240.0000000000003
  0
ARC
  8
106
 62
7
 10
-43.5
 20
67.5
 30
0
 40
8
 50
90
 51
180
  0
ARC
  8
106
 62
7
 10
140.5
 20
67.5
 30
0
 40
8
 50
0
 51
90
  0
ARC
  8
106
 62
7
 10
140.5
 20
-146.5
 30
0
 40
8
 50
270
 51
0
  0
ARC
  8
106
 62
7
 10
-43.5
 20
-146.5
 30
0
 40
8
 50
180
 51
270
  0
ARC
  8
106
 62
1
  6
DASHED
 10
129
 20
-135
 30
0
 40
8
 50
270
 51
0
  0
ARC
  8
106
 62
7
 10
118
 20
-124
 30
0
 40
8
 50
270
 51
0
  0
ARC
  8
106
 62
1
  6
DASHED
 10
129
 20
56
 30
0
 40
8
 50
0
 51
90
  0
ARC
  8
106
 62
7
 10
118
 20
44.99999999999997
 30
0
 40
8
 50
0
 51
90
  0
ARC
  8
106
 62
1
  6
DASHED
 10
-32
 20
56
 30
0
 40
7.999999999999972
 50
90
 51
180
  0
ARC
  8
106
 62
7
 10
-21
 20
44.99999999999997
 30
0
 40
8
 50
90
 51
180
  0
ARC
  8
106
 62
1
  6
DASHED
 10
-32
 20
-135
 30
0
 40
8
 50
180
 51
270
  0
ARC
  8
106
 62
7
 10
-21
 20
-124
 30
0
 40
8
 50
180
 51
270
  0
ARC
  8
106
 62
7
 10
-21
 20
-124
 30
0
 40
6.001029338533609
 50
180
 51
270
  0
ARC
  8
106
 62
7
 10
-21
 20
44.99999999999997
 30
0
 40
6.00102933853362
 50
90
 51
180
  0
ARC
  8
106
 62
7
 10
118
 20
44.99999999999997
 30
0
 40
6.001029338533598
 50
0
 51
90
  0
ARC
  8
106
 62
7
 10
118
 20
-124
 30
0
 40
6.001029338533613
 50
270
 51
0
  0
ARC
  8
106
 62
7
 10
118
 20
-124
 30
0
 40
5
 50
270
 51
0
  0
ARC
  8
106
 62
7
 10
118
 20
44.99999999999997
 30
0
 40
5
 50
0
 51
90
  0
ARC
  8
106
 62
7
 10
-21
 20
44.99999999999997
 30
0
 40
5
 50
90
 51
180
  0
ARC
  8
106
 62
7
 10
-21
 20
-124
 30
0
 40
5
 50
180
 51
270
  0
ARC
  8
106
 62
1
  6
DASHED
 10
16
 20
-245.5448441261106
 30
0
 40
4
 50
180
 51
263.9673288649656
  0
ARC
  8
106
 62
7
 10
-10.99999999999989
 20
-251.6797153107221
 30
0
 40
1.000000000000002
 50
198.6801425545006
 51
259.3280707142363
  0
ARC
  8
106
 62
1
  6
DASHED
 10
108.5
 20
-247.1945507966356
 30
0
 40
1.5
 50
0
 51
100.7327640012477
  0
ARC
  8
106
 62
1
  6
DASHED
 10
106.5
 20
-249.6000328352677
 30
0
 40
3.499999999999988
 50
316.7089308858287
 51
0
  0
ARC
  8
106
 62
1
  6
DASHED
 10
-10.99999999999989
 20
-251.6797153107221
 30
0
 40
1
 50
180
 51
198.6801425545006
  0
ARC
  8
106
 62
7
 10
106.5
 20
-249.6000328352677
 30
0
 40
3.499999999999986
 50
280.3027329158152
 51
316.7089308858287
  0
ARC
  8
106
 62
1
  6
DASHED
 10
-15.32735026918959
 20
-230
 30
0
 40
0.9999999999999591
 50
30.00000000000136
 51
90
  0
ARC
  8
106
 62
1
  6
DASHED
 10
-10.70854811567261
 20
-230
 30
0
 40
2.999999999999979
 50
210.0000000000002
 51
260.6016938993367
  0
ARC
  8
106
 62
1
  6
DASHED
 10
10.7085481156726
 20
-230
 30
0
 40
2.999999999999996
 50
279.3983061006638
 51
329.9999999999998
  0
ARC
  8
106
 62
1
  6
DASHED
 10
15.32735026918959
 20
-230
 30
0
 40
1
 50
90
 51
149.9999999999986
  0
ARC
  8
106
 62
7
 10
109
 20
-11
 30
0
 40
1
 50
270
 51
0
  0
ARC
  8
106
 62
7
 10
109
 20
11
 30
0
 40
1
 50
0
 51
90
  0
TEXT
  8
106
 62
7
 10
125
 20
-175
 30
0
 40
5
  1
Turnhallenmuschel
 41
0.9
  7
SIMPLEX
  0
TEXT
  8
106
 62
7
 10
125
 20
-185
 30
0
 40
5
  1
79500001
 41
0.9
  7
SIMPLEX
  0
ENDSEC
  0
EOF
