  0
SECTION
  2
HEADER
  9
$ACADVER
  1
AC1009
  9
$INSBASE
 10
0
 20
0
  9
$EXTMIN
 10
-48.7581267235168
 20
-256.3089284124753
  9
$EXTMAX
 10
256.8089284124753
 20
48.7661661994423
  9
$LIMMIN
 10
-48.7581267235168
 20
-256.3089284124753
  9
$LIMMAX
 10
256.8089284124753
 20
48.7661661994423
  9
$VIEWCTR
 10
10
 20
10
  9
$VIEWSIZE
 40
10
  9
$SNAPMODE
 70
0
  9
$SNAPUNIT
 10
1
 20
1
  9
$SNAPBASE
 10
0
 20
0
  9
$SNAPANG
 50
0
  9
$SNAPSTYLE
 70
0
  9
$SNAPISOPAIR
 70
0
  9
$GRIDMODE
 70
0
  9
$GRIDUNIT
 10
0
 20
0
  9
$ORTHOMODE
 70
0
  9
$REGENMODE
 70
1
  9
$FILLMODE
 70
1
  9
$QTEXTMODE
 70
0
  9
$DRAGMODE
 70
2
  9
$LTSCALE
 40
1
  9
$OSMODE
 70
0
  9
$ATTMODE
 70
1
  9
$TEXTSIZE
 40
3.5
  9
$TRACEWID
 40
0.5
  9
$TEXTSTYLE
  7
STANDARD
  9
$CLAYER
  8
0
  9
$CELTYPE
  6
BYLAYER
  9
$CECOLOR
 62
256
  9
$DIMSCALE
 40
1
  9
$DIMASZ
 40
0.18
  9
$DIMEXO
 40
0.0625
  9
$DIMDLI
 40
0.38
  9
$DIMRND
 40
0
  9
$DIMDLE
 40
0
  9
$DIMEXE
 40
0.18
  9
$DIMTP
 40
0
  9
$DIMTM
 40
0
  9
$DIMTXT
 40
0.18
  9
$DIMCEN
 40
0.09
  9
$DIMTSZ
 40
0
  9
$DIMTOL
 70
0
  9
$DIMLIM
 70
0
  9
$DIMTIH
 70
1
  9
$DIMTOH
 70
1
  9
$DIMSE1
 70
0
  9
$DIMSE2
 70
0
  9
$DIMTAD
 70
0
  9
$DIMZIN
 70
0
  9
$DIMBLK
  1

  9
$DIMASO
 70
1
  9
$DIMSHO
 70
1
  9
$DIMPOST
  1

  9
$DIMAPOST
  1

  9
$DIMALT
 70
0
  9
$DIMALTD
 70
2
  9
$DIMALTF
 40
25.4
  9
$DIMLFAC
 40
1
  9
$DIMTOFL
 70
0
  9
$DIMTVP
 40
0
  9
$DIMTIX
 70
0
  9
$DIMSOXD
 70
0
  9
$DIMSAH
 70
0
  9
$DIMBLK1
  1

  9
$DIMBLK2
  1

  9
$DIMSTYLE
  2
*UNNAMED
  9
$DIMCLRD
 70
0
  9
$DIMCLRE
 70
0
  9
$DIMCLRT
 70
0
  9
$DIMTFAC
 40
1
  9
$DIMGAP
 40
0.09
  9
$LUNITS
 70
2
  9
$LUPREC
 70
4
  9
$AXISMODE
 70
0
  9
$AXISUNIT
 10
0
 20
0
  9
$SKETCHINC
 40
0.1
  9
$FILLETRAD
 40
2
  9
$AUNITS
 70
0
  9
$AUPREC
 70
0
  9
$MENU
  1
ACAD
  9
$ELEVATION
 40
0
  9
$THICKNESS
 40
0
  9
$VIEWDIR
 10
0
 20
0
 30
1
  9
$LIMCHECK
 70
0
  9
$BLIPMODE
 70
1
  9
$CHAMFERA
 40
0
  9
$CHAMFERB
 40
0
  9
$FASTZOOM
 70
1
  9
$SKPOLY
 70
0
  9
$ANGBASE
 50
0
  9
$ANGDIR
 70
0
  9
$PDMODE
 70
0
  9
$PDSIZE
 40
0
  9
$PLINEWID
 40
0
  9
$COORDS
 70
2
  0
ENDSEC
  0
SECTION
  2
TABLES
  0
TABLE
  2
DIMSTYLE
 70
0
  0
ENDTAB
  0
TABLE
  2
LTYPE
 70
9
  0
LTYPE
  2
CONTINUOUS
 70
64
  3
Solid line
 72
65
 73
0
 40
0
  0
LTYPE
  2
BORDER
 70
64
  3
__ __ . __ __ .
 72
65
 73
6
 40
14.07216701284174
 49
4.020619146526212
 49
-2.010309573263106
 49
4.020619146526212
 49
-2.010309573263106
 49
0
 49
-2.010309573263106
  0
LTYPE
  2
CENTER
 70
64
  3
____ _ ____ _
 72
65
 73
4
 40
16.08247658610485
 49
10.05154786631553
 49
-2.010309573263106
 49
2.010309573263106
 49
-2.010309573263106
  0
LTYPE
  2
DASHDOT
 70
64
  3
__ . __ . __ .
 72
65
 73
4
 40
8.041238293052425
 49
4.020619146526212
 49
-2.010309573263106
 49
0
 49
-2.010309573263106
  0
LTYPE
  2
DASHED
 70
64
  3
__ __ __ __ __
 72
65
 73
2
 40
6.030928719789319
 49
4.020619146526212
 49
-2.010309573263106
  0
LTYPE
  2
DIVIDE
 70
64
  3
__ . . __ . . 
 72
65
 73
6
 40
10.05154786631553
 49
4.020619146526212
 49
-2.010309573263106
 49
0
 49
-2.010309573263106
 49
0
 49
-2.010309573263106
  0
LTYPE
  2
DOT
 70
64
  3
..............
 72
65
 73
4
 40
4.020619146526212
 49
0
 49
-2.010309573263106
 49
0
 49
-2.010309573263106
  0
LTYPE
  2
HIDDEN
 70
64
  3
_ _ _ _ _ _ _
 72
65
 73
2
 40
3.01546435989466
 49
2.010309573263106
 49
-1.005154786631553
  0
LTYPE
  2
PHANTOM
 70
64
  3
_____ _ _ _____ _ _ 
 72
65
 73
6
 40
20.10309573263106
 49
10.05154786631553
 49
-2.010309573263106
 49
2.010309573263106
 49
-2.010309573263106
 49
2.010309573263106
 49
-2.010309573263106
  0
ENDTAB
  0
TABLE
  2
LAYER
 70
3
  0
LAYER
  2
109
 70
0
 62
7
  6
CONTINUOUS
  0
LAYER
  2
0
 70
0
 62
7
  6
CONTINUOUS
  0
ENDTAB
  0
TABLE
  2
STYLE
 70
4
  0
STYLE
  2
STANDARD
 70
0
 40
0
 41
1
 50
0
 71
0
 42
3.5
  3
txt
  4

  0
STYLE
  2
SIMPLEX
 70
0
 40
0
 41
1
 50
0
 71
0
 42
3.5
  3
simplex
  4

  0
STYLE
  2
COMPLEX
 70
0
 40
0
 41
1
 50
0
 71
0
 42
3.5
  3
complex
  4

  0
STYLE
  2
ITALIC
 70
0
 40
0
 41
1
 50
0
 71
0
 42
3.5
  3
italic
  4

  0
ENDTAB
  0
TABLE
  2
VIEW
 70
0
  0
ENDTAB
  0
ENDSEC
  0
SECTION
  2
BLOCKS
  0
ENDSEC
  0
SECTION
  2
ENTITIES
  0
LINE
  8
109
 62
7
 10
239.5
 20
8.925000000000002
 30
0
 11
236
 21
8.925000000000002
 31
0
  0
LINE
  8
109
 62
7
 10
242
 20
13
 30
0
 11
239.5
 21
13
 31
0
  0
LINE
  8
109
 62
7
 10
239.5
 20
-13
 30
0
 11
242
 21
-13
 31
0
  0
LINE
  8
109
 62
7
 10
239.5
 20
-13
 30
0
 11
239.5
 21
13
 31
0
  0
LINE
  8
109
 62
7
 10
236
 20
-8.924999999999994
 30
0
 11
239.5
 21
-8.924999999999999
 31
0
  0
LINE
  8
109
 62
1
  6
DASHED
 10
246
 20
-10.99999999999999
 30
0
 11
244
 21
-11
 31
0
  0
LINE
  8
109
 62
1
  6
DASHED
 10
242
 20
-9.999999999999996
 30
0
 11
244
 21
-9.999999999999996
 31
0
  0
LINE
  8
109
 62
7
 10
242
 20
-38.00000000000001
 30
0
 11
250
 21
-38
 31
0
  0
LINE
  8
109
 62
7
 10
250
 20
-44.99999999999999
 30
0
 11
254
 21
-44.99999999999999
 31
0
  0
LINE
  8
109
 62
1
  6
DASHED
 10
254
 20
-36.00000000000001
 30
0
 11
244
 21
-36.00000000000001
 31
0
  0
LINE
  8
109
 62
1
  6
DASHDOT
 10
256.8089284124753
 20
3.354414792817392e-15
 30
0
 11
232.5493389965264
 21
1.991408281516608e-15
 31
0
  0
LINE
  8
109
 62
7
 10
236
 20
8.925000000000002
 30
0
 11
236
 21
-8.924999999999994
 31
0
  0
LINE
  8
109
 62
1
  6
DASHED
 10
244
 20
11
 30
0
 11
246
 21
11
 31
0
  0
LINE
  8
109
 62
1
  6
DASHED
 10
244
 20
-36.00000000000001
 30
0
 11
244
 21
35.99999999999999
 31
0
  0
LINE
  8
109
 62
1
  6
DASHED
 10
244
 20
10
 30
0
 11
242
 21
10
 31
0
  0
LINE
  8
109
 62
7
 10
242
 20
38
 30
0
 11
242
 21
-38.00000000000001
 31
0
  0
LINE
  8
109
 62
7
 10
250
 20
38
 30
0
 11
242
 21
38
 31
0
  0
LINE
  8
109
 62
7
 10
250
 20
45.00000000000001
 30
0
 11
250
 21
-44.99999999999999
 31
0
  0
LINE
  8
109
 62
7
 10
254
 20
45.00000000000001
 30
0
 11
250
 21
45.00000000000001
 31
0
  0
LINE
  8
109
 62
7
 10
254
 20
-44.99999999999999
 30
0
 11
254
 21
45.00000000000001
 31
0
  0
LINE
  8
109
 62
1
  6
DASHED
 10
244
 20
35.99999999999999
 30
0
 11
254
 21
36
 31
0
  0
LINE
  8
109
 62
1
  6
DASHED
 10
8.9
 20
-246
 30
0
 11
8.9
 21
-239.5
 31
0
  0
LINE
  8
109
 62
7
 10
-8.899999999999999
 20
-236
 30
0
 11
-8.9
 21
-239.5
 31
0
  0
LINE
  8
109
 62
7
 10
-13.02685920421245
 20
-239.5
 30
0
 11
-13.02685920421245
 21
-242
 31
0
  0
LINE
  8
109
 62
7
 10
13.02685920421245
 20
-242
 30
0
 11
13.02685920421245
 21
-239.5
 31
0
  0
LINE
  8
109
 62
7
 10
-13.02685920421245
 20
-239.5
 30
0
 11
13.02685920421245
 21
-239.5
 31
0
  0
LINE
  8
109
 62
7
 10
8.9
 20
-239.5
 30
0
 11
8.9
 21
-236
 31
0
  0
LINE
  8
109
 62
1
  6
DASHED
 10
11
 20
-244
 30
0
 11
11
 21
-246
 31
0
  0
LINE
  8
109
 62
1
  6
DASHED
 10
10
 20
-244
 30
0
 11
10
 21
-242
 31
0
  0
LINE
  8
109
 62
7
 10
38
 20
-250
 30
0
 11
38
 21
-242
 31
0
  0
LINE
  8
109
 62
7
 10
45
 20
-254
 30
0
 11
45
 21
-250
 31
0
  0
LINE
  8
109
 62
1
  6
DASHED
 10
36
 20
-244
 30
0
 11
36
 21
-254.0000000000001
 31
0
  0
LINE
  8
109
 62
1
  6
DASHDOT
 10
0
 20
-233.5493389965264
 30
0
 11
0
 21
-256.3089284124753
 31
0
  0
LINE
  8
109
 62
7
 10
8.9
 20
-236
 30
0
 11
-8.899999999999999
 21
-236
 31
0
  0
LINE
  8
109
 62
1
  6
DASHED
 10
-8.9
 20
-239.5
 30
0
 11
-8.9
 21
-246
 31
0
  0
LINE
  8
109
 62
1
  6
DASHED
 10
-11
 20
-246
 30
0
 11
-11
 21
-244
 31
0
  0
LINE
  8
109
 62
1
  6
DASHED
 10
-36
 20
-244
 30
0
 11
36
 21
-244
 31
0
  0
LINE
  8
109
 62
1
  6
DASHED
 10
-10
 20
-242
 30
0
 11
-10
 21
-244
 31
0
  0
LINE
  8
109
 62
7
 10
38
 20
-242
 30
0
 11
-38.00000000000001
 21
-242
 31
0
  0
LINE
  8
109
 62
7
 10
-38.00000000000001
 20
-242
 30
0
 11
-38
 21
-250
 31
0
  0
LINE
  8
109
 62
7
 10
45
 20
-250
 30
0
 11
-45
 21
-250
 31
0
  0
LINE
  8
109
 62
7
 10
-45
 20
-250
 30
0
 11
-45
 21
-254
 31
0
  0
LINE
  8
109
 62
7
 10
-45
 20
-254
 30
0
 11
45
 21
-254
 31
0
  0
LINE
  8
109
 62
1
  6
DASHED
 10
-36
 20
-254
 30
0
 11
-36
 21
-244
 31
0
  0
LINE
  8
109
 62
1
  6
DASHED
 10
-4
 20
3.999999999999993
 30
0
 11
-4
 21
-4.000000000000007
 31
0
  0
LINE
  8
109
 62
1
  6
DASHED
 10
4
 20
3.999999999999993
 30
0
 11
-4
 21
3.999999999999993
 31
0
  0
LINE
  8
109
 62
1
  6
DASHED
 10
4
 20
-4.000000000000007
 30
0
 11
4
 21
3.999999999999993
 31
0
  0
LINE
  8
109
 62
1
  6
DASHED
 10
-4
 20
-4.000000000000007
 30
0
 11
4
 21
-4.000000000000007
 31
0
  0
LINE
  8
109
 62
1
  6
DASHDOT
 10
0
 20
48.7661661994423
 30
0
 11
0
 21
-49.01812114904051
 31
0
  0
LINE
  8
109
 62
1
  6
DASHDOT
 10
-48.7581267235168
 20
-3.342837105193951e-15
 30
0
 11
49.84710297165179
 21
-7.889069456055961e-16
 31
0
  0
LINE
  8
109
 62
7
 10
-45
 20
-44.99999999999999
 30
0
 11
45
 21
-45
 31
0
  0
LINE
  8
109
 62
7
 10
45
 20
-45
 30
0
 11
45
 21
45
 31
0
  0
LINE
  8
109
 62
7
 10
45
 20
45
 30
0
 11
-45
 21
45
 31
0
  0
LINE
  8
109
 62
7
 10
-45
 20
45
 30
0
 11
-45
 21
-44.99999999999999
 31
0
  0
LINE
  8
109
 62
1
  6
DASHDOT
 10
-40.875475730315
 20
-35.99999999999999
 30
0
 11
-30.9777142532405
 21
-35.99999999999999
 31
0
  0
LINE
  8
109
 62
1
  6
DASHDOT
 10
-36
 20
-31.28631099090831
 30
0
 11
-36
 21
-40.6457005047946
 31
0
  0
LINE
  8
109
 62
1
  6
DASHDOT
 10
31.124524269685
 20
-36
 30
0
 11
41.0222857467595
 21
-36
 31
0
  0
LINE
  8
109
 62
1
  6
DASHDOT
 10
36
 20
-31.28631099090831
 30
0
 11
36
 21
-40.64570050479461
 31
0
  0
LINE
  8
109
 62
1
  6
DASHDOT
 10
-40.875475730315
 20
36
 30
0
 11
-30.9777142532405
 21
36
 31
0
  0
LINE
  8
109
 62
1
  6
DASHDOT
 10
-36
 20
40.71368900909169
 30
0
 11
-36
 21
31.35429949520539
 31
0
  0
LINE
  8
109
 62
1
  6
DASHDOT
 10
31.124524269685
 20
36
 30
0
 11
41.0222857467595
 21
36
 31
0
  0
LINE
  8
109
 62
1
  6
DASHDOT
 10
36
 20
40.71368900909169
 30
0
 11
36
 21
31.35429949520539
 31
0
  0
LINE
  8
109
 62
7
 10
-28.25
 20
-9.250000000000004
 30
0
 11
28.24999999999999
 21
-9.250000000000004
 31
0
  0
LINE
  8
109
 62
7
 10
28.24999999999999
 20
-9.250000000000004
 30
0
 11
28.24999999999999
 21
9.249999999999998
 31
0
  0
LINE
  8
109
 62
7
 10
28.24999999999999
 20
9.249999999999998
 30
0
 11
-28.25
 21
9.249999999999998
 31
0
  0
LINE
  8
109
 62
7
 10
-28.25
 20
9.249999999999998
 30
0
 11
-28.25
 21
-9.250000000000004
 31
0
  0
LINE
  8
109
 62
1
  6
DASHED
 10
246
 20
11
 30
0
 11
246
 21
-35.5
 31
0
  0
LINE
  8
109
 62
1
  6
DASHED
 10
246
 20
9.250000000000004
 30
0
 11
253.9883522316857
 21
6.499389741946487
 31
0
  0
LINE
  8
109
 62
1
  6
DASHED
 10
253.9883522316857
 20
-6.49938974194648
 30
0
 11
246
 21
-9.249999999999996
 31
0
  0
LINE
  8
109
 62
7
 10
28.25
 20
-255
 30
0
 11
28.25
 21
-254
 31
0
  0
LINE
  8
109
 62
1
  6
DASHED
 10
-28.25
 20
-246
 30
0
 11
-28.25
 21
-254
 31
0
  0
LINE
  8
109
 62
7
 10
-28.5
 20
-10.86278049120021
 30
0
 11
-28.5
 21
4.499999999999993
 31
0
  0
LINE
  8
109
 62
7
 10
-28.5
 20
4.499999999999993
 30
0
 11
-35.5
 21
4.499999999999993
 31
0
  0
LINE
  8
109
 62
7
 10
-35.5
 20
4.499999999999993
 30
0
 11
-35.5
 21
0
 31
0
  0
LINE
  8
109
 62
7
 10
35.5
 20
4.499999999999993
 30
0
 11
28.5
 21
4.499999999999993
 31
0
  0
LINE
  8
109
 62
7
 10
35.5
 20
0
 30
0
 11
35.5
 21
4.499999999999993
 31
0
  0
LINE
  8
109
 62
7
 10
28.5
 20
4.499999999999993
 30
0
 11
28.5
 21
-10.86278049120021
 31
0
  0
LINE
  8
109
 62
1
  6
DASHED
 10
239.5
 20
8.925000000000002
 30
0
 11
246
 21
8.925000000000002
 31
0
  0
LINE
  8
109
 62
1
  6
DASHED
 10
239.5
 20
-8.924999999999999
 30
0
 11
246
 21
-8.924999999999999
 31
0
  0
LINE
  8
109
 62
1
  6
DASHED
 10
236
 20
4.000000000000003
 30
0
 11
251
 21
4.000000000000004
 31
0
  0
LINE
  8
109
 62
1
  6
DASHED
 10
251
 20
4.000000000000004
 30
0
 11
251
 21
-3.999999999999997
 31
0
  0
LINE
  8
109
 62
1
  6
DASHED
 10
251
 20
-3.999999999999997
 30
0
 11
236
 21
-3.999999999999998
 31
0
  0
LINE
  8
109
 62
1
  6
DASHED
 10
35.5
 20
-246
 30
0
 11
35.5
 21
-254
 31
0
  0
LINE
  8
109
 62
1
  6
DASHED
 10
28.49999999999999
 20
-246
 30
0
 11
28.5
 21
-254
 31
0
  0
LINE
  8
109
 62
1
  6
DASHED
 10
-28.5
 20
-246
 30
0
 11
-28.5
 21
-254
 31
0
  0
LINE
  8
109
 62
1
  6
DASHED
 10
35.5
 20
-246
 30
0
 11
-35.5
 21
-246
 31
0
  0
LINE
  8
109
 62
1
  6
DASHED
 10
-35.5
 20
-246
 30
0
 11
-35.5
 21
-254
 31
0
  0
LINE
  8
109
 62
7
 10
-35.5
 20
-255
 30
0
 11
35.5
 21
-255
 31
0
  0
LINE
  8
109
 62
7
 10
35.5
 20
-254
 30
0
 11
35.5
 21
-255
 31
0
  0
LINE
  8
109
 62
7
 10
28.5
 20
-254
 30
0
 11
28.49999999999999
 21
-255
 31
0
  0
LINE
  8
109
 62
1
  6
DASHED
 10
28.25
 20
-254
 30
0
 11
28.25
 21
-246
 31
0
  0
LINE
  8
109
 62
7
 10
-28.5
 20
-254
 30
0
 11
-28.5
 21
-255
 31
0
  0
LINE
  8
109
 62
7
 10
-28.25
 20
-254
 30
0
 11
-28.25
 21
-255
 31
0
  0
LINE
  8
109
 62
7
 10
-35.5
 20
-254
 30
0
 11
-35.5
 21
-255
 31
0
  0
LINE
  8
109
 62
1
  6
DASHDOT
 10
-36.5095518846804
 20
-250.5
 30
0
 11
-24.5095518846804
 21
-250.5
 31
0
  0
LINE
  8
109
 62
1
  6
DASHDOT
 10
24.5095518846804
 20
-250.5
 30
0
 11
36.5095518846804
 21
-250.5
 31
0
  0
LINE
  8
109
 62
1
  6
DASHED
 10
-4
 20
-236
 30
0
 11
-4
 21
-251
 31
0
  0
LINE
  8
109
 62
1
  6
DASHED
 10
-4
 20
-251
 30
0
 11
4
 21
-251
 31
0
  0
LINE
  8
109
 62
1
  6
DASHED
 10
4
 20
-251
 30
0
 11
4
 21
-236
 31
0
  0
LINE
  8
109
 62
1
  6
DASHDOT
 10
250.5
 20
2.99942004718401
 30
0
 11
250.5
 21
-3.00057995281599
 31
0
  0
LINE
  8
109
 62
1
  6
DASHED
 10
246
 20
-35.5
 30
0
 11
254
 21
-35.5
 31
0
  0
LINE
  8
109
 62
1
  6
DASHED
 10
246
 20
-30.5
 30
0
 11
254
 21
-30.5
 31
0
  0
LINE
  8
109
 62
1
  6
DASHED
 10
246
 20
4.500000000000003
 30
0
 11
254
 21
4.5
 31
0
  0
LINE
  8
109
 62
7
 10
255
 20
5.081111878547512
 30
0
 11
255
 21
-35.5
 31
0
  0
LINE
  8
109
 62
1
  6
DASHED
 10
254
 20
4.5
 30
0
 11
255
 21
4.500000000000003
 31
0
  0
LINE
  8
109
 62
1
  6
DASHED
 10
254
 20
-30.5
 30
0
 11
255
 21
-30.5
 31
0
  0
LINE
  8
109
 62
7
 10
254
 20
-35.5
 30
0
 11
255
 21
-35.5
 31
0
  0
ARC
  8
109
 62
7
 10
0
 20
0
 30
0
 40
35.5
 50
180
 51
0
  0
ARC
  8
109
 62
7
 10
0
 20
0
 30
0
 40
30.5
 50
200.8643548051478
 51
339.1356451948522
  0
CIRCLE
  8
109
 62
1
  6
DASHED
 10
0
 20
0
 30
0
 40
38
  0
CIRCLE
  8
109
 62
1
  6
DASHED
 10
0
 20
0
 30
0
 40
13
  0
CIRCLE
  8
109
 62
7
 10
36
 20
36
 30
0
 40
3.600000000000001
  0
CIRCLE
  8
109
 62
7
 10
36
 20
36
 30
0
 40
2.149999999999999
  0
CIRCLE
  8
109
 62
1
  6
DASHED
 10
0
 20
0
 30
0
 40
8.925000000000002
  0
CIRCLE
  8
109
 62
7
 10
0
 20
0
 30
0
 40
36
  0
CIRCLE
  8
109
 62
7
 10
-36
 20
-35.99999999999999
 30
0
 40
2.149999999999999
  0
CIRCLE
  8
109
 62
7
 10
-36
 20
-35.99999999999999
 30
0
 40
3.600000000000001
  0
CIRCLE
  8
109
 62
7
 10
36
 20
-36
 30
0
 40
2.149999999999999
  0
CIRCLE
  8
109
 62
7
 10
36
 20
-36
 30
0
 40
3.600000000000001
  0
CIRCLE
  8
109
 62
7
 10
-36
 20
36
 30
0
 40
2.149999999999999
  0
CIRCLE
  8
109
 62
7
 10
-36
 20
36
 30
0
 40
3.600000000000001
  0
ARC
  8
109
 62
1
  6
DASHED
 10
253.5
 20
5.081111878547512
 30
0
 40
1.5
 50
70.52877936550931
 51
71.00000000000144
  0
ARC
  8
109
 62
1
  6
DASHED
 10
253.5
 20
-5.081111878547505
 30
0
 40
1.499999999999987
 50
288.9999999999985
 51
0
  0
ARC
  8
109
 62
7
 10
253.5
 20
5.081111878547512
 30
0
 40
1.5
 50
0
 51
70.52877936550931
  0
TEXT
  8
109
 62
7
 10
125
 20
-175
 30
0
 40
5
  1
Ringgriffmuschel
 41
0.9
  7
SIMPLEX
  0
TEXT
  8
109
 62
7
 10
125
 20
-185
 30
0
 40
5
  1
42030001
 41
0.9
  7
SIMPLEX
  0
ENDSEC
  0
EOF
