  0
SECTION
  2
HEADER
  9
$ACADVER
  1
AC1009
  9
$INSBASE
 10
0
 20
0
  9
$EXTMIN
 10
-38.7581267235168
 20
-256.3089284124753
  9
$EXTMAX
 10
256.3089284124753
 20
38.7661661994423
  9
$LIMMIN
 10
-38.7581267235168
 20
-256.3089284124753
  9
$LIMMAX
 10
256.3089284124753
 20
38.7661661994423
  9
$VIEWCTR
 10
10
 20
10
  9
$VIEWSIZE
 40
10
  9
$SNAPMODE
 70
0
  9
$SNAPUNIT
 10
1
 20
1
  9
$SNAPBASE
 10
0
 20
0
  9
$SNAPANG
 50
0
  9
$SNAPSTYLE
 70
0
  9
$SNAPISOPAIR
 70
0
  9
$GRIDMODE
 70
0
  9
$GRIDUNIT
 10
0
 20
0
  9
$ORTHOMODE
 70
0
  9
$REGENMODE
 70
1
  9
$FILLMODE
 70
1
  9
$QTEXTMODE
 70
0
  9
$DRAGMODE
 70
2
  9
$LTSCALE
 40
1
  9
$OSMODE
 70
0
  9
$ATTMODE
 70
1
  9
$TEXTSIZE
 40
3.5
  9
$TRACEWID
 40
0.5
  9
$TEXTSTYLE
  7
STANDARD
  9
$CLAYER
  8
0
  9
$CELTYPE
  6
BYLAYER
  9
$CECOLOR
 62
256
  9
$DIMSCALE
 40
1
  9
$DIMASZ
 40
0.18
  9
$DIMEXO
 40
0.0625
  9
$DIMDLI
 40
0.38
  9
$DIMRND
 40
0
  9
$DIMDLE
 40
0
  9
$DIMEXE
 40
0.18
  9
$DIMTP
 40
0
  9
$DIMTM
 40
0
  9
$DIMTXT
 40
0.18
  9
$DIMCEN
 40
0.09
  9
$DIMTSZ
 40
0
  9
$DIMTOL
 70
0
  9
$DIMLIM
 70
0
  9
$DIMTIH
 70
1
  9
$DIMTOH
 70
1
  9
$DIMSE1
 70
0
  9
$DIMSE2
 70
0
  9
$DIMTAD
 70
0
  9
$DIMZIN
 70
0
  9
$DIMBLK
  1

  9
$DIMASO
 70
1
  9
$DIMSHO
 70
1
  9
$DIMPOST
  1

  9
$DIMAPOST
  1

  9
$DIMALT
 70
0
  9
$DIMALTD
 70
2
  9
$DIMALTF
 40
25.4
  9
$DIMLFAC
 40
1
  9
$DIMTOFL
 70
0
  9
$DIMTVP
 40
0
  9
$DIMTIX
 70
0
  9
$DIMSOXD
 70
0
  9
$DIMSAH
 70
0
  9
$DIMBLK1
  1

  9
$DIMBLK2
  1

  9
$DIMSTYLE
  2
*UNNAMED
  9
$DIMCLRD
 70
0
  9
$DIMCLRE
 70
0
  9
$DIMCLRT
 70
0
  9
$DIMTFAC
 40
1
  9
$DIMGAP
 40
0.09
  9
$LUNITS
 70
2
  9
$LUPREC
 70
4
  9
$AXISMODE
 70
0
  9
$AXISUNIT
 10
0
 20
0
  9
$SKETCHINC
 40
0.1
  9
$FILLETRAD
 40
2
  9
$AUNITS
 70
0
  9
$AUPREC
 70
0
  9
$MENU
  1
ACAD
  9
$ELEVATION
 40
0
  9
$THICKNESS
 40
0
  9
$VIEWDIR
 10
0
 20
0
 30
1
  9
$LIMCHECK
 70
0
  9
$BLIPMODE
 70
1
  9
$CHAMFERA
 40
0
  9
$CHAMFERB
 40
0
  9
$FASTZOOM
 70
1
  9
$SKPOLY
 70
0
  9
$ANGBASE
 50
0
  9
$ANGDIR
 70
0
  9
$PDMODE
 70
0
  9
$PDSIZE
 40
0
  9
$PLINEWID
 40
0
  9
$COORDS
 70
2
  0
ENDSEC
  0
SECTION
  2
TABLES
  0
TABLE
  2
DIMSTYLE
 70
0
  0
ENDTAB
  0
TABLE
  2
LTYPE
 70
9
  0
LTYPE
  2
CONTINUOUS
 70
64
  3
Solid line
 72
65
 73
0
 40
0
  0
LTYPE
  2
BORDER
 70
64
  3
__ __ . __ __ .
 72
65
 73
6
 40
13.58898462028568
 49
3.882567034367337
 49
-1.941283517183669
 49
3.882567034367337
 49
-1.941283517183669
 49
0
 49
-1.941283517183669
  0
LTYPE
  2
CENTER
 70
64
  3
____ _ ____ _
 72
65
 73
4
 40
15.53026813746935
 49
9.706417585918343
 49
-1.941283517183669
 49
1.941283517183669
 49
-1.941283517183669
  0
LTYPE
  2
DASHDOT
 70
64
  3
__ . __ . __ .
 72
65
 73
4
 40
7.765134068734675
 49
3.882567034367337
 49
-1.941283517183669
 49
0
 49
-1.941283517183669
  0
LTYPE
  2
DASHED
 70
64
  3
__ __ __ __ __
 72
65
 73
2
 40
5.823850551551006
 49
3.882567034367337
 49
-1.941283517183669
  0
LTYPE
  2
DIVIDE
 70
64
  3
__ . . __ . . 
 72
65
 73
6
 40
9.706417585918343
 49
3.882567034367337
 49
-1.941283517183669
 49
0
 49
-1.941283517183669
 49
0
 49
-1.941283517183669
  0
LTYPE
  2
DOT
 70
64
  3
..............
 72
65
 73
4
 40
3.882567034367337
 49
0
 49
-1.941283517183669
 49
0
 49
-1.941283517183669
  0
LTYPE
  2
HIDDEN
 70
64
  3
_ _ _ _ _ _ _
 72
65
 73
2
 40
2.911925275775503
 49
1.941283517183669
 49
-0.9706417585918343
  0
LTYPE
  2
PHANTOM
 70
64
  3
_____ _ _ _____ _ _ 
 72
65
 73
6
 40
19.41283517183669
 49
9.706417585918343
 49
-1.941283517183669
 49
1.941283517183669
 49
-1.941283517183669
 49
1.941283517183669
 49
-1.941283517183669
  0
ENDTAB
  0
TABLE
  2
LAYER
 70
3
  0
LAYER
  2
109
 70
0
 62
7
  6
CONTINUOUS
  0
LAYER
  2
0
 70
0
 62
7
  6
CONTINUOUS
  0
ENDTAB
  0
TABLE
  2
STYLE
 70
4
  0
STYLE
  2
STANDARD
 70
0
 40
0
 41
1
 50
0
 71
0
 42
3.5
  3
txt
  4

  0
STYLE
  2
SIMPLEX
 70
0
 40
0
 41
1
 50
0
 71
0
 42
3.5
  3
simplex
  4

  0
STYLE
  2
COMPLEX
 70
0
 40
0
 41
1
 50
0
 71
0
 42
3.5
  3
complex
  4

  0
STYLE
  2
ITALIC
 70
0
 40
0
 41
1
 50
0
 71
0
 42
3.5
  3
italic
  4

  0
ENDTAB
  0
TABLE
  2
VIEW
 70
0
  0
ENDTAB
  0
ENDSEC
  0
SECTION
  2
BLOCKS
  0
ENDSEC
  0
SECTION
  2
ENTITIES
  0
LINE
  8
109
 62
1
  6
DASHDOT
 10
27
 20
31.71368900909169
 30
0
 11
27
 21
22.35429949520539
 31
0
  0
LINE
  8
109
 62
1
  6
DASHDOT
 10
22.124524269685
 20
27
 30
0
 11
32.0222857467595
 21
27
 31
0
  0
LINE
  8
109
 62
1
  6
DASHDOT
 10
-27
 20
31.71368900909169
 30
0
 11
-27
 21
22.35429949520539
 31
0
  0
LINE
  8
109
 62
1
  6
DASHDOT
 10
-31.875475730315
 20
27
 30
0
 11
-21.9777142532405
 21
27
 31
0
  0
LINE
  8
109
 62
1
  6
DASHDOT
 10
27
 20
-22.2863109909083
 30
0
 11
27
 21
-31.6457005047946
 31
0
  0
LINE
  8
109
 62
1
  6
DASHDOT
 10
22.124524269685
 20
-26.99999999999999
 30
0
 11
32.0222857467595
 21
-26.99999999999999
 31
0
  0
LINE
  8
109
 62
1
  6
DASHDOT
 10
-27
 20
-22.2863109909083
 30
0
 11
-27
 21
-31.6457005047946
 31
0
  0
LINE
  8
109
 62
1
  6
DASHDOT
 10
-31.875475730315
 20
-26.99999999999999
 30
0
 11
-21.9777142532405
 21
-26.99999999999999
 31
0
  0
LINE
  8
109
 62
7
 10
-35
 20
35
 30
0
 11
-35
 21
-34.99999999999999
 31
0
  0
LINE
  8
109
 62
7
 10
35
 20
35
 30
0
 11
-35
 21
35
 31
0
  0
LINE
  8
109
 62
7
 10
35
 20
-34.99999999999999
 30
0
 11
35
 21
35
 31
0
  0
LINE
  8
109
 62
7
 10
-35
 20
-34.99999999999999
 30
0
 11
35
 21
-34.99999999999999
 31
0
  0
LINE
  8
109
 62
1
  6
DASHDOT
 10
-38.7581267235168
 20
-3.342837105193951e-15
 30
0
 11
39.8471029716518
 21
-7.889069456055963e-16
 31
0
  0
LINE
  8
109
 62
1
  6
DASHDOT
 10
0
 20
38.7661661994423
 30
0
 11
0
 21
-39.0181211490405
 31
0
  0
LINE
  8
109
 62
7
 10
26.99999999999999
 20
3.999999999999999
 30
0
 11
21.5
 21
3.999999999999998
 31
0
  0
LINE
  8
109
 62
7
 10
21.5
 20
3.999999999999998
 30
0
 11
21.5
 21
-8.170067319184097
 31
0
  0
LINE
  8
109
 62
7
 10
-21.5
 20
-8.170067319184097
 30
0
 11
-21.5
 21
3.999999999999997
 31
0
  0
LINE
  8
109
 62
7
 10
-21.5
 20
3.999999999999997
 30
0
 11
-27
 21
3.999999999999997
 31
0
  0
LINE
  8
109
 62
7
 10
-27
 20
3.999999999999997
 30
0
 11
-27
 21
-2.96080865014197e-15
 31
0
  0
LINE
  8
109
 62
7
 10
27
 20
-1.206316879650422e-15
 30
0
 11
26.99999999999999
 21
3.999999999999999
 31
0
  0
LINE
  8
109
 62
7
 10
21.25
 20
-7.500000000000007
 30
0
 11
-21.25
 21
-7.500000000000007
 31
0
  0
LINE
  8
109
 62
7
 10
-21.25
 20
-7.500000000000007
 30
0
 11
-21.25
 21
7.499999999999996
 31
0
  0
LINE
  8
109
 62
7
 10
-21.25
 20
7.499999999999996
 30
0
 11
21.25
 21
7.499999999999996
 31
0
  0
LINE
  8
109
 62
7
 10
21.25
 20
7.499999999999996
 30
0
 11
21.25
 21
-7.500000000000007
 31
0
  0
LINE
  8
109
 62
1
  6
DASHED
 10
-4
 20
-4.000000000000007
 30
0
 11
4
 21
-4.000000000000007
 31
0
  0
LINE
  8
109
 62
1
  6
DASHED
 10
4
 20
-4.000000000000007
 30
0
 11
4
 21
3.999999999999993
 31
0
  0
LINE
  8
109
 62
1
  6
DASHED
 10
4
 20
3.999999999999993
 30
0
 11
-4
 21
3.999999999999993
 31
0
  0
LINE
  8
109
 62
1
  6
DASHED
 10
-4
 20
3.999999999999993
 30
0
 11
-4
 21
-4.000000000000007
 31
0
  0
LINE
  8
109
 62
1
  6
DASHED
 10
-27.5
 20
-253.5
 30
0
 11
-27.5
 21
-244.5
 31
0
  0
LINE
  8
109
 62
7
 10
-35
 20
-253.5
 30
0
 11
35
 21
-253.5
 31
0
  0
LINE
  8
109
 62
7
 10
-35
 20
-250
 30
0
 11
-35
 21
-253.5
 31
0
  0
LINE
  8
109
 62
7
 10
35
 20
-250
 30
0
 11
-35
 21
-250
 31
0
  0
LINE
  8
109
 62
7
 10
-29
 20
-242.5
 30
0
 11
-29
 21
-250
 31
0
  0
LINE
  8
109
 62
7
 10
29
 20
-242.5
 30
0
 11
-29
 21
-242.5
 31
0
  0
LINE
  8
109
 62
1
  6
DASHED
 10
-9
 20
-242.5
 30
0
 11
-9
 21
-244.5
 31
0
  0
LINE
  8
109
 62
1
  6
DASHED
 10
-27.5
 20
-244.5
 30
0
 11
27.5
 21
-244.5
 31
0
  0
LINE
  8
109
 62
1
  6
DASHED
 10
-10
 20
-246.5
 30
0
 11
-10
 21
-244.5
 31
0
  0
LINE
  8
109
 62
1
  6
DASHED
 10
27
 20
-246.5
 30
0
 11
-27
 21
-246.5
 31
0
  0
LINE
  8
109
 62
1
  6
DASHED
 10
-7.5
 20
-240
 30
0
 11
-7.5
 21
-246.5
 31
0
  0
LINE
  8
109
 62
1
  6
DASHED
 10
-21.25
 20
-253.5
 30
0
 11
-21.25
 21
-246.5
 31
0
  0
LINE
  8
109
 62
1
  6
DASHED
 10
-21.5
 20
-253.5
 30
0
 11
-21.5
 21
-246.5
 31
0
  0
LINE
  8
109
 62
7
 10
-27
 20
-254.5
 30
0
 11
27
 21
-254.5
 31
0
  0
LINE
  8
109
 62
1
  6
DASHDOT
 10
-19.43105659520691
 20
-250.5
 30
0
 11
-28.0657141887641
 21
-250.5
 31
0
  0
LINE
  8
109
 62
7
 10
7.5
 20
-237.5
 30
0
 11
-7.5
 21
-237.5
 31
0
  0
LINE
  8
109
 62
1
  6
DASHED
 10
-4
 20
-251.5
 30
0
 11
-4
 21
-237.5
 31
0
  0
LINE
  8
109
 62
1
  6
DASHED
 10
4
 20
-251.5
 30
0
 11
-4
 21
-251.5
 31
0
  0
LINE
  8
109
 62
1
  6
DASHDOT
 10
0
 20
-234.0493389965264
 30
0
 11
0
 21
-256.3089284124753
 31
0
  0
LINE
  8
109
 62
7
 10
-27
 20
-253.5
 30
0
 11
-27
 21
-254.5
 31
0
  0
LINE
  8
109
 62
1
  6
DASHED
 10
27.5
 20
-244.5
 30
0
 11
27.5
 21
-253.5
 31
0
  0
LINE
  8
109
 62
7
 10
35
 20
-253.5
 30
0
 11
35
 21
-250
 31
0
  0
LINE
  8
109
 62
7
 10
29
 20
-250
 30
0
 11
29
 21
-242.5
 31
0
  0
LINE
  8
109
 62
1
  6
DASHED
 10
9
 20
-244.5
 30
0
 11
9
 21
-242.5
 31
0
  0
LINE
  8
109
 62
1
  6
DASHED
 10
10
 20
-244.5
 30
0
 11
10
 21
-246.5
 31
0
  0
LINE
  8
109
 62
7
 10
7.5
 20
-240
 30
0
 11
7.5
 21
-237.5
 31
0
  0
LINE
  8
109
 62
7
 10
21.25
 20
-253.5
 30
0
 11
21.25
 21
-254.5
 31
0
  0
LINE
  8
109
 62
7
 10
21.5
 20
-253.5
 30
0
 11
21.5
 21
-254.5
 31
0
  0
LINE
  8
109
 62
1
  6
DASHED
 10
27
 20
-253.5
 30
0
 11
27
 21
-246.5
 31
0
  0
LINE
  8
109
 62
1
  6
DASHDOT
 10
28.0657141887641
 20
-250.5
 30
0
 11
19.43105659520691
 21
-250.5
 31
0
  0
LINE
  8
109
 62
1
  6
DASHED
 10
4
 20
-237.5
 30
0
 11
4
 21
-251.5
 31
0
  0
LINE
  8
109
 62
7
 10
-11.62685920421245
 20
-240
 30
0
 11
11.62685920421245
 21
-240
 31
0
  0
LINE
  8
109
 62
7
 10
11.62685920421245
 20
-242.5
 30
0
 11
11.62685920421245
 21
-240
 31
0
  0
LINE
  8
109
 62
7
 10
-11.62685920421245
 20
-240
 30
0
 11
-11.62685920421245
 21
-242.5
 31
0
  0
LINE
  8
109
 62
7
 10
-7.5
 20
-237.5
 30
0
 11
-7.5
 21
-240
 31
0
  0
LINE
  8
109
 62
1
  6
DASHED
 10
7.5
 20
-246.5
 30
0
 11
7.5
 21
-240
 31
0
  0
LINE
  8
109
 62
1
  6
DASHED
 10
21.5
 20
-246.5
 30
0
 11
21.5
 21
-253.5
 31
0
  0
LINE
  8
109
 62
1
  6
DASHED
 10
21.25
 20
-246.5
 30
0
 11
21.25
 21
-253.5
 31
0
  0
LINE
  8
109
 62
7
 10
27
 20
-254.5
 30
0
 11
27
 21
-253.5
 31
0
  0
LINE
  8
109
 62
7
 10
-21.5
 20
-254.5
 30
0
 11
-21.5
 21
-253.5
 31
0
  0
LINE
  8
109
 62
7
 10
-21.25
 20
-254.5
 30
0
 11
-21.25
 21
-253.5
 31
0
  0
LINE
  8
109
 62
1
  6
DASHED
 10
-27
 20
-246.5
 30
0
 11
-27
 21
-253.5
 31
0
  0
LINE
  8
109
 62
1
  6
DASHED
 10
244.5
 20
27.5
 30
0
 11
253.5
 21
27.5
 31
0
  0
LINE
  8
109
 62
7
 10
253.5
 20
-34.99999999999999
 30
0
 11
253.5
 21
35.00000000000001
 31
0
  0
LINE
  8
109
 62
7
 10
253.5
 20
35.00000000000001
 30
0
 11
250
 21
35.00000000000001
 31
0
  0
LINE
  8
109
 62
7
 10
250
 20
35.00000000000001
 30
0
 11
250
 21
-34.99999999999999
 31
0
  0
LINE
  8
109
 62
7
 10
250
 20
29
 30
0
 11
242.5
 21
29
 31
0
  0
LINE
  8
109
 62
7
 10
242.5
 20
29
 30
0
 11
242.5
 21
-29
 31
0
  0
LINE
  8
109
 62
1
  6
DASHED
 10
244.5
 20
9.000000000000004
 30
0
 11
242.5
 21
9.000000000000004
 31
0
  0
LINE
  8
109
 62
1
  6
DASHED
 10
244.5
 20
-27.5
 30
0
 11
244.5
 21
27.5
 31
0
  0
LINE
  8
109
 62
1
  6
DASHED
 10
244.5
 20
10
 30
0
 11
246.5
 21
10
 31
0
  0
LINE
  8
109
 62
1
  6
DASHED
 10
246.5
 20
10
 30
0
 11
246.5
 21
-27
 31
0
  0
LINE
  8
109
 62
1
  6
DASHED
 10
246.5
 20
7.500000000000003
 30
0
 11
240
 21
7.500000000000003
 31
0
  0
LINE
  8
109
 62
7
 10
254.5
 20
-27
 30
0
 11
254.5
 21
4.891415393183877
 31
0
  0
LINE
  8
109
 62
7
 10
237.5
 20
7.500000000000003
 30
0
 11
237.5
 21
-7.499999999999997
 31
0
  0
LINE
  8
109
 62
1
  6
DASHED
 10
237.5
 20
4.000000000000003
 30
0
 11
253.5
 21
4.000000000000004
 31
0
  0
LINE
  8
109
 62
1
  6
DASHED
 10
251.5
 20
4.000000000000004
 30
0
 11
251.5
 21
-3.999999999999997
 31
0
  0
LINE
  8
109
 62
1
  6
DASHDOT
 10
256.3089284124753
 20
3.354414792817392e-15
 30
0
 11
234.0493389965264
 21
1.991408281516608e-15
 31
0
  0
LINE
  8
109
 62
1
  6
DASHED
 10
253.5
 20
-27.5
 30
0
 11
244.5
 21
-27.5
 31
0
  0
LINE
  8
109
 62
7
 10
250
 20
-34.99999999999999
 30
0
 11
253.5
 21
-34.99999999999999
 31
0
  0
LINE
  8
109
 62
7
 10
242.5
 20
-29
 30
0
 11
250
 21
-29
 31
0
  0
LINE
  8
109
 62
1
  6
DASHED
 10
242.5
 20
-8.999999999999996
 30
0
 11
244.5
 21
-8.999999999999996
 31
0
  0
LINE
  8
109
 62
1
  6
DASHED
 10
246.5
 20
-9.999999999999996
 30
0
 11
244.5
 21
-9.999999999999996
 31
0
  0
LINE
  8
109
 62
7
 10
237.5
 20
-7.499999999999997
 30
0
 11
240
 21
-7.499999999999997
 31
0
  0
LINE
  8
109
 62
1
  6
DASHED
 10
246.5
 20
-27
 30
0
 11
253.5
 21
-27
 31
0
  0
LINE
  8
109
 62
1
  6
DASHED
 10
251.5
 20
-3.999999999999997
 30
0
 11
237.5
 21
-3.999999999999998
 31
0
  0
LINE
  8
109
 62
7
 10
240
 20
-11.62685920421245
 30
0
 11
240
 21
11.62685920421245
 31
0
  0
LINE
  8
109
 62
7
 10
240
 20
-11.62685920421245
 30
0
 11
242.5
 21
-11.62685920421245
 31
0
  0
LINE
  8
109
 62
7
 10
242.5
 20
11.62685920421245
 30
0
 11
240
 21
11.62685920421245
 31
0
  0
LINE
  8
109
 62
7
 10
240
 20
7.500000000000003
 30
0
 11
237.5
 21
7.500000000000003
 31
0
  0
LINE
  8
109
 62
1
  6
DASHED
 10
240
 20
-7.499999999999997
 30
0
 11
246.5
 21
-7.499999999999997
 31
0
  0
LINE
  8
109
 62
1
  6
DASHED
 10
254.5
 20
-23
 30
0
 11
246.5
 21
-23
 31
0
  0
LINE
  8
109
 62
7
 10
253.5
 20
-27
 30
0
 11
254.5
 21
-27
 31
0
  0
LINE
  8
109
 62
7
 10
253.5
 20
4.000000000000004
 30
0
 11
254.5
 21
4.000000000000004
 31
0
  0
LINE
  8
109
 62
1
  6
DASHDOT
 10
250.5
 20
2.56565164403324
 30
0
 11
250.5
 21
-2.43434835596676
 31
0
  0
LINE
  8
109
 62
1
  6
DASHED
 10
246.5
 20
7.500000000000003
 30
0
 11
253.247571408791
 21
6.37084379548972
 31
0
  0
LINE
  8
109
 62
1
  6
DASHED
 10
246.5
 20
-7.499999999999997
 30
0
 11
253.247571408791
 21
-6.370843795489719
 31
0
  0
ARC
  8
109
 62
7
 10
0
 20
0
 30
0
 40
23
 50
200.8069477761262
 51
339.1930522238738
  0
ARC
  8
109
 62
7
 10
0
 20
0
 30
0
 40
27
 50
180
 51
0
  0
ARC
  8
109
 62
1
  6
DASHED
 10
253
 20
4.891415393183876
 30
0
 40
1.5
 50
70.52877936550931
 51
80.50000000000048
  0
ARC
  8
109
 62
7
 10
253
 20
4.891415393183876
 30
0
 40
1.5
 50
0
 51
70.52877936550931
  0
ARC
  8
109
 62
1
  6
DASHED
 10
253
 20
-4.891415393183873
 30
0
 40
1.499999999999997
 50
279.4999999999995
 51
0
  0
CIRCLE
  8
109
 62
7
 10
-27
 20
27
 30
0
 40
3.600000000000001
  0
CIRCLE
  8
109
 62
7
 10
-27
 20
27
 30
0
 40
2.149999999999999
  0
CIRCLE
  8
109
 62
7
 10
27
 20
-26.99999999999999
 30
0
 40
3.600000000000001
  0
CIRCLE
  8
109
 62
7
 10
27
 20
-26.99999999999999
 30
0
 40
2.149999999999999
  0
CIRCLE
  8
109
 62
7
 10
-27
 20
-26.99999999999999
 30
0
 40
3.600000000000001
  0
CIRCLE
  8
109
 62
7
 10
-27
 20
-26.99999999999999
 30
0
 40
2.149999999999999
  0
CIRCLE
  8
109
 62
7
 10
0
 20
0
 30
0
 40
27.5
  0
CIRCLE
  8
109
 62
1
  6
DASHED
 10
0
 20
0
 30
0
 40
7.500000000000003
  0
CIRCLE
  8
109
 62
7
 10
27
 20
27
 30
0
 40
2.149999999999999
  0
CIRCLE
  8
109
 62
7
 10
27
 20
27
 30
0
 40
3.600000000000001
  0
CIRCLE
  8
109
 62
1
  6
DASHED
 10
0
 20
0
 30
0
 40
11.62685920421235
  0
CIRCLE
  8
109
 62
1
  6
DASHED
 10
0
 20
0
 30
0
 40
29
  0
TEXT
  8
109
 62
7
 10
125
 20
-175
 30
0
 40
5
  1
Ringgriffmuschel
 41
0.9
  7
SIMPLEX
  0
TEXT
  8
109
 62
7
 10
125
 20
-185
 30
0
 40
5
  1
42040001
 41
0.9
  7
SIMPLEX
  0
ENDSEC
  0
EOF
