  0
SECTION
  2
HEADER
  9
$ACADVER
  1
AC1012
  9
$DWGCODEPAGE
  3
ansi_1252
  9
$INSBASE
 10
0.0
 20
0.0
 30
0.0
  9
$EXTMIN
 10
0.0
 20
0.0
 30
0.0
  9
$EXTMAX
 10
210.0
 20
297.0
 30
0.0
  9
$LIMMIN
 10
0.0
 20
0.0
  9
$LIMMAX
 10
210.0
 20
297.0
  9
$ORTHOMODE
 70
     0
  9
$REGENMODE
 70
     1
  9
$FILLMODE
 70
     1
  9
$QTEXTMODE
 70
     0
  9
$MIRRTEXT
 70
     1
  9
$DRAGMODE
 70
     2
  9
$LTSCALE
 40
1.0
  9
$OSMODE
 70
    37
  9
$ATTMODE
 70
     1
  9
$TEXTSIZE
 40
0.2
  9
$TRACEWID
 40
0.05
  9
$TEXTSTYLE
  7
STANDARD
  9
$CLAYER
  8
0
  9
$CELTYPE
  6
BYLAYER
  9
$CECOLOR
 62
   256
  9
$CELTSCALE
 40
25.4
  9
$DELOBJ
 70
     1
  9
$DISPSILH
 70
     0
  9
$DIMSCALE
 40
1.0
  9
$DIMASZ
 40
0.18
  9
$DIMEXO
 40
0.0625
  9
$DIMDLI
 40
0.38
  9
$DIMRND
 40
0.0
  9
$DIMDLE
 40
0.0
  9
$DIMEXE
 40
0.18
  9
$DIMTP
 40
0.0
  9
$DIMTM
 40
0.0
  9
$DIMTXT
 40
0.18
  9
$DIMCEN
 40
0.09
  9
$DIMTSZ
 40
0.0
  9
$DIMTOL
 70
     0
  9
$DIMLIM
 70
     0
  9
$DIMTIH
 70
     1
  9
$DIMTOH
 70
     1
  9
$DIMSE1
 70
     0
  9
$DIMSE2
 70
     0
  9
$DIMTAD
 70
     0
  9
$DIMZIN
 70
     0
  9
$DIMBLK
  1

  9
$DIMASO
 70
     1
  9
$DIMSHO
 70
     1
  9
$DIMPOST
  1

  9
$DIMAPOST
  1

  9
$DIMALT
 70
     0
  9
$DIMALTD
 70
     2
  9
$DIMALTF
 40
25.4
  9
$DIMLFAC
 40
1.0
  9
$DIMTOFL
 70
     0
  9
$DIMTVP
 40
0.0
  9
$DIMTIX
 70
     0
  9
$DIMSOXD
 70
     0
  9
$DIMSAH
 70
     0
  9
$DIMBLK1
  1

  9
$DIMBLK2
  1

  9
$DIMSTYLE
  2
STANDARD
  9
$DIMCLRD
 70
     0
  9
$DIMCLRE
 70
     0
  9
$DIMCLRT
 70
     0
  9
$DIMTFAC
 40
1.0
  9
$DIMGAP
 40
0.09
  9
$DIMJUST
 70
     0
  9
$DIMSD1
 70
     0
  9
$DIMSD2
 70
     0
  9
$DIMTOLJ
 70
     1
  9
$DIMTZIN
 70
     0
  9
$DIMALTZ
 70
     0
  9
$DIMALTTZ
 70
     0
  9
$DIMFIT
 70
     3
  9
$DIMUPT
 70
     0
  9
$DIMUNIT
 70
     2
  9
$DIMDEC
 70
     4
  9
$DIMTDEC
 70
     4
  9
$DIMALTU
 70
     2
  9
$DIMALTTD
 70
     2
  9
$DIMTXSTY
  7
STANDARD
  9
$DIMAUNIT
 70
     0
  9
$LUNITS
 70
     2
  9
$LUPREC
 70
     4
  9
$SKETCHINC
 40
0.1
  9
$FILLETRAD
 40
0.5
  9
$AUNITS
 70
     0
  9
$AUPREC
 70
     0
  9
$MENU
  1
.
  9
$ELEVATION
 40
0.0
  9
$PELEVATION
 40
0.0
  9
$THICKNESS
 40
0.0
  9
$LIMCHECK
 70
     0
  9
$CHAMFERA
 40
0.5
  9
$CHAMFERB
 40
0.5
  9
$CHAMFERC
 40
1.0
  9
$CHAMFERD
 40
0.0
  9
$SKPOLY
 70
     0
  9
$TDCREATE
 40
2453762.544860313
  9
$TDUPDATE
 40
2453762.544860324
  9
$TDINDWG
 40
0.0000000116
  9
$TDUSRTIMER
 40
0.0000000116
  9
$USRTIMER
 70
     1
  9
$ANGBASE
 50
0.0
  9
$ANGDIR
 70
     0
  9
$PDMODE
 70
     0
  9
$PDSIZE
 40
0.0
  9
$PLINEWID
 40
0.0
  9
$COORDS
 70
     1
  9
$SPLFRAME
 70
     0
  9
$SPLINETYPE
 70
     6
  9
$SPLINESEGS
 70
     8
  9
$ATTDIA
 70
     0
  9
$ATTREQ
 70
     1
  9
$HANDLING
 70
     1
  9
$HANDSEED
  5
102
  9
$SURFTAB1
 70
     6
  9
$SURFTAB2
 70
     6
  9
$SURFTYPE
 70
     6
  9
$SURFU
 70
     6
  9
$SURFV
 70
     6
  9
$UCSNAME
  2

  9
$UCSORG
 10
0.0
 20
0.0
 30
0.0
  9
$UCSXDIR
 10
1.0
 20
0.0
 30
0.0
  9
$UCSYDIR
 10
0.0
 20
1.0
 30
0.0
  9
$PUCSNAME
  2

  9
$PUCSORG
 10
0.0
 20
0.0
 30
0.0
  9
$PUCSXDIR
 10
1.0
 20
0.0
 30
0.0
  9
$PUCSYDIR
 10
0.0
 20
1.0
 30
0.0
  9
$USERI1
 70
     0
  9
$USERI2
 70
     0
  9
$USERI3
 70
     0
  9
$USERI4
 70
     0
  9
$USERI5
 70
     0
  9
$USERR1
 40
0.0
  9
$USERR2
 40
0.0
  9
$USERR3
 40
0.0
  9
$USERR4
 40
0.0
  9
$USERR5
 40
0.0
  9
$WORLDVIEW
 70
     1
  9
$SHADEDGE
 70
     3
  9
$SHADEDIF
 70
    70
  9
$TILEMODE
 70
     1
  9
$MAXACTVP
 70
    64
  9
$PINSBASE
 10
0.0
 20
0.0
 30
0.0
  9
$PLIMCHECK
 70
     0
  9
$PEXTMIN
 10
0.0
 20
0.0
 30
0.0
  9
$PEXTMAX
 10
210.0
 20
297.0
 30
0.0
  9
$PLIMMIN
 10
0.0
 20
0.0
  9
$PLIMMAX
 10
12.0
 20
9.0
  9
$UNITMODE
 70
     0
  9
$VISRETAIN
 70
     1
  9
$PLINEGEN
 70
     0
  9
$PSLTSCALE
 70
     1
  9
$TREEDEPTH
 70
  3020
  9
$PICKSTYLE
 70
     1
  9
$CMLSTYLE
  2
STANDARD
  9
$CMLJUST
 70
     0
  9
$CMLSCALE
 40
1.0
  9
$SAVEIMAGES
 70
     1
  0
ENDSEC
  0
SECTION
  2
CLASSES
  0
CLASS
  1
ACDBDICTIONARYWDFLT
  2
AcDbDictionaryWithDefault
  3
ObjectDBX Classes
 90
        0
280
     0
281
     0
  0
CLASS
  1
TABLESTYLE
  2
AcDbTableStyle
  3
ObjectDBX Classes
 90
     2047
280
     0
281
     0
  0
CLASS
  1
DICTIONARYVAR
  2
AcDbDictionaryVar
  3
ObjectDBX Classes
 90
        0
280
     0
281
     0
  0
CLASS
  1
XRECORD
  2
AcDbXrecord
  3
AutoCAD 2000
 90
    32768
280
     0
281
     0
  0
CLASS
  1
LWPOLYLINE
  2
AcDbPolyline
  3
AutoCAD 2000
 90
    32768
280
     0
281
     1
  0
CLASS
  1
HATCH
  2
AcDbHatch
  3
AutoCAD 2000
 90
    32768
280
     0
281
     1
  0
CLASS
  1
ACDBPLACEHOLDER
  2
AcDbPlaceHolder
  3
ObjectDBX Classes
 90
        0
280
     0
281
     0
  0
CLASS
  1
LAYOUT
  2
AcDbLayout
  3
ObjectDBX Classes
 90
        0
280
     0
281
     0
  0
ENDSEC
  0
SECTION
  2
TABLES
  0
TABLE
  2
VPORT
  5
8
330
0
100
AcDbSymbolTable
 70
     2
  0
VPORT
  5
29
102
{ACAD_XDICTIONARY
360
100
102
}
330
8
100
AcDbSymbolTableRecord
100
AcDbViewportTableRecord
  2
*ACTIVE
 70
     0
 10
0.0
 20
0.0
 11
1.0
 21
1.0
 12
10.4299065421
 22
4.5
 13
0.0
 23
0.0
 14
0.5
 24
0.5
 15
0.5
 25
0.5
 16
0.0
 26
0.0
 36
1.0
 17
0.0
 27
0.0
 37
0.0
 40
9.0
 41
1.9729729729
 42
50.0
 43
0.0
 44
0.0
 50
0.0
 51
0.0
 71
     0
 72
   100
 73
     1
 74
     3
 75
     0
 76
     0
 77
     0
 78
     0
  0
ENDTAB
  0
TABLE
  2
LTYPE
  5
5
330
0
100
AcDbSymbolTable
 70
     2
  0
LTYPE
  5
14
330
5
100
AcDbSymbolTableRecord
100
AcDbLinetypeTableRecord
  2
BYBLOCK
 70
     0
  3

 72
    65
 73
     0
 40
0.0
  0
LTYPE
  5
15
330
5
100
AcDbSymbolTableRecord
100
AcDbLinetypeTableRecord
  2
BYLAYER
 70
     0
  3

 72
    65
 73
     0
 40
0.0
  0
LTYPE
  5
16
330
5
100
AcDbSymbolTableRecord
100
AcDbLinetypeTableRecord
  2
CONTINUOUS
 70
     0
  3
Solid line
 72
    65
 73
     0
 40
0.0
  0
LTYPE
  5
39
330
5
100
AcDbSymbolTableRecord
100
AcDbLinetypeTableRecord
  2
CENTER2
 70
     0
  3
___ _ ___ _ ___ _ ___ _ ___ _ ___ _ ___ _ ___ _
 72
    65
 73
     4
 40
1.125
 49
0.75
 74
     4
 75
     0
340
0
 46
0.0
 50
0.0
 44
0.0
 45
0.0
 49
-0.125
 74
     4
 75
     0
340
0
 46
0.0
 50
0.0
 44
0.0
 45
0.0
 49
0.125
 74
     4
 75
     0
340
0
 46
0.0
 50
0.0
 44
0.0
 45
0.0
 49
-0.125
 74
     4
 75
     0
340
0
 46
0.0
 50
0.0
 44
0.0
 45
0.0
  0
ENDTAB
  0
TABLE
  2
LAYER
  5
2
330
0
100
AcDbSymbolTable
 70
     5
  0
LAYER
  5
10
330
2
100
AcDbSymbolTableRecord
100
AcDbLayerTableRecord
  2
0
 70
     0
 62
     7
  6
CONTINUOUS
  0
LAYER
  5
30
330
2
100
AcDbSymbolTableRecord
100
AcDbLayerTableRecord
  2
MEGA_002223
 70
     0
 62
     7
  6
CONTINUOUS
  0
LAYER
  5
36
330
2
100
AcDbSymbolTableRecord
100
AcDbLayerTableRecord
  2
MEGA_002224
 70
     0
 62
     7
  6
CONTINUOUS
  0
LAYER
  5
38
330
2
100
AcDbSymbolTableRecord
100
AcDbLayerTableRecord
  2
STANDARD
 70
     0
 62
     7
  6
CONTINUOUS
  0
LAYER
  5
78
330
2
100
AcDbSymbolTableRecord
100
AcDbLayerTableRecord
  2
DEFAULT
 70
     0
 62
     7
  6
CONTINUOUS
  0
ENDTAB
  0
TABLE
  2
STYLE
  5
3
330
0
100
AcDbSymbolTable
 70
     3
  0
STYLE
  5
11
330
3
100
AcDbSymbolTableRecord
100
AcDbTextStyleTableRecord
  2
STANDARD
 70
     0
 40
0.0
 41
1.0
 50
0.0
 71
     0
 42
0.2
  3
txt
  4

  0
STYLE
  5
7D
330
3
100
AcDbSymbolTableRecord
100
AcDbTextStyleTableRecord
  2
SEACAD_SEISO_TTF
 70
     0
 40
0.2
 41
1.0
 50
0.0
 71
     0
 42
0.2
  3
seiso.ttf
  4

  0
STYLE
  5
93
330
3
100
AcDbSymbolTableRecord
100
AcDbTextStyleTableRecord
  2
SEACAD_SEMECI1_TTF
 70
     0
 40
0.2
 41
1.0
 50
0.0
 71
     0
 42
0.2
  3
semeci1.ttf
  4

  0
ENDTAB
  0
TABLE
  2
VIEW
  5
6
330
0
100
AcDbSymbolTable
 70
     0
  0
ENDTAB
  0
TABLE
  2
UCS
  5
7
330
0
100
AcDbSymbolTable
 70
     0
  0
ENDTAB
  0
TABLE
  2
APPID
  5
9
330
0
100
AcDbSymbolTable
 70
     1
  0
APPID
  5
12
330
9
100
AcDbSymbolTableRecord
100
AcDbRegAppTableRecord
  2
ACAD
 70
     0
  0
ENDTAB
  0
TABLE
  2
DIMSTYLE
  5
A
330
0
100
AcDbSymbolTable
 70
     1
  0
DIMSTYLE
105
27
330
A
100
AcDbSymbolTableRecord
100
AcDbDimStyleTableRecord
  2
STANDARD
 70
     0
  3

  4

  5

  6

  7

 40
1.0
 41
0.18
 42
0.0625
 43
0.38
 44
0.18
 45
0.0
 46
0.0
 47
0.0
 48
0.0
140
0.18
141
0.09
142
0.0
143
25.4
144
1.0
145
0.0
146
1.0
147
0.09
 71
     0
 72
     0
 73
     1
 74
     1
 75
     0
 76
     0
 77
     0
 78
     0
170
     0
171
     2
172
     0
173
     0
174
     0
175
     0
176
     0
177
     0
178
     0
270
     2
271
     4
272
     4
273
     2
274
     2
340
11
275
     0
280
     0
281
     0
282
     0
283
     1
284
     0
285
     0
286
     0
287
     3
288
     0
  0
ENDTAB
  0
TABLE
  2
BLOCK_RECORD
  5
1
330
0
100
AcDbSymbolTable
 70
    10
  0
BLOCK_RECORD
  5
1F
330
1
100
AcDbSymbolTableRecord
100
AcDbBlockTableRecord
  2
*MODEL_SPACE
  0
BLOCK_RECORD
  5
1B
330
1
100
AcDbSymbolTableRecord
100
AcDbBlockTableRecord
  2
*PAPER_SPACE
  0
BLOCK_RECORD
  5
2E
330
1
100
AcDbSymbolTableRecord
100
AcDbBlockTableRecord
  2
SE
  0
BLOCK_RECORD
  5
43
330
1
100
AcDbSymbolTableRecord
100
AcDbBlockTableRecord
  2
SE1
  0
BLOCK_RECORD
  5
76
330
1
100
AcDbSymbolTableRecord
100
AcDbBlockTableRecord
  2
SE2
  0
BLOCK_RECORD
  5
81
330
1
100
AcDbSymbolTableRecord
100
AcDbBlockTableRecord
  2
SE3
  0
BLOCK_RECORD
  5
8B
330
1
100
AcDbSymbolTableRecord
100
AcDbBlockTableRecord
  2
SE4
  0
BLOCK_RECORD
  5
97
330
1
100
AcDbSymbolTableRecord
100
AcDbBlockTableRecord
  2
SE5
  0
BLOCK_RECORD
  5
A1
330
1
100
AcDbSymbolTableRecord
100
AcDbBlockTableRecord
  2
SE6
  0
BLOCK_RECORD
  5
AB
330
1
100
AcDbSymbolTableRecord
100
AcDbBlockTableRecord
  2
SE7
  0
BLOCK_RECORD
  5
B5
330
1
100
AcDbSymbolTableRecord
100
AcDbBlockTableRecord
  2
SE8
  0
ENDTAB
  0
ENDSEC
  0
SECTION
  2
BLOCKS
  0
BLOCK
  5
20
330
1F
100
AcDbEntity
  8
0
100
AcDbBlockBegin
  2
*MODEL_SPACE
 70
     0
 71
     0
 10
0.0
 20
0.0
 30
0.0
  3
*MODEL_SPACE
  1

  0
ENDBLK
  5
21
330
1F
100
AcDbEntity
  8
0
100
AcDbBlockEnd
  0
BLOCK
  5
1C
330
1B
100
AcDbEntity
 67
     1
  8
0
100
AcDbBlockBegin
  2
*PAPER_SPACE
 70
     0
 71
     0
 10
0.0
 20
0.0
 30
0.0
  3
*PAPER_SPACE
  1

  0
ENDBLK
  5
1D
330
1B
100
AcDbEntity
 67
     1
  8
0
100
AcDbBlockEnd
  0
BLOCK
  5
41
330
2E
100
AcDbEntity
  8
0
100
AcDbBlockBegin
  2
SE
 70
     0
 71
     0
 10
0.0
 20
0.0
 30
0.0
  3
SE
  1

  0
LINE
  5
31
330
2E
100
AcDbEntity
  8
MEGA_002223
  6
CONTINUOUS
 62
     7
 48
25.4
100
AcDbLine
 10
28.7651107802
 20
138.413259957
 30
0.0
 11
28.7651107802
 21
133.6174262793
 31
0.0
  0
ARC
  5
32
330
2E
100
AcDbEntity
  8
MEGA_002223
  6
CONTINUOUS
 62
     7
 48
25.4
100
AcDbCircle
 10
39.7651107802
 20
133.6174262793
 30
0.0
 40
11.0
100
AcDbArc
 50
180.0
 51
360.0
  0
LINE
  5
33
330
2E
100
AcDbEntity
  8
MEGA_002223
  6
CONTINUOUS
 62
     7
 48
25.4
100
AcDbLine
 10
50.7651107802
 20
133.6174262793
 30
0.0
 11
50.7651107802
 21
138.413259957
 31
0.0
  0
LINE
  5
34
330
2E
100
AcDbEntity
  8
MEGA_002223
  6
CONTINUOUS
 62
     7
 48
25.4
100
AcDbLine
 10
50.7645015144
 20
138.4129940604
 30
0.0
 11
50.7645015144
 21
133.6174262793
 31
0.0
  0
LINE
  5
35
330
2E
100
AcDbEntity
  8
MEGA_002223
  6
CONTINUOUS
 62
     7
 48
25.4
100
AcDbLine
 10
28.765720046
 20
133.6174262793
 30
0.0
 11
28.765720046
 21
138.4129940604
 31
0.0
  0
CIRCLE
  5
37
330
2E
100
AcDbEntity
  8
MEGA_002224
  6
CONTINUOUS
 62
     7
 48
25.4
100
AcDbCircle
 10
39.7651107802
 20
163.6174262793
 30
0.0
 40
27.49999999999999
  0
LINE
  5
3A
330
2E
100
AcDbEntity
  8
STANDARD
  6
CENTER2
 62
     7
 48
25.4
100
AcDbLine
 10
12.510090955
 20
163.6174262793
 30
0.0
 11
67.2651107802
 21
163.6174262793
 31
0.0
  0
LINE
  5
3B
330
2E
100
AcDbEntity
  8
STANDARD
  6
CENTER2
 62
     7
 48
25.4
100
AcDbLine
 10
39.7651107802
 20
122.6174262793
 30
0.0
 11
39.7651107802
 21
191.1174262793
 31
0.0
  0
LINE
  5
3C
330
2E
100
AcDbEntity
  8
STANDARD
  6
CENTER2
 62
     7
 48
25.4
100
AcDbLine
 10
28.7651107802
 20
133.6174262793
 30
0.0
 11
50.7651107802
 21
133.6174262793
 31
0.0
  0
LINE
  5
3D
330
2E
100
AcDbEntity
  8
STANDARD
  6
CENTER2
 62
     7
 48
25.4
100
AcDbLine
 10
28.7651107802
 20
133.6174262793
 30
0.0
 11
24.75849771
 21
133.6174262793
 31
0.0
  0
LINE
  5
3E
330
2E
100
AcDbEntity
  8
STANDARD
  6
CENTER2
 62
     7
 48
25.4
100
AcDbLine
 10
50.7651107802
 20
133.6174262793
 30
0.0
 11
54.6580373878
 21
133.6174262793
 31
0.0
  0
LINE
  5
3F
330
2E
100
AcDbEntity
  8
STANDARD
  6
CENTER2
 62
     7
 48
25.4
100
AcDbLine
 10
39.7651107802
 20
191.1174262793
 30
0.0
 11
39.7651107802
 21
195.0660777308
 31
0.0
  0
LINE
  5
40
330
2E
100
AcDbEntity
  8
STANDARD
  6
CENTER2
 62
     7
 48
25.4
100
AcDbLine
 10
39.7651107802
 20
122.6174262793
 30
0.0
 11
39.7651107802
 21
118.3277154398
 31
0.0
  0
ENDBLK
  5
42
330
2E
100
AcDbEntity
  8
0
100
AcDbBlockEnd
  0
BLOCK
  5
74
330
43
100
AcDbEntity
  8
0
100
AcDbBlockBegin
  2
SE1
 70
     0
 71
     0
 10
0.0
 20
0.0
 30
0.0
  3
SE1
  1

  0
LINE
  5
45
330
43
100
AcDbEntity
  8
MEGA_002223
  6
CONTINUOUS
 62
     7
 48
25.4
100
AcDbLine
 10
119.6730155191
 20
142.6174262793
 30
0.0
 11
119.1730155191
 21
142.1174262793
 31
0.0
  0
LINE
  5
46
330
43
100
AcDbEntity
  8
MEGA_002223
  6
CONTINUOUS
 62
     7
 48
25.4
100
AcDbLine
 10
119.6730155191
 20
135.6174262793
 30
0.0
 11
119.1730155191
 21
135.1174262793
 31
0.0
  0
LINE
  5
47
330
43
100
AcDbEntity
  8
MEGA_002223
  6
CONTINUOUS
 62
     7
 48
25.4
100
AcDbLine
 10
119.6730155191
 20
131.6174262793
 30
0.0
 11
119.1730155191
 21
132.1174262793
 31
0.0
  0
LINE
  5
48
330
43
100
AcDbEntity
  8
MEGA_002223
  6
CONTINUOUS
 62
     7
 48
25.4
100
AcDbLine
 10
119.6730155191
 20
131.6174262793
 30
0.0
 11
127.1730155191
 21
131.6174262793
 31
0.0
  0
LINE
  5
49
330
43
100
AcDbEntity
  8
MEGA_002223
  6
CONTINUOUS
 62
     7
 48
25.4
100
AcDbLine
 10
119.6730155191
 20
135.6174262793
 30
0.0
 11
127.1730155191
 21
135.6174262793
 31
0.0
  0
LINE
  5
4A
330
43
100
AcDbEntity
  8
MEGA_002223
  6
CONTINUOUS
 62
     7
 48
25.4
100
AcDbLine
 10
119.6730155191
 20
135.6174262793
 30
0.0
 11
119.6730155191
 21
131.6174262793
 31
0.0
  0
LINE
  5
4B
330
43
100
AcDbEntity
  8
MEGA_002223
  6
CONTINUOUS
 62
     7
 48
25.4
100
AcDbLine
 10
174.1730155191
 20
164.1112293964
 30
0.0
 11
145.1730155191
 21
164.6174262793
 31
0.0
  0
LINE
  5
4C
330
43
100
AcDbEntity
  8
MEGA_002223
  6
CONTINUOUS
 62
     7
 48
25.4
100
AcDbLine
 10
147.1730155191
 20
142.6523364091
 30
0.0
 11
174.1730155191
 21
143.1236231622
 31
0.0
  0
LINE
  5
4D
330
43
100
AcDbEntity
  8
MEGA_002223
  6
CONTINUOUS
 62
     7
 48
25.4
100
AcDbLine
 10
127.1730155191
 20
144.3032351106
 30
0.0
 11
127.1730155191
 21
122.931617448
 31
0.0
  0
LINE
  5
4E
330
43
100
AcDbEntity
  8
MEGA_002223
  6
CONTINUOUS
 62
     7
 48
25.4
100
AcDbLine
 10
127.1730155191
 20
122.931617448
 30
0.0
 11
145.1730155191
 21
122.6174262793
 31
0.0
  0
LINE
  5
4F
330
43
100
AcDbEntity
  8
MEGA_002223
  6
CONTINUOUS
 62
     7
 48
25.4
100
AcDbLine
 10
145.1730155191
 20
153.6174262793
 30
0.0
 11
145.1730155191
 21
153.5856874724
 31
0.0
  0
LINE
  5
50
330
43
100
AcDbEntity
  8
MEGA_002223
  6
CONTINUOUS
 62
     7
 48
25.4
100
AcDbLine
 10
145.207920332
 20
153.5856874724
 30
0.0
 11
145.1730155191
 21
153.5856874724
 31
0.0
  0
LINE
  5
51
330
43
100
AcDbEntity
  8
MEGA_002223
  6
CONTINUOUS
 62
     7
 48
25.4
100
AcDbLine
 10
119.1730155191
 20
125.1174262793
 30
0.0
 11
119.1730155191
 21
132.1174262793
 31
0.0
  0
LINE
  5
52
330
43
100
AcDbEntity
  8
MEGA_002223
  6
CONTINUOUS
 62
     7
 48
25.4
100
AcDbLine
 10
119.1730155191
 20
132.1174262793
 30
0.0
 11
119.1730155191
 21
135.1174262793
 31
0.0
  0
LINE
  5
53
330
43
100
AcDbEntity
  8
MEGA_002223
  6
CONTINUOUS
 62
     7
 48
25.4
100
AcDbLine
 10
137.1730155191
 20
144.4777857598
 30
0.0
 11
127.1730155191
 21
144.3032351106
 31
0.0
  0
LINE
  5
54
330
43
100
AcDbEntity
  8
MEGA_002223
  6
CONTINUOUS
 62
     7
 48
25.4
100
AcDbLine
 10
145.1730155191
 20
164.6174262793
 30
0.0
 11
139.1381107062
 21
164.5120866239
 31
0.0
  0
LINE
  5
55
330
43
100
AcDbEntity
  8
MEGA_002223
  6
CONTINUOUS
 62
     7
 48
25.4
100
AcDbLine
 10
119.1730155191
 20
135.1174262793
 30
0.0
 11
119.1730155191
 21
142.1174262793
 31
0.0
  0
LINE
  5
56
330
43
100
AcDbEntity
  8
MEGA_002223
  6
CONTINUOUS
 62
     7
 48
25.4
100
AcDbLine
 10
119.6730155191
 20
124.6174262793
 30
0.0
 11
127.1730155191
 21
124.6174262793
 31
0.0
  0
LINE
  5
57
330
43
100
AcDbEntity
  8
MEGA_002223
  6
CONTINUOUS
 62
     7
 48
25.4
100
AcDbLine
 10
119.6730155191
 20
131.6174262793
 30
0.0
 11
119.6730155191
 21
124.6174262793
 31
0.0
  0
LINE
  5
58
330
43
100
AcDbEntity
  8
MEGA_002223
  6
CONTINUOUS
 62
     7
 48
25.4
100
AcDbLine
 10
119.6730155191
 20
142.6174262793
 30
0.0
 11
119.6730155191
 21
135.6174262793
 31
0.0
  0
LINE
  5
59
330
43
100
AcDbEntity
  8
MEGA_002223
  6
CONTINUOUS
 62
     7
 48
25.4
100
AcDbLine
 10
137.1730155191
 20
162.5123912336
 30
0.0
 11
137.1730155191
 21
153.6174262793
 31
0.0
  0
LINE
  5
5A
330
43
100
AcDbEntity
  8
MEGA_002223
  6
CONTINUOUS
 62
     7
 48
25.4
100
AcDbLine
 10
127.1730155191
 20
142.6174262793
 30
0.0
 11
119.6730155191
 21
142.6174262793
 31
0.0
  0
LINE
  5
5B
330
43
100
AcDbEntity
  8
MEGA_002223
  6
CONTINUOUS
 62
     7
 48
25.4
100
AcDbLine
 10
137.1730155191
 20
139.8485583199
 30
0.0
 11
137.1730155191
 21
153.6174262793
 31
0.0
  0
SPLINE
  5
5C
330
43
100
AcDbEntity
  8
MEGA_002223
  6
CONTINUOUS
 62
     7
 48
25.4
100
AcDbSpline
210
0.0
220
0.0
230
1.0
 70
     8
 71
     3
 72
    23
 73
    19
 74
     0
 42
0.0000000001
 43
0.0000000001
 40
0.0
 40
0.0
 40
0.0
 40
0.0
 40
0.125
 40
0.125
 40
0.125
 40
0.25
 40
0.25
 40
0.25
 40
0.5
 40
0.5
 40
0.5
 40
0.625
 40
0.625
 40
0.625
 40
0.75
 40
0.75
 40
0.75
 40
1.0
 40
1.0
 40
1.0
 40
1.0
 10
139.1381107062033
 20
133.6174262792698
 30
0.0
 10
139.0238901892509
 20
133.8840710589449
 30
0.0
 10
138.9086726142998
 20
134.1533694322228
 30
0.0
 10
138.7953908999366
 20
134.4209304008515
 30
0.0
 10
138.6821091855735
 20
134.6884913694802
 30
0.0
 10
138.5698448027954
 20
134.956470518213
 30
0.0
 10
138.4604711969395
 20
135.2230924279154
 30
0.0
 10
138.2417239852277
 20
135.7563362473201
 30
0.0
 10
138.0348788520251
 20
136.2824711539715
 30
0.0
 10
137.8497136855532
 20
136.804372819
 30
0.0
 10
137.7571311023172
 20
137.0653236515142
 30
0.0
 10
137.6700241137495
 20
137.3252165860393
 30
0.0
 10
137.5903253239373
 20
137.5845078554509
 30
0.0
 10
137.5106265341251
 20
137.8437991248626
 30
0.0
 10
137.437991279185
 20
138.1038642300883
 30
0.0
 10
137.3766147836071
 20
138.3598780049986
 30
0.0
 10
137.2538617924511
 20
138.8719055548192
 30
0.0
 10
137.1730155190778
 20
139.3672235136212
 30
0.0
 10
137.1730155190778
 20
139.8485583199435
 30
0.0
  0
ARC
  5
5D
330
43
100
AcDbEntity
  8
MEGA_002223
  6
CONTINUOUS
 62
     7
 48
25.4
100
AcDbCircle
 10
145.1730155191
 20
124.6177309354
 30
0.0
 40
2.0
100
AcDbArc
 50
271.0
 51
360.0
  0
ARC
  5
5E
330
43
100
AcDbEntity
  8
MEGA_002223
  6
CONTINUOUS
 62
     7
 48
25.4
100
AcDbCircle
 10
139.1730155191
 20
162.5123912336
 30
0.0
 40
2.0
100
AcDbArc
 50
91.0
 51
180.0
  0
LINE
  5
5F
330
43
100
AcDbEntity
  8
MEGA_002223
  6
CONTINUOUS
 62
     7
 48
25.4
100
AcDbLine
 10
147.1730155191
 20
124.6177309354
 30
0.0
 11
147.1730155191
 21
133.6174262793
 31
0.0
  0
LINE
  5
60
330
43
100
AcDbEntity
  8
MEGA_002223
  6
CONTINUOUS
 62
     7
 48
25.4
100
AcDbLine
 10
147.1730155191
 20
147.3533477695
 30
0.0
 11
147.1730155191
 21
133.6174262793
 31
0.0
  0
LINE
  5
61
330
43
100
AcDbEntity
  8
MEGA_002223
  6
CONTINUOUS
 62
     7
 48
25.4
100
AcDbLine
 10
145.207920332
 20
153.5856874724
 30
0.0
 11
145.2214503705
 21
153.5856874724
 31
0.0
  0
SPLINE
  5
62
330
43
100
AcDbEntity
  8
MEGA_002223
  6
CONTINUOUS
 62
     7
 48
25.4
100
AcDbSpline
210
0.0
220
0.0
230
1.0
 70
     8
 71
     3
 72
    20
 73
    16
 74
     0
 42
0.0000000001
 43
0.0000000001
 40
0.0
 40
0.0
 40
0.0
 40
0.0
 40
0.25
 40
0.25
 40
0.25
 40
0.5
 40
0.5
 40
0.5
 40
0.625
 40
0.625
 40
0.625
 40
0.75
 40
0.75
 40
0.75
 40
1.0
 40
1.0
 40
1.0
 40
1.0
 10
145.2214503705207
 20
153.5856874724356
 30
0.0
 10
145.450912166512
 20
153.0473842184095
 30
0.0
 10
145.6771553759134
 20
152.5150324797181
 30
0.0
 10
145.8930165496431
 20
151.9857352286708
 30
0.0
 10
146.1088777233728
 20
151.4564379776235
 30
0.0
 10
146.3146517974995
 20
150.9302953940193
 30
0.0
 10
146.5001173365201
 20
150.4040498299691
 30
0.0
 10
146.5928501060304
 20
150.140927047944
 30
0.0
 10
146.6808449717074
 20
149.8763669516824
 30
0.0
 10
146.7603937685587
 20
149.615234088263
 30
0.0
 10
146.83994256541
 20
149.3541012248436
 30
0.0
 10
146.9110947371952
 20
149.0965529854219
 30
0.0
 10
146.9714798543003
 20
148.8422966083885
 30
0.0
 10
147.0922500885105
 20
148.3337838543216
 30
0.0
 10
147.1730155190779
 20
147.838682789707
 30
0.0
 10
147.1730155190779
 20
147.3533477694576
 30
0.0
  0
LINE
  5
63
330
43
100
AcDbEntity
  8
MEGA_002223
  6
CONTINUOUS
 62
     7
 48
25.4
100
AcDbLine
 10
119.1730155191
 20
125.1174262793
 30
0.0
 11
119.6730155191
 21
124.6174262793
 31
0.0
  0
ARC
  5
64
330
43
100
AcDbEntity
  8
MEGA_002224
  6
CONTINUOUS
 62
     7
 48
25.4
100
AcDbCircle
 10
190.1730155191
 20
138.3621018444
 30
0.0
 40
2.0
100
AcDbArc
 50
271.0
 51
360.0
  0
LINE
  5
65
330
43
100
AcDbEntity
  8
MEGA_002224
  6
CONTINUOUS
 62
     7
 48
25.4
100
AcDbLine
 10
176.1730155191
 20
136.1174262793
 30
0.0
 11
190.207920332
 21
136.362406454
 31
0.0
  0
ARC
  5
66
330
43
100
AcDbEntity
  8
MEGA_002224
  6
CONTINUOUS
 62
     7
 48
25.4
100
AcDbCircle
 10
176.1730155191
 20
138.1174262793
 30
0.0
 40
2.0
100
AcDbArc
 50
180.0
 51
270.0
  0
ARC
  5
67
330
43
100
AcDbEntity
  8
MEGA_002224
  6
CONTINUOUS
 62
     7
 48
25.4
100
AcDbCircle
 10
190.1730155191
 20
188.8727507142
 30
0.0
 40
2.0
100
AcDbArc
 50
0.0
 51
89.0
  0
LINE
  5
68
330
43
100
AcDbEntity
  8
MEGA_002224
  6
CONTINUOUS
 62
     7
 48
25.4
100
AcDbLine
 10
190.207920332
 20
190.8724461045
 30
0.0
 11
176.1730155191
 21
191.1174262793
 31
0.0
  0
ARC
  5
69
330
43
100
AcDbEntity
  8
MEGA_002224
  6
CONTINUOUS
 62
     7
 48
25.4
100
AcDbCircle
 10
176.1730155191
 20
189.1174262793
 30
0.0
 40
2.0
100
AcDbArc
 50
90.0
 51
180.0
  0
LINE
  5
6A
330
43
100
AcDbEntity
  8
MEGA_002224
  6
CONTINUOUS
 62
     7
 48
25.4
100
AcDbLine
 10
192.1730155191
 20
138.3621018444
 30
0.0
 11
192.1730155191
 21
188.8727507142
 31
0.0
  0
LINE
  5
6B
330
43
100
AcDbEntity
  8
MEGA_002224
  6
CONTINUOUS
 62
     7
 48
25.4
100
AcDbLine
 10
174.1730155191
 20
138.1174262793
 30
0.0
 11
174.1730155191
 21
189.1174262793
 31
0.0
  0
LINE
  5
6C
330
43
100
AcDbEntity
  8
STANDARD
  6
CENTER2
 62
     7
 48
25.4
100
AcDbLine
 10
137.1730155191
 20
153.6174262793
 30
0.0
 11
181.1927601829
 21
153.6174262793
 31
0.0
  0
LINE
  5
6D
330
43
100
AcDbEntity
  8
STANDARD
  6
CENTER2
 62
     7
 48
25.4
100
AcDbLine
 10
192.1730155191
 20
163.6174262793
 30
0.0
 11
174.1730155191
 21
163.6174262793
 31
0.0
  0
LINE
  5
6E
330
43
100
AcDbEntity
  8
STANDARD
  6
CENTER2
 62
     7
 48
25.4
100
AcDbLine
 10
119.1730155191
 20
133.6174262793
 30
0.0
 11
147.1730155191
 21
133.6174262793
 31
0.0
  0
LINE
  5
6F
330
43
100
AcDbEntity
  8
STANDARD
  6
CENTER2
 62
     7
 48
25.4
100
AcDbLine
 10
147.1730155191
 20
133.6174262793
 30
0.0
 11
152.1487351768
 21
133.6174262793
 31
0.0
  0
LINE
  5
70
330
43
100
AcDbEntity
  8
STANDARD
  6
CENTER2
 62
     7
 48
25.4
100
AcDbLine
 10
119.1730155191
 20
133.6174262793
 30
0.0
 11
114.9732618892
 21
133.6174262793
 31
0.0
  0
LINE
  5
71
330
43
100
AcDbEntity
  8
STANDARD
  6
CENTER2
 62
     7
 48
25.4
100
AcDbLine
 10
137.1730155191
 20
153.6174262793
 30
0.0
 11
132.7083500631
 21
153.6174262793
 31
0.0
  0
LINE
  5
72
330
43
100
AcDbEntity
  8
STANDARD
  6
CENTER2
 62
     7
 48
25.4
100
AcDbLine
 10
174.1730155191
 20
163.6174262793
 30
0.0
 11
164.7679325313
 21
163.6174262793
 31
0.0
  0
LINE
  5
73
330
43
100
AcDbEntity
  8
STANDARD
  6
CENTER2
 62
     7
 48
25.4
100
AcDbLine
 10
192.1730155191
 20
163.6174262793
 30
0.0
 11
198.1917525514
 21
163.6174262793
 31
0.0
  0
ENDBLK
  5
75
330
43
100
AcDbEntity
  8
0
100
AcDbBlockEnd
  0
BLOCK
  5
7F
330
76
100
AcDbEntity
  8
0
100
AcDbBlockBegin
  2
SE2
 70
     0
 71
     0
 10
0.0
 20
0.0
 30
0.0
  3
SE2
  1

  0
POLYLINE
  5
79
330
76
100
AcDbEntity
  8
DEFAULT
  6
CONTINUOUS
 62
     7
 48
25.4
100
AcDb2dPolyline
 66
     1
 10
0.0
 20
0.0
 30
0.0
 70
     1
  0
VERTEX
  5
C0
330
79
100
AcDbEntity
  8
DEFAULT
  6
CONTINUOUS
 62
     7
100
AcDbVertex
100
AcDb2dVertex
 10
64.2651107541
 20
98.4493967282
 30
0.0
  0
VERTEX
  5
C1
330
79
100
AcDbEntity
  8
DEFAULT
  6
CONTINUOUS
 62
     7
100
AcDbVertex
100
AcDb2dVertex
 10
67.2651107802
 20
98.9493967325
 30
0.0
  0
VERTEX
  5
C2
330
79
100
AcDbEntity
  8
DEFAULT
  6
CONTINUOUS
 62
     7
100
AcDbVertex
100
AcDb2dVertex
 10
64.2651107541
 20
99.4493967369
 30
0.0
  0
VERTEX
  5
C3
330
79
100
AcDbEntity
  8
DEFAULT
  6
CONTINUOUS
 62
     7
100
AcDbVertex
100
AcDb2dVertex
 10
64.2651107541
 20
98.4493967282
 30
0.0
  0
SEQEND
  5
BF
330
79
100
AcDbEntity
  8
DEFAULT
  6
CONTINUOUS
 62
     7
 48
25.4
  0
LINE
  5
7A
330
76
100
AcDbEntity
  8
DEFAULT
  6
CONTINUOUS
 62
     7
 48
25.4
100
AcDbLine
 10
12.2651107802
 20
163.6174262793
 30
0.0
 11
12.2651107802
 21
97.4493967195
 31
0.0
  0
LINE
  5
7B
330
76
100
AcDbEntity
  8
DEFAULT
  6
CONTINUOUS
 62
     7
 48
25.4
100
AcDbLine
 10
67.2651107802
 20
163.6174262793
 30
0.0
 11
67.2651107802
 21
97.4493967195
 31
0.0
  0
LINE
  5
7C
330
76
100
AcDbEntity
  8
DEFAULT
  6
CONTINUOUS
 62
     7
 48
25.4
100
AcDbLine
 10
12.2651107802
 20
98.9493967325
 30
0.0
 11
67.2651104822
 21
98.9493967325
 31
0.0
  0
TEXT
  5
7E
330
76
100
AcDbEntity
  8
DEFAULT
  6
CONTINUOUS
 62
     7
 48
25.4
100
AcDbText
 10
38.0605651767
 20
99.6993967325
 30
0.0
 40
3.0
  1
55
  7
SEACAD_SEISO_TTF
 11
38.0605651767
 21
102.6993967325
 31
0.0
100
AcDbText
 73
     3
  0
ENDBLK
  5
80
330
76
100
AcDbEntity
  8
0
100
AcDbBlockEnd
  0
BLOCK
  5
89
330
81
100
AcDbEntity
  8
0
100
AcDbBlockBegin
  2
SE3
 70
     0
 71
     0
 10
0.0
 20
0.0
 30
0.0
  3
SE3
  1

  0
POLYLINE
  5
83
330
81
100
AcDbEntity
  8
DEFAULT
  6
CONTINUOUS
 62
     7
 48
25.4
100
AcDb2dPolyline
 66
     1
 10
0.0
 20
0.0
 30
0.0
 70
     1
  0
VERTEX
  5
C5
330
83
100
AcDbEntity
  8
DEFAULT
  6
CONTINUOUS
 62
     7
100
AcDbVertex
100
AcDb2dVertex
 10
87.8778338073
 20
136.6174263053
 30
0.0
  0
VERTEX
  5
C6
330
83
100
AcDbEntity
  8
DEFAULT
  6
CONTINUOUS
 62
     7
100
AcDbVertex
100
AcDb2dVertex
 10
87.3778338029
 20
133.6174262793
 30
0.0
  0
VERTEX
  5
C7
330
83
100
AcDbEntity
  8
DEFAULT
  6
CONTINUOUS
 62
     7
100
AcDbVertex
100
AcDb2dVertex
 10
86.8778337986
 20
136.6174263053
 30
0.0
  0
VERTEX
  5
C8
330
83
100
AcDbEntity
  8
DEFAULT
  6
CONTINUOUS
 62
     7
100
AcDbVertex
100
AcDb2dVertex
 10
87.8778338073
 20
136.6174263053
 30
0.0
  0
SEQEND
  5
C4
330
83
100
AcDbEntity
  8
DEFAULT
  6
CONTINUOUS
 62
     7
 48
25.4
  0
POLYLINE
  5
84
330
81
100
AcDbEntity
  8
DEFAULT
  6
CONTINUOUS
 62
     7
 48
25.4
100
AcDb2dPolyline
 66
     1
 10
0.0
 20
0.0
 30
0.0
 70
     1
  0
VERTEX
  5
CA
330
84
100
AcDbEntity
  8
DEFAULT
  6
CONTINUOUS
 62
     7
100
AcDbVertex
100
AcDb2dVertex
 10
87.8778338073
 20
160.6174262532
 30
0.0
  0
VERTEX
  5
CB
330
84
100
AcDbEntity
  8
DEFAULT
  6
CONTINUOUS
 62
     7
100
AcDbVertex
100
AcDb2dVertex
 10
87.3778338029
 20
163.6174262793
 30
0.0
  0
VERTEX
  5
CC
330
84
100
AcDbEntity
  8
DEFAULT
  6
CONTINUOUS
 62
     7
100
AcDbVertex
100
AcDb2dVertex
 10
86.8778337986
 20
160.6174262532
 30
0.0
  0
VERTEX
  5
CD
330
84
100
AcDbEntity
  8
DEFAULT
  6
CONTINUOUS
 62
     7
100
AcDbVertex
100
AcDb2dVertex
 10
87.8778338073
 20
160.6174262532
 30
0.0
  0
SEQEND
  5
C9
330
84
100
AcDbEntity
  8
DEFAULT
  6
CONTINUOUS
 62
     7
 48
25.4
  0
LINE
  5
85
330
81
100
AcDbEntity
  8
DEFAULT
  6
CONTINUOUS
 62
     7
 48
25.4
100
AcDbLine
 10
50.7651107802
 20
133.6174262793
 30
0.0
 11
88.8778338159
 21
133.6174262793
 31
0.0
  0
LINE
  5
86
330
81
100
AcDbEntity
  8
DEFAULT
  6
CONTINUOUS
 62
     7
 48
25.4
100
AcDbLine
 10
67.2651107802
 20
163.6174262793
 30
0.0
 11
88.8778338159
 21
163.6174262793
 31
0.0
  0
LINE
  5
87
330
81
100
AcDbEntity
  8
DEFAULT
  6
CONTINUOUS
 62
     7
 48
25.4
100
AcDbLine
 10
87.3778338029
 20
133.6174262793
 30
0.0
 11
87.3778338029
 21
163.6174256087
 31
0.0
  0
TEXT
  5
88
330
81
100
AcDbEntity
  8
DEFAULT
  6
CONTINUOUS
 62
     7
 48
25.4
100
AcDbText
 10
86.6278338029
 20
146.9469713985
 30
0.0
 40
3.0
  1
30
 50
90.0
  7
SEACAD_SEISO_TTF
 11
83.6278338029
 21
146.9469713985
 31
0.0
100
AcDbText
 73
     3
  0
ENDBLK
  5
8A
330
81
100
AcDbEntity
  8
0
100
AcDbBlockEnd
  0
BLOCK
  5
95
330
8B
100
AcDbEntity
  8
0
100
AcDbBlockBegin
  2
SE4
 70
     0
 71
     0
 10
0.0
 20
0.0
 30
0.0
  3
SE4
  1

  0
POLYLINE
  5
8D
330
8B
100
AcDbEntity
  8
DEFAULT
  6
CONTINUOUS
 62
     7
 48
25.4
100
AcDb2dPolyline
 66
     1
 10
0.0
 20
0.0
 30
0.0
 70
     1
  0
VERTEX
  5
CF
330
8D
100
AcDbEntity
  8
DEFAULT
  6
CONTINUOUS
 62
     7
100
AcDbVertex
100
AcDb2dVertex
 10
105.3014294155
 20
139.6174262532
 30
0.0
  0
VERTEX
  5
D0
330
8D
100
AcDbEntity
  8
DEFAULT
  6
CONTINUOUS
 62
     7
100
AcDbVertex
100
AcDb2dVertex
 10
105.8014294198
 20
142.6174262793
 30
0.0
  0
VERTEX
  5
D1
330
8D
100
AcDbEntity
  8
DEFAULT
  6
CONTINUOUS
 62
     7
100
AcDbVertex
100
AcDb2dVertex
 10
106.3014294242
 20
139.6174262532
 30
0.0
  0
VERTEX
  5
D2
330
8D
100
AcDbEntity
  8
DEFAULT
  6
CONTINUOUS
 62
     7
100
AcDbVertex
100
AcDb2dVertex
 10
105.3014294155
 20
139.6174262532
 30
0.0
  0
SEQEND
  5
CE
330
8D
100
AcDbEntity
  8
DEFAULT
  6
CONTINUOUS
 62
     7
 48
25.4
  0
POLYLINE
  5
8E
330
8B
100
AcDbEntity
  8
DEFAULT
  6
CONTINUOUS
 62
     7
 48
25.4
100
AcDb2dPolyline
 66
     1
 10
0.0
 20
0.0
 30
0.0
 70
     1
  0
VERTEX
  5
D4
330
8E
100
AcDbEntity
  8
DEFAULT
  6
CONTINUOUS
 62
     7
100
AcDbVertex
100
AcDb2dVertex
 10
105.3014294155
 20
127.6174263053
 30
0.0
  0
VERTEX
  5
D5
330
8E
100
AcDbEntity
  8
DEFAULT
  6
CONTINUOUS
 62
     7
100
AcDbVertex
100
AcDb2dVertex
 10
105.8014294198
 20
124.6174262793
 30
0.0
  0
VERTEX
  5
D6
330
8E
100
AcDbEntity
  8
DEFAULT
  6
CONTINUOUS
 62
     7
100
AcDbVertex
100
AcDb2dVertex
 10
106.3014294242
 20
127.6174263053
 30
0.0
  0
VERTEX
  5
D7
330
8E
100
AcDbEntity
  8
DEFAULT
  6
CONTINUOUS
 62
     7
100
AcDbVertex
100
AcDb2dVertex
 10
105.3014294155
 20
127.6174263053
 30
0.0
  0
SEQEND
  5
D3
330
8E
100
AcDbEntity
  8
DEFAULT
  6
CONTINUOUS
 62
     7
 48
25.4
  0
LINE
  5
8F
330
8B
100
AcDbEntity
  8
DEFAULT
  6
CONTINUOUS
 62
     7
 48
25.4
100
AcDbLine
 10
123.4230155191
 20
142.6174262793
 30
0.0
 11
104.3014294068
 21
142.6174262793
 31
0.0
  0
LINE
  5
90
330
8B
100
AcDbEntity
  8
DEFAULT
  6
CONTINUOUS
 62
     7
 48
25.4
100
AcDbLine
 10
123.4230155191
 20
124.6174262793
 30
0.0
 11
104.3014294068
 21
124.6174262793
 31
0.0
  0
LINE
  5
91
330
8B
100
AcDbEntity
  8
DEFAULT
  6
CONTINUOUS
 62
     7
 48
25.4
100
AcDbLine
 10
105.8014294198
 20
142.6174262793
 30
0.0
 11
105.8014294198
 21
124.6174270541
 31
0.0
  0
TEXT
  5
92
330
8B
100
AcDbEntity
  8
DEFAULT
  6
CONTINUOUS
 62
     7
 48
25.4
100
AcDbText
 10
105.0514294198
 20
133.8695505254
 30
0.0
 40
3.0
  1
18
 50
90.0
  7
SEACAD_SEISO_TTF
 11
102.0514294198
 21
133.8695505254
 31
0.0
100
AcDbText
 73
     3
  0
TEXT
  5
94
330
8B
100
AcDbEntity
  8
DEFAULT
  6
CONTINUOUS
 62
     7
 48
25.4
100
AcDbText
 10
105.0514294198
 20
130.2289391717
 30
0.0
 40
3.0
  1
O
 50
90.0
  7
SEACAD_SEMECI1_TTF
 11
102.0514294198
 21
130.2289391717
 31
0.0
100
AcDbText
 73
     3
  0
ENDBLK
  5
96
330
8B
100
AcDbEntity
  8
0
100
AcDbBlockEnd
  0
BLOCK
  5
9F
330
97
100
AcDbEntity
  8
0
100
AcDbBlockBegin
  2
SE5
 70
     0
 71
     0
 10
0.0
 20
0.0
 30
0.0
  3
SE5
  1

  0
POLYLINE
  5
99
330
97
100
AcDbEntity
  8
DEFAULT
  6
CONTINUOUS
 62
     7
 48
25.4
100
AcDb2dPolyline
 66
     1
 10
0.0
 20
0.0
 30
0.0
 70
     1
  0
VERTEX
  5
D9
330
99
100
AcDbEntity
  8
DEFAULT
  6
CONTINUOUS
 62
     7
100
AcDbVertex
100
AcDb2dVertex
 10
171.173015493
 20
109.3984658854
 30
0.0
  0
VERTEX
  5
DA
330
99
100
AcDbEntity
  8
DEFAULT
  6
CONTINUOUS
 62
     7
100
AcDbVertex
100
AcDb2dVertex
 10
174.1730155191
 20
109.8984658898
 30
0.0
  0
VERTEX
  5
DB
330
99
100
AcDbEntity
  8
DEFAULT
  6
CONTINUOUS
 62
     7
100
AcDbVertex
100
AcDb2dVertex
 10
171.173015493
 20
110.3984658941
 30
0.0
  0
VERTEX
  5
DC
330
99
100
AcDbEntity
  8
DEFAULT
  6
CONTINUOUS
 62
     7
100
AcDbVertex
100
AcDb2dVertex
 10
171.173015493
 20
109.3984658854
 30
0.0
  0
SEQEND
  5
D8
330
99
100
AcDbEntity
  8
DEFAULT
  6
CONTINUOUS
 62
     7
 48
25.4
  0
POLYLINE
  5
9A
330
97
100
AcDbEntity
  8
DEFAULT
  6
CONTINUOUS
 62
     7
 48
25.4
100
AcDb2dPolyline
 66
     1
 10
0.0
 20
0.0
 30
0.0
 70
     1
  0
VERTEX
  5
DE
330
9A
100
AcDbEntity
  8
DEFAULT
  6
CONTINUOUS
 62
     7
100
AcDbVertex
100
AcDb2dVertex
 10
130.1730155452
 20
109.3984658854
 30
0.0
  0
VERTEX
  5
DF
330
9A
100
AcDbEntity
  8
DEFAULT
  6
CONTINUOUS
 62
     7
100
AcDbVertex
100
AcDb2dVertex
 10
127.1730155191
 20
109.8984658898
 30
0.0
  0
VERTEX
  5
E0
330
9A
100
AcDbEntity
  8
DEFAULT
  6
CONTINUOUS
 62
     7
100
AcDbVertex
100
AcDb2dVertex
 10
130.1730155452
 20
110.3984658941
 30
0.0
  0
VERTEX
  5
E1
330
9A
100
AcDbEntity
  8
DEFAULT
  6
CONTINUOUS
 62
     7
100
AcDbVertex
100
AcDb2dVertex
 10
130.1730155452
 20
109.3984658854
 30
0.0
  0
SEQEND
  5
DD
330
9A
100
AcDbEntity
  8
DEFAULT
  6
CONTINUOUS
 62
     7
 48
25.4
  0
LINE
  5
9B
330
97
100
AcDbEntity
  8
DEFAULT
  6
CONTINUOUS
 62
     7
 48
25.4
100
AcDbLine
 10
174.1730155191
 20
138.1174262793
 30
0.0
 11
174.1730155191
 21
108.3984658767
 31
0.0
  0
LINE
  5
9C
330
97
100
AcDbEntity
  8
DEFAULT
  6
CONTINUOUS
 62
     7
 48
25.4
100
AcDbLine
 10
127.1730155191
 20
122.931617448
 30
0.0
 11
127.1730155191
 21
108.3984658767
 31
0.0
  0
LINE
  5
9D
330
97
100
AcDbEntity
  8
DEFAULT
  6
CONTINUOUS
 62
     7
 48
25.4
100
AcDbLine
 10
174.1730155191
 20
109.8984658898
 30
0.0
 11
127.1730171284
 21
109.8984658898
 31
0.0
  0
TEXT
  5
9E
330
97
100
AcDbEntity
  8
DEFAULT
  6
CONTINUOUS
 62
     7
 48
25.4
100
AcDbText
 10
148.8321072328
 20
110.6484658898
 30
0.0
 40
3.0
  1
47
  7
SEACAD_SEISO_TTF
 11
148.8321072328
 21
113.6484658898
 31
0.0
100
AcDbText
 73
     3
  0
ENDBLK
  5
A0
330
97
100
AcDbEntity
  8
0
100
AcDbBlockEnd
  0
BLOCK
  5
A9
330
A1
100
AcDbEntity
  8
0
100
AcDbBlockBegin
  2
SE6
 70
     0
 71
     0
 10
0.0
 20
0.0
 30
0.0
  3
SE6
  1

  0
POLYLINE
  5
A3
330
A1
100
AcDbEntity
  8
DEFAULT
  6
CONTINUOUS
 62
     7
 48
25.4
100
AcDb2dPolyline
 66
     1
 10
0.0
 20
0.0
 30
0.0
 70
     1
  0
VERTEX
  5
E3
330
A3
100
AcDbEntity
  8
DEFAULT
  6
CONTINUOUS
 62
     7
100
AcDbVertex
100
AcDb2dVertex
 10
177.1730155452
 20
109.3984658854
 30
0.0
  0
VERTEX
  5
E4
330
A3
100
AcDbEntity
  8
DEFAULT
  6
CONTINUOUS
 62
     7
100
AcDbVertex
100
AcDb2dVertex
 10
174.1730155191
 20
109.8984658898
 30
0.0
  0
VERTEX
  5
E5
330
A3
100
AcDbEntity
  8
DEFAULT
  6
CONTINUOUS
 62
     7
100
AcDbVertex
100
AcDb2dVertex
 10
177.1730155452
 20
110.3984658941
 30
0.0
  0
VERTEX
  5
E6
330
A3
100
AcDbEntity
  8
DEFAULT
  6
CONTINUOUS
 62
     7
100
AcDbVertex
100
AcDb2dVertex
 10
177.1730155452
 20
109.3984658854
 30
0.0
  0
SEQEND
  5
E2
330
A3
100
AcDbEntity
  8
DEFAULT
  6
CONTINUOUS
 62
     7
 48
25.4
  0
POLYLINE
  5
A4
330
A1
100
AcDbEntity
  8
DEFAULT
  6
CONTINUOUS
 62
     7
 48
25.4
100
AcDb2dPolyline
 66
     1
 10
0.0
 20
0.0
 30
0.0
 70
     1
  0
VERTEX
  5
E8
330
A4
100
AcDbEntity
  8
DEFAULT
  6
CONTINUOUS
 62
     7
100
AcDbVertex
100
AcDb2dVertex
 10
189.173015493
 20
109.3984658854
 30
0.0
  0
VERTEX
  5
E9
330
A4
100
AcDbEntity
  8
DEFAULT
  6
CONTINUOUS
 62
     7
100
AcDbVertex
100
AcDb2dVertex
 10
192.1730155191
 20
109.8984658898
 30
0.0
  0
VERTEX
  5
EA
330
A4
100
AcDbEntity
  8
DEFAULT
  6
CONTINUOUS
 62
     7
100
AcDbVertex
100
AcDb2dVertex
 10
189.173015493
 20
110.3984658941
 30
0.0
  0
VERTEX
  5
EB
330
A4
100
AcDbEntity
  8
DEFAULT
  6
CONTINUOUS
 62
     7
100
AcDbVertex
100
AcDb2dVertex
 10
189.173015493
 20
109.3984658854
 30
0.0
  0
SEQEND
  5
E7
330
A4
100
AcDbEntity
  8
DEFAULT
  6
CONTINUOUS
 62
     7
 48
25.4
  0
LINE
  5
A5
330
A1
100
AcDbEntity
  8
DEFAULT
  6
CONTINUOUS
 62
     7
 48
25.4
100
AcDbLine
 10
174.1730155191
 20
138.1174262793
 30
0.0
 11
174.1730155191
 21
108.3984658767
 31
0.0
  0
LINE
  5
A6
330
A1
100
AcDbEntity
  8
DEFAULT
  6
CONTINUOUS
 62
     7
 48
25.4
100
AcDbLine
 10
192.1730155191
 20
138.3621018444
 30
0.0
 11
192.1730155191
 21
108.3984658767
 31
0.0
  0
LINE
  5
A7
330
A1
100
AcDbEntity
  8
DEFAULT
  6
CONTINUOUS
 62
     7
 48
25.4
100
AcDbLine
 10
174.1730155191
 20
109.8984658898
 30
0.0
 11
192.1730147442
 21
109.8984658898
 31
0.0
  0
TEXT
  5
A8
330
A1
100
AcDbEntity
  8
DEFAULT
  6
CONTINUOUS
 62
     7
 48
25.4
100
AcDbText
 10
181.6048333135
 20
110.6484658898
 30
0.0
 40
3.0
  1
18
  7
SEACAD_SEISO_TTF
 11
181.6048333135
 21
113.6484658898
 31
0.0
100
AcDbText
 73
     3
  0
ENDBLK
  5
AA
330
A1
100
AcDbEntity
  8
0
100
AcDbBlockEnd
  0
BLOCK
  5
B3
330
AB
100
AcDbEntity
  8
0
100
AcDbBlockBegin
  2
SE7
 70
     0
 71
     0
 10
0.0
 20
0.0
 30
0.0
  3
SE7
  1

  0
POLYLINE
  5
AD
330
AB
100
AcDbEntity
  8
DEFAULT
  6
CONTINUOUS
 62
     7
 48
25.4
100
AcDb2dPolyline
 66
     1
 10
0.0
 20
0.0
 30
0.0
 70
     1
  0
VERTEX
  5
ED
330
AD
100
AcDbEntity
  8
DEFAULT
  6
CONTINUOUS
 62
     7
100
AcDbVertex
100
AcDb2dVertex
 10
130.1730155452
 20
109.398465817
 30
0.0
  0
VERTEX
  5
EE
330
AD
100
AcDbEntity
  8
DEFAULT
  6
CONTINUOUS
 62
     7
100
AcDbVertex
100
AcDb2dVertex
 10
127.1730155191
 20
109.8984658214
 30
0.0
  0
VERTEX
  5
EF
330
AD
100
AcDbEntity
  8
DEFAULT
  6
CONTINUOUS
 62
     7
100
AcDbVertex
100
AcDb2dVertex
 10
130.1730155452
 20
110.3984658257
 30
0.0
  0
VERTEX
  5
F0
330
AD
100
AcDbEntity
  8
DEFAULT
  6
CONTINUOUS
 62
     7
100
AcDbVertex
100
AcDb2dVertex
 10
130.1730155452
 20
109.398465817
 30
0.0
  0
SEQEND
  5
EC
330
AD
100
AcDbEntity
  8
DEFAULT
  6
CONTINUOUS
 62
     7
 48
25.4
  0
POLYLINE
  5
AE
330
AB
100
AcDbEntity
  8
DEFAULT
  6
CONTINUOUS
 62
     7
 48
25.4
100
AcDb2dPolyline
 66
     1
 10
0.0
 20
0.0
 30
0.0
 70
     1
  0
VERTEX
  5
F2
330
AE
100
AcDbEntity
  8
DEFAULT
  6
CONTINUOUS
 62
     7
100
AcDbVertex
100
AcDb2dVertex
 10
116.173015493
 20
109.398465817
 30
0.0
  0
VERTEX
  5
F3
330
AE
100
AcDbEntity
  8
DEFAULT
  6
CONTINUOUS
 62
     7
100
AcDbVertex
100
AcDb2dVertex
 10
119.1730155191
 20
109.8984658214
 30
0.0
  0
VERTEX
  5
F4
330
AE
100
AcDbEntity
  8
DEFAULT
  6
CONTINUOUS
 62
     7
100
AcDbVertex
100
AcDb2dVertex
 10
116.173015493
 20
110.3984658257
 30
0.0
  0
VERTEX
  5
F5
330
AE
100
AcDbEntity
  8
DEFAULT
  6
CONTINUOUS
 62
     7
100
AcDbVertex
100
AcDb2dVertex
 10
116.173015493
 20
109.398465817
 30
0.0
  0
SEQEND
  5
F1
330
AE
100
AcDbEntity
  8
DEFAULT
  6
CONTINUOUS
 62
     7
 48
25.4
  0
LINE
  5
AF
330
AB
100
AcDbEntity
  8
DEFAULT
  6
CONTINUOUS
 62
     7
 48
25.4
100
AcDbLine
 10
127.1730155191
 20
122.931617448
 30
0.0
 11
127.1730155191
 21
108.3984658084
 31
0.0
  0
LINE
  5
B0
330
AB
100
AcDbEntity
  8
DEFAULT
  6
CONTINUOUS
 62
     7
 48
25.4
100
AcDbLine
 10
119.1730155191
 20
128.6174262793
 30
0.0
 11
119.1730155191
 21
108.3984658084
 31
0.0
  0
LINE
  5
B1
330
AB
100
AcDbEntity
  8
DEFAULT
  6
CONTINUOUS
 62
     7
 48
25.4
100
AcDbLine
 10
133.1730155712
 20
109.8984658214
 30
0.0
 11
113.1730150869
 21
109.8984658214
 31
0.0
  0
TEXT
  5
B2
330
AB
100
AcDbEntity
  8
DEFAULT
  6
CONTINUOUS
 62
     7
 48
25.4
100
AcDbText
 10
122.2184698745
 20
110.6484658214
 30
0.0
 40
3.0
  1
8
  7
SEACAD_SEISO_TTF
 11
122.2184698745
 21
113.6484658214
 31
0.0
100
AcDbText
 73
     3
  0
ENDBLK
  5
B4
330
AB
100
AcDbEntity
  8
0
100
AcDbBlockEnd
  0
BLOCK
  5
BD
330
B5
100
AcDbEntity
  8
0
100
AcDbBlockBegin
  2
SE8
 70
     0
 71
     0
 10
0.0
 20
0.0
 30
0.0
  3
SE8
  1

  0
POLYLINE
  5
B7
330
B5
100
AcDbEntity
  8
DEFAULT
  6
CONTINUOUS
 62
     7
 48
25.4
100
AcDb2dPolyline
 66
     1
 10
0.0
 20
0.0
 30
0.0
 70
     1
  0
VERTEX
  5
F7
330
B7
100
AcDbEntity
  8
DEFAULT
  6
CONTINUOUS
 62
     7
100
AcDbVertex
100
AcDb2dVertex
 10
189.173015493
 20
99.5443022718
 30
0.0
  0
VERTEX
  5
F8
330
B7
100
AcDbEntity
  8
DEFAULT
  6
CONTINUOUS
 62
     7
100
AcDbVertex
100
AcDb2dVertex
 10
192.1730155191
 20
100.0443022762
 30
0.0
  0
VERTEX
  5
F9
330
B7
100
AcDbEntity
  8
DEFAULT
  6
CONTINUOUS
 62
     7
100
AcDbVertex
100
AcDb2dVertex
 10
189.173015493
 20
100.5443022805
 30
0.0
  0
VERTEX
  5
FA
330
B7
100
AcDbEntity
  8
DEFAULT
  6
CONTINUOUS
 62
     7
100
AcDbVertex
100
AcDb2dVertex
 10
189.173015493
 20
99.5443022718
 30
0.0
  0
SEQEND
  5
F6
330
B7
100
AcDbEntity
  8
DEFAULT
  6
CONTINUOUS
 62
     7
 48
25.4
  0
POLYLINE
  5
B8
330
B5
100
AcDbEntity
  8
DEFAULT
  6
CONTINUOUS
 62
     7
 48
25.4
100
AcDb2dPolyline
 66
     1
 10
0.0
 20
0.0
 30
0.0
 70
     1
  0
VERTEX
  5
FC
330
B8
100
AcDbEntity
  8
DEFAULT
  6
CONTINUOUS
 62
     7
100
AcDbVertex
100
AcDb2dVertex
 10
122.1730155452
 20
99.5443022718
 30
0.0
  0
VERTEX
  5
FD
330
B8
100
AcDbEntity
  8
DEFAULT
  6
CONTINUOUS
 62
     7
100
AcDbVertex
100
AcDb2dVertex
 10
119.1730155191
 20
100.0443022762
 30
0.0
  0
VERTEX
  5
FE
330
B8
100
AcDbEntity
  8
DEFAULT
  6
CONTINUOUS
 62
     7
100
AcDbVertex
100
AcDb2dVertex
 10
122.1730155452
 20
100.5443022805
 30
0.0
  0
VERTEX
  5
FF
330
B8
100
AcDbEntity
  8
DEFAULT
  6
CONTINUOUS
 62
     7
100
AcDbVertex
100
AcDb2dVertex
 10
122.1730155452
 20
99.5443022718
 30
0.0
  0
SEQEND
  5
FB
330
B8
100
AcDbEntity
  8
DEFAULT
  6
CONTINUOUS
 62
     7
 48
25.4
  0
LINE
  5
B9
330
B5
100
AcDbEntity
  8
DEFAULT
  6
CONTINUOUS
 62
     7
 48
25.4
100
AcDbLine
 10
192.1730155191
 20
138.3621018444
 30
0.0
 11
192.1730155191
 21
98.5443022631
 31
0.0
  0
LINE
  5
BA
330
B5
100
AcDbEntity
  8
DEFAULT
  6
CONTINUOUS
 62
     7
 48
25.4
100
AcDbLine
 10
119.1730155191
 20
128.6174262793
 30
0.0
 11
119.1730155191
 21
98.5443022631
 31
0.0
  0
LINE
  5
BB
330
B5
100
AcDbEntity
  8
DEFAULT
  6
CONTINUOUS
 62
     7
 48
25.4
100
AcDbLine
 10
192.1730155191
 20
100.0443022762
 30
0.0
 11
119.173016592
 21
100.0443022762
 31
0.0
  0
TEXT
  5
BC
330
B5
100
AcDbEntity
  8
DEFAULT
  6
CONTINUOUS
 62
     7
 48
25.4
100
AcDbText
 10
153.9343796919
 20
100.7943022762
 30
0.0
 40
3.0
  1
73
  7
SEACAD_SEISO_TTF
 11
153.9343796919
 21
103.7943022762
 31
0.0
100
AcDbText
 73
     3
  0
ENDBLK
  5
BE
330
B5
100
AcDbEntity
  8
0
100
AcDbBlockEnd
  0
ENDSEC
  0
SECTION
  2
ENTITIES
  0
INSERT
  5
2F
330
1F
100
AcDbEntity
  8
0
100
AcDbBlockReference
  2
SE
 10
0.0
 20
0.0
 30
0.0
  0
INSERT
  5
44
330
1F
100
AcDbEntity
  8
0
100
AcDbBlockReference
  2
SE1
 10
0.0
 20
0.0
 30
0.0
  0
INSERT
  5
77
330
1F
100
AcDbEntity
  8
0
100
AcDbBlockReference
  2
SE2
 10
0.0
 20
0.0
 30
0.0
  0
INSERT
  5
82
330
1F
100
AcDbEntity
  8
0
100
AcDbBlockReference
  2
SE3
 10
0.0
 20
0.0
 30
0.0
  0
INSERT
  5
8C
330
1F
100
AcDbEntity
  8
0
100
AcDbBlockReference
  2
SE4
 10
0.0
 20
0.0
 30
0.0
  0
INSERT
  5
98
330
1F
100
AcDbEntity
  8
0
100
AcDbBlockReference
  2
SE5
 10
0.0
 20
0.0
 30
0.0
  0
INSERT
  5
A2
330
1F
100
AcDbEntity
  8
0
100
AcDbBlockReference
  2
SE6
 10
0.0
 20
0.0
 30
0.0
  0
INSERT
  5
AC
330
1F
100
AcDbEntity
  8
0
100
AcDbBlockReference
  2
SE7
 10
0.0
 20
0.0
 30
0.0
  0
INSERT
  5
B6
330
1F
100
AcDbEntity
  8
0
100
AcDbBlockReference
  2
SE8
 10
0.0
 20
0.0
 30
0.0
  0
ENDSEC
  0
SECTION
  2
OBJECTS
  0
DICTIONARY
  5
C
330
0
100
AcDbDictionary
  3
ACAD_GROUP
350
D
  3
ACAD_LAYOUT
350
1A
  3
ACAD_MLINESTYLE
350
17
  3
ACAD_PLOTSETTINGS
350
19
  3
ACAD_TABLESTYLE
350
2A
  3
ACDBVARIABLEDICTIONARY
350
2C
1001
ACAD
1000
TREAT_AS_HARD
1070
     0
  0
DICTIONARY
  5
100
330
29
100
AcDbDictionary
  3
ACAD_XREC_ROUNDTRIP
360
101
  0
DICTIONARY
  5
D
102
{ACAD_REACTORS
330
C
102
}
330
C
100
AcDbDictionary
1001
ACAD
1000
TREAT_AS_HARD
1070
     0
  0
DICTIONARY
  5
1A
102
{ACAD_REACTORS
330
C
102
}
330
C
100
AcDbDictionary
1001
ACAD
1000
TREAT_AS_HARD
1070
     0
  0
DICTIONARY
  5
17
102
{ACAD_REACTORS
330
C
102
}
330
C
100
AcDbDictionary
  3
STANDARD
350
18
1001
ACAD
1000
TREAT_AS_HARD
1070
     0
  0
DICTIONARY
  5
19
102
{ACAD_REACTORS
330
C
102
}
330
C
100
AcDbDictionary
1001
ACAD
1000
TREAT_AS_HARD
1070
     0
  0
DICTIONARY
  5
2A
102
{ACAD_REACTORS
330
C
102
}
330
C
100
AcDbDictionary
  3
STANDARD
350
2B
1001
ACAD
1000
TREAT_AS_HARD
1070
     0
  0
DICTIONARY
  5
2C
102
{ACAD_REACTORS
330
C
102
}
330
C
100
AcDbDictionary
  3
CTABLESTYLE
350
2D
1001
ACAD
1000
TREAT_AS_HARD
1070
     0
  0
XRECORD
  5
101
102
{ACAD_REACTORS
330
100
102
}
330
100
100
AcDbXrecord
102
UCS
 74
     0
 71
     1
 10
0.0
 20
0.0
 30
0.0
 10
1.0
 20
0.0
 30
0.0
 10
0.0
 20
1.0
 30
0.0
146
0.0
 79
     0
102
VIEW
281
     0
  0
MLINESTYLE
  5
18
102
{ACAD_REACTORS
330
17
102
}
330
17
100
AcDbMlineStyle
  2
Standard
 70
     0
  3

 62
   256
 51
90.0
 52
90.0
 71
     2
 49
0.5
 62
   256
  6
BYLAYER
 49
-0.5
 62
   256
  6
BYLAYER
  0
TABLESTYLE
  5
2B
102
{ACAD_REACTORS
330
2A
102
}
330
2A
100
AcDbTableStyle
  3
Standard
 70
     0
 71
     0
 40
0.06
 41
0.06
280
     0
281
     0
  7
STANDARD
140
0.18
170
     2
 62
     0
 63
     7
283
     0
274
    -2
284
     1
 64
     0
275
    -2
285
     1
 65
     0
276
    -2
286
     1
 66
     0
277
    -2
287
     1
 67
     0
278
    -2
288
     1
 68
     0
279
    -2
289
     1
 69
     0
  7
STANDARD
140
0.25
170
     5
 62
     0
 63
     7
283
     0
274
    -2
284
     1
 64
     0
275
    -2
285
     1
 65
     0
276
    -2
286
     1
 66
     0
277
    -2
287
     1
 67
     0
278
    -2
288
     1
 68
     0
279
    -2
289
     1
 69
     0
  7
STANDARD
140
0.18
170
     5
 62
     0
 63
     7
283
     0
274
    -2
284
     1
 64
     0
275
    -2
285
     1
 65
     0
276
    -2
286
     1
 66
     0
277
    -2
287
     1
 67
     0
278
    -2
288
     1
 68
     0
279
    -2
289
     1
 69
     0
  0
DICTIONARYVAR
  5
2D
102
{ACAD_REACTORS
330
2C
102
}
330
2C
100
DictionaryVariables
280
     0
  1
Standard
  0
ENDSEC
  0
EOF
