  0
SECTION
  2
HEADER
  9
$ACADVER
  1
AC1012
  9
$DWGCODEPAGE
  3
ansi_1252
  9
$INSBASE
 10
0.0
 20
0.0
 30
0.0
  9
$EXTMIN
 10
0.0
 20
0.0
 30
0.0
  9
$EXTMAX
 10
210.0
 20
297.0
 30
0.0
  9
$LIMMIN
 10
0.0
 20
0.0
  9
$LIMMAX
 10
210.0
 20
297.0
  9
$ORTHOMODE
 70
     0
  9
$REGENMODE
 70
     1
  9
$FILLMODE
 70
     1
  9
$QTEXTMODE
 70
     0
  9
$MIRRTEXT
 70
     1
  9
$DRAGMODE
 70
     2
  9
$LTSCALE
 40
1.0
  9
$OSMODE
 70
    37
  9
$ATTMODE
 70
     1
  9
$TEXTSIZE
 40
0.2
  9
$TRACEWID
 40
0.05
  9
$TEXTSTYLE
  7
STANDARD
  9
$CLAYER
  8
0
  9
$CELTYPE
  6
BYLAYER
  9
$CECOLOR
 62
   256
  9
$CELTSCALE
 40
25.4
  9
$DELOBJ
 70
     1
  9
$DISPSILH
 70
     0
  9
$DIMSCALE
 40
1.0
  9
$DIMASZ
 40
0.18
  9
$DIMEXO
 40
0.0625
  9
$DIMDLI
 40
0.38
  9
$DIMRND
 40
0.0
  9
$DIMDLE
 40
0.0
  9
$DIMEXE
 40
0.18
  9
$DIMTP
 40
0.0
  9
$DIMTM
 40
0.0
  9
$DIMTXT
 40
0.18
  9
$DIMCEN
 40
0.09
  9
$DIMTSZ
 40
0.0
  9
$DIMTOL
 70
     0
  9
$DIMLIM
 70
     0
  9
$DIMTIH
 70
     1
  9
$DIMTOH
 70
     1
  9
$DIMSE1
 70
     0
  9
$DIMSE2
 70
     0
  9
$DIMTAD
 70
     0
  9
$DIMZIN
 70
     0
  9
$DIMBLK
  1

  9
$DIMASO
 70
     1
  9
$DIMSHO
 70
     1
  9
$DIMPOST
  1

  9
$DIMAPOST
  1

  9
$DIMALT
 70
     0
  9
$DIMALTD
 70
     2
  9
$DIMALTF
 40
25.4
  9
$DIMLFAC
 40
1.0
  9
$DIMTOFL
 70
     0
  9
$DIMTVP
 40
0.0
  9
$DIMTIX
 70
     0
  9
$DIMSOXD
 70
     0
  9
$DIMSAH
 70
     0
  9
$DIMBLK1
  1

  9
$DIMBLK2
  1

  9
$DIMSTYLE
  2
STANDARD
  9
$DIMCLRD
 70
     0
  9
$DIMCLRE
 70
     0
  9
$DIMCLRT
 70
     0
  9
$DIMTFAC
 40
1.0
  9
$DIMGAP
 40
0.09
  9
$DIMJUST
 70
     0
  9
$DIMSD1
 70
     0
  9
$DIMSD2
 70
     0
  9
$DIMTOLJ
 70
     1
  9
$DIMTZIN
 70
     0
  9
$DIMALTZ
 70
     0
  9
$DIMALTTZ
 70
     0
  9
$DIMFIT
 70
     3
  9
$DIMUPT
 70
     0
  9
$DIMUNIT
 70
     2
  9
$DIMDEC
 70
     4
  9
$DIMTDEC
 70
     4
  9
$DIMALTU
 70
     2
  9
$DIMALTTD
 70
     2
  9
$DIMTXSTY
  7
STANDARD
  9
$DIMAUNIT
 70
     0
  9
$LUNITS
 70
     2
  9
$LUPREC
 70
     4
  9
$SKETCHINC
 40
0.1
  9
$FILLETRAD
 40
0.5
  9
$AUNITS
 70
     0
  9
$AUPREC
 70
     0
  9
$MENU
  1
.
  9
$ELEVATION
 40
0.0
  9
$PELEVATION
 40
0.0
  9
$THICKNESS
 40
0.0
  9
$LIMCHECK
 70
     0
  9
$CHAMFERA
 40
0.5
  9
$CHAMFERB
 40
0.5
  9
$CHAMFERC
 40
1.0
  9
$CHAMFERD
 40
0.0
  9
$SKPOLY
 70
     0
  9
$TDCREATE
 40
2453762.54607559
  9
$TDUPDATE
 40
2453762.546075602
  9
$TDINDWG
 40
0.0000000116
  9
$TDUSRTIMER
 40
0.0000000116
  9
$USRTIMER
 70
     1
  9
$ANGBASE
 50
0.0
  9
$ANGDIR
 70
     0
  9
$PDMODE
 70
     0
  9
$PDSIZE
 40
0.0
  9
$PLINEWID
 40
0.0
  9
$COORDS
 70
     1
  9
$SPLFRAME
 70
     0
  9
$SPLINETYPE
 70
     6
  9
$SPLINESEGS
 70
     8
  9
$ATTDIA
 70
     0
  9
$ATTREQ
 70
     1
  9
$HANDLING
 70
     1
  9
$HANDSEED
  5
CB
  9
$SURFTAB1
 70
     6
  9
$SURFTAB2
 70
     6
  9
$SURFTYPE
 70
     6
  9
$SURFU
 70
     6
  9
$SURFV
 70
     6
  9
$UCSNAME
  2

  9
$UCSORG
 10
0.0
 20
0.0
 30
0.0
  9
$UCSXDIR
 10
1.0
 20
0.0
 30
0.0
  9
$UCSYDIR
 10
0.0
 20
1.0
 30
0.0
  9
$PUCSNAME
  2

  9
$PUCSORG
 10
0.0
 20
0.0
 30
0.0
  9
$PUCSXDIR
 10
1.0
 20
0.0
 30
0.0
  9
$PUCSYDIR
 10
0.0
 20
1.0
 30
0.0
  9
$USERI1
 70
     0
  9
$USERI2
 70
     0
  9
$USERI3
 70
     0
  9
$USERI4
 70
     0
  9
$USERI5
 70
     0
  9
$USERR1
 40
0.0
  9
$USERR2
 40
0.0
  9
$USERR3
 40
0.0
  9
$USERR4
 40
0.0
  9
$USERR5
 40
0.0
  9
$WORLDVIEW
 70
     1
  9
$SHADEDGE
 70
     3
  9
$SHADEDIF
 70
    70
  9
$TILEMODE
 70
     1
  9
$MAXACTVP
 70
    64
  9
$PINSBASE
 10
0.0
 20
0.0
 30
0.0
  9
$PLIMCHECK
 70
     0
  9
$PEXTMIN
 10
0.0
 20
0.0
 30
0.0
  9
$PEXTMAX
 10
210.0
 20
297.0
 30
0.0
  9
$PLIMMIN
 10
0.0
 20
0.0
  9
$PLIMMAX
 10
12.0
 20
9.0
  9
$UNITMODE
 70
     0
  9
$VISRETAIN
 70
     1
  9
$PLINEGEN
 70
     0
  9
$PSLTSCALE
 70
     1
  9
$TREEDEPTH
 70
  3020
  9
$PICKSTYLE
 70
     1
  9
$CMLSTYLE
  2
STANDARD
  9
$CMLJUST
 70
     0
  9
$CMLSCALE
 40
1.0
  9
$SAVEIMAGES
 70
     1
  0
ENDSEC
  0
SECTION
  2
CLASSES
  0
CLASS
  1
ACDBDICTIONARYWDFLT
  2
AcDbDictionaryWithDefault
  3
ObjectDBX Classes
 90
        0
280
     0
281
     0
  0
CLASS
  1
TABLESTYLE
  2
AcDbTableStyle
  3
ObjectDBX Classes
 90
     2047
280
     0
281
     0
  0
CLASS
  1
DICTIONARYVAR
  2
AcDbDictionaryVar
  3
ObjectDBX Classes
 90
        0
280
     0
281
     0
  0
CLASS
  1
XRECORD
  2
AcDbXrecord
  3
AutoCAD 2000
 90
    32768
280
     0
281
     0
  0
CLASS
  1
LWPOLYLINE
  2
AcDbPolyline
  3
AutoCAD 2000
 90
    32768
280
     0
281
     1
  0
CLASS
  1
HATCH
  2
AcDbHatch
  3
AutoCAD 2000
 90
    32768
280
     0
281
     1
  0
CLASS
  1
ACDBPLACEHOLDER
  2
AcDbPlaceHolder
  3
ObjectDBX Classes
 90
        0
280
     0
281
     0
  0
CLASS
  1
LAYOUT
  2
AcDbLayout
  3
ObjectDBX Classes
 90
        0
280
     0
281
     0
  0
ENDSEC
  0
SECTION
  2
TABLES
  0
TABLE
  2
VPORT
  5
8
330
0
100
AcDbSymbolTable
 70
     2
  0
VPORT
  5
29
102
{ACAD_XDICTIONARY
360
C9
102
}
330
8
100
AcDbSymbolTableRecord
100
AcDbViewportTableRecord
  2
*ACTIVE
 70
     0
 10
0.0
 20
0.0
 11
1.0
 21
1.0
 12
10.4299065421
 22
4.5
 13
0.0
 23
0.0
 14
0.5
 24
0.5
 15
0.5
 25
0.5
 16
0.0
 26
0.0
 36
1.0
 17
0.0
 27
0.0
 37
0.0
 40
9.0
 41
1.9729729729
 42
50.0
 43
0.0
 44
0.0
 50
0.0
 51
0.0
 71
     0
 72
   100
 73
     1
 74
     3
 75
     0
 76
     0
 77
     0
 78
     0
  0
ENDTAB
  0
TABLE
  2
LTYPE
  5
5
330
0
100
AcDbSymbolTable
 70
     3
  0
LTYPE
  5
14
330
5
100
AcDbSymbolTableRecord
100
AcDbLinetypeTableRecord
  2
BYBLOCK
 70
     0
  3

 72
    65
 73
     0
 40
0.0
  0
LTYPE
  5
15
330
5
100
AcDbSymbolTableRecord
100
AcDbLinetypeTableRecord
  2
BYLAYER
 70
     0
  3

 72
    65
 73
     0
 40
0.0
  0
LTYPE
  5
16
330
5
100
AcDbSymbolTableRecord
100
AcDbLinetypeTableRecord
  2
CONTINUOUS
 70
     0
  3
Solid line
 72
    65
 73
     0
 40
0.0
  0
LTYPE
  5
55
330
5
100
AcDbSymbolTableRecord
100
AcDbLinetypeTableRecord
  2
HIDDEN2
 70
     0
  3
_ _ _ _ _ _ _ _ _ _ _ _ _ _ _ _ _ _ _ _ _ _ _ _
 72
    65
 73
     2
 40
0.1875
 49
0.125
 74
     4
 75
     0
340
0
 46
0.0
 50
0.0
 44
0.0
 45
0.0
 49
-0.0625
 74
     4
 75
     0
340
0
 46
0.0
 50
0.0
 44
0.0
 45
0.0
  0
LTYPE
  5
A1
330
5
100
AcDbSymbolTableRecord
100
AcDbLinetypeTableRecord
  2
CENTER2
 70
     0
  3
___ _ ___ _ ___ _ ___ _ ___ _ ___ _ ___ _ ___ _
 72
    65
 73
     4
 40
1.125
 49
0.75
 74
     4
 75
     0
340
0
 46
0.0
 50
0.0
 44
0.0
 45
0.0
 49
-0.125
 74
     4
 75
     0
340
0
 46
0.0
 50
0.0
 44
0.0
 45
0.0
 49
0.125
 74
     4
 75
     0
340
0
 46
0.0
 50
0.0
 44
0.0
 45
0.0
 49
-0.125
 74
     4
 75
     0
340
0
 46
0.0
 50
0.0
 44
0.0
 45
0.0
  0
ENDTAB
  0
TABLE
  2
LAYER
  5
2
330
0
100
AcDbSymbolTable
 70
     6
  0
LAYER
  5
10
330
2
100
AcDbSymbolTableRecord
100
AcDbLayerTableRecord
  2
0
 70
     0
 62
     7
  6
CONTINUOUS
  0
LAYER
  5
30
330
2
100
AcDbSymbolTableRecord
100
AcDbLayerTableRecord
  2
DEFAULT
 70
     0
 62
     7
  6
CONTINUOUS
  0
LAYER
  5
33
330
2
100
AcDbSymbolTableRecord
100
AcDbLayerTableRecord
  2
MEGA_002172
 70
     0
 62
     7
  6
CONTINUOUS
  0
LAYER
  5
6A
330
2
100
AcDbSymbolTableRecord
100
AcDbLayerTableRecord
  2
MEGA_002176
 70
     0
 62
     7
  6
CONTINUOUS
  0
LAYER
  5
7C
330
2
100
AcDbSymbolTableRecord
100
AcDbLayerTableRecord
  2
MEGA_002171
 70
     0
 62
     7
  6
CONTINUOUS
  0
LAYER
  5
A0
330
2
100
AcDbSymbolTableRecord
100
AcDbLayerTableRecord
  2
STANDARD
 70
     0
 62
     7
  6
CONTINUOUS
  0
ENDTAB
  0
TABLE
  2
STYLE
  5
3
330
0
100
AcDbSymbolTable
 70
     2
  0
STYLE
  5
11
330
3
100
AcDbSymbolTableRecord
100
AcDbTextStyleTableRecord
  2
STANDARD
 70
     0
 40
0.0
 41
1.0
 50
0.0
 71
     0
 42
0.2
  3
txt
  4

  0
STYLE
  5
2E
330
3
100
AcDbSymbolTableRecord
100
AcDbTextStyleTableRecord
  2
SEACAD_SEISO_TTF
 70
     0
 40
0.2
 41
1.0
 50
0.0
 71
     0
 42
0.2
  3
seiso.ttf
  4

  0
ENDTAB
  0
TABLE
  2
VIEW
  5
6
330
0
100
AcDbSymbolTable
 70
     0
  0
ENDTAB
  0
TABLE
  2
UCS
  5
7
330
0
100
AcDbSymbolTable
 70
     0
  0
ENDTAB
  0
TABLE
  2
APPID
  5
9
330
0
100
AcDbSymbolTable
 70
     1
  0
APPID
  5
12
330
9
100
AcDbSymbolTableRecord
100
AcDbRegAppTableRecord
  2
ACAD
 70
     0
  0
ENDTAB
  0
TABLE
  2
DIMSTYLE
  5
A
330
0
100
AcDbSymbolTable
 70
     1
  0
DIMSTYLE
105
27
330
A
100
AcDbSymbolTableRecord
100
AcDbDimStyleTableRecord
  2
STANDARD
 70
     0
  3

  4

  5

  6

  7

 40
1.0
 41
0.18
 42
0.0625
 43
0.38
 44
0.18
 45
0.0
 46
0.0
 47
0.0
 48
0.0
140
0.18
141
0.09
142
0.0
143
25.4
144
1.0
145
0.0
146
1.0
147
0.09
 71
     0
 72
     0
 73
     1
 74
     1
 75
     0
 76
     0
 77
     0
 78
     0
170
     0
171
     2
172
     0
173
     0
174
     0
175
     0
176
     0
177
     0
178
     0
270
     2
271
     4
272
     4
273
     2
274
     2
340
11
275
     0
280
     0
281
     0
282
     0
283
     1
284
     0
285
     0
286
     0
287
     3
288
     0
  0
ENDTAB
  0
TABLE
  2
BLOCK_RECORD
  5
1
330
0
100
AcDbSymbolTable
 70
     4
  0
BLOCK_RECORD
  5
1F
330
1
100
AcDbSymbolTableRecord
100
AcDbBlockTableRecord
  2
*MODEL_SPACE
  0
BLOCK_RECORD
  5
1B
330
1
100
AcDbSymbolTableRecord
100
AcDbBlockTableRecord
  2
*PAPER_SPACE
  0
BLOCK_RECORD
  5
31
330
1
100
AcDbSymbolTableRecord
100
AcDbBlockTableRecord
  2
SE
  0
BLOCK_RECORD
  5
A7
330
1
100
AcDbSymbolTableRecord
100
AcDbBlockTableRecord
  2
SE1
  0
BLOCK_RECORD
  5
B0
330
1
100
AcDbSymbolTableRecord
100
AcDbBlockTableRecord
  2
SE2
  0
ENDTAB
  0
ENDSEC
  0
SECTION
  2
BLOCKS
  0
BLOCK
  5
20
330
1F
100
AcDbEntity
  8
0
100
AcDbBlockBegin
  2
*MODEL_SPACE
 70
     0
 71
     0
 10
0.0
 20
0.0
 30
0.0
  3
*MODEL_SPACE
  1

  0
ENDBLK
  5
21
330
1F
100
AcDbEntity
  8
0
100
AcDbBlockEnd
  0
BLOCK
  5
1C
330
1B
100
AcDbEntity
 67
     1
  8
0
100
AcDbBlockBegin
  2
*PAPER_SPACE
 70
     0
 71
     0
 10
0.0
 20
0.0
 30
0.0
  3
*PAPER_SPACE
  1

  0
ENDBLK
  5
1D
330
1B
100
AcDbEntity
 67
     1
  8
0
100
AcDbBlockEnd
  0
BLOCK
  5
A5
330
31
100
AcDbEntity
  8
0
100
AcDbBlockBegin
  2
SE
 70
     0
 71
     0
 10
0.0
 20
0.0
 30
0.0
  3
SE
  1

  0
LINE
  5
34
330
31
100
AcDbEntity
  8
MEGA_002172
  6
CONTINUOUS
 62
     7
 48
25.4
100
AcDbLine
 10
102.7095981224
 20
213.3896344289
 30
0.0
 11
102.7095981224
 21
199.8896344289
 31
0.0
  0
LINE
  5
35
330
31
100
AcDbEntity
  8
MEGA_002172
  6
CONTINUOUS
 62
     7
 48
25.4
100
AcDbLine
 10
94.3095981224
 20
185.9896344289
 30
0.0
 11
97.6089276686
 21
185.9896344289
 31
0.0
  0
LINE
  5
36
330
31
100
AcDbEntity
  8
MEGA_002172
  6
CONTINUOUS
 62
     7
 48
25.4
100
AcDbLine
 10
94.2089276686
 20
177.6896344289
 30
0.0
 11
94.2330863702
 21
179.6948066662
 31
0.0
  0
LINE
  5
37
330
31
100
AcDbEntity
  8
MEGA_002172
  6
CONTINUOUS
 62
     7
 48
25.4
100
AcDbLine
 10
88.7095981224
 20
202.6896344289
 30
0.0
 11
81.7095981224
 21
202.6896344289
 31
0.0
  0
ARC
  5
38
330
31
100
AcDbEntity
  8
MEGA_002172
  6
CONTINUOUS
 62
     7
 48
25.4
100
AcDbCircle
 10
34.1489276686
 20
194.3896344289
 30
0.0
 40
72.00000000000001
100
AcDbArc
 50
12.8887303165
 51
15.2933442358
  0
LINE
  5
39
330
31
100
AcDbEntity
  8
MEGA_002172
  6
CONTINUOUS
 62
     7
 48
25.4
100
AcDbLine
 10
102.7095981224
 20
175.3896344289
 30
0.0
 11
103.5950563117
 21
175.3896344289
 31
0.0
  0
LINE
  5
3A
330
31
100
AcDbEntity
  8
MEGA_002172
  6
CONTINUOUS
 62
     7
 48
25.4
100
AcDbLine
 10
103.5950563117
 20
213.3896344289
 30
0.0
 11
102.7095981224
 21
213.3896344289
 31
0.0
  0
LINE
  5
3B
330
31
100
AcDbEntity
  8
MEGA_002172
  6
CONTINUOUS
 62
     7
 48
25.4
100
AcDbLine
 10
77.7095981224
 20
181.3340631575
 30
0.0
 11
80.7095981224
 21
181.3340631575
 31
0.0
  0
LINE
  5
3C
330
31
100
AcDbEntity
  8
MEGA_002172
  6
CONTINUOUS
 62
     7
 48
25.4
100
AcDbLine
 10
81.7095981224
 20
202.1896344289
 30
0.0
 11
80.7095981224
 21
202.1896344289
 31
0.0
  0
LINE
  5
3D
330
31
100
AcDbEntity
  8
MEGA_002172
  6
CONTINUOUS
 62
     7
 48
25.4
100
AcDbLine
 10
80.7095981224
 20
178.1896344289
 30
0.0
 11
81.7095981224
 21
178.1896344289
 31
0.0
  0
SPLINE
  5
3E
330
31
100
AcDbEntity
  8
MEGA_002172
  6
CONTINUOUS
 62
     7
 48
25.4
100
AcDbSpline
210
0.0
220
0.0
230
1.0
 70
     8
 71
     3
 72
    17
 73
    13
 74
     0
 42
0.0000000001
 43
0.0000000001
 40
0.0
 40
0.0
 40
0.0
 40
0.0
 40
0.2493567656000665
 40
0.2493567656000665
 40
0.2493567656000665
 40
0.4995711770667111
 40
0.4995711770667111
 40
0.4995711770667111
 40
0.7497855885333556
 40
0.7497855885333556
 40
0.7497855885333556
 40
1.0
 40
1.0
 40
1.0
 40
1.0
 10
97.70892766784323
 20
177.6896346546317
 30
0.0
 10
97.70892716951194
 20
177.6897334663569
 30
0.0
 10
97.70673704439028
 20
178.0283063740889
 30
0.0
 10
97.70238836188383
 20
178.6808587159528
 30
0.0
 10
97.69802472237562
 20
179.3356554678184
 30
0.0
 10
97.69156527694732
 20
180.2950568405351
 30
0.0
 10
97.68292474563741
 20
181.5133518259723
 30
0.0
 10
97.67428421432747
 20
182.7316468114095
 30
0.0
 10
97.66375557054217
 20
184.1664761247951
 30
0.0
 10
97.65134691492231
 20
185.7336777494676
 30
0.0
 10
97.63893825930248
 20
187.3008793741402
 30
0.0
 10
97.62479922437315
 20
188.9812260827325
 30
0.0
 10
97.60892766855628
 20
190.6724046991641
 30
0.0
  0
LINE
  5
3F
330
31
100
AcDbEntity
  8
MEGA_002172
  6
CONTINUOUS
 62
     7
 48
25.4
100
AcDbLine
 10
94.3095981224
 20
185.9896344289
 30
0.0
 11
94.3095981224
 21
186.6593316491
 31
0.0
  0
LINE
  5
40
330
31
100
AcDbEntity
  8
MEGA_002172
  6
CONTINUOUS
 62
     7
 48
25.4
100
AcDbLine
 10
97.6089276686
 20
190.6724046992
 30
0.0
 11
97.6089276686
 21
185.9896344289
 31
0.0
  0
LINE
  5
41
330
31
100
AcDbEntity
  8
MEGA_002172
  6
CONTINUOUS
 62
     7
 48
25.4
100
AcDbLine
 10
94.2399831411
 20
180.6657542517
 30
0.0
 11
94.2330240584
 21
179.6896350349
 31
0.0
  0
LINE
  5
42
330
31
100
AcDbEntity
  8
MEGA_002172
  6
CONTINUOUS
 62
     7
 48
25.4
100
AcDbLine
 10
97.6089276686
 20
185.9896344289
 30
0.0
 11
97.7089276686
 21
177.6896344289
 31
0.0
  0
LINE
  5
43
330
31
100
AcDbEntity
  8
MEGA_002172
  6
CONTINUOUS
 62
     7
 48
25.4
100
AcDbLine
 10
94.3089276686
 20
186.6593316491
 30
0.0
 11
94.3089276686
 21
190.6724046992
 31
0.0
  0
SPLINE
  5
44
330
31
100
AcDbEntity
  8
MEGA_002172
  6
CONTINUOUS
 62
     7
 48
25.4
100
AcDbSpline
210
0.0
220
0.0
230
1.0
 70
     8
 71
     3
 72
    23
 73
    19
 74
     0
 42
0.0000000001
 43
0.0000000001
 40
0.0
 40
0.0
 40
0.0
 40
0.0
 40
0.2497859556818048
 40
0.2497859556818048
 40
0.2497859556818048
 40
0.3746789335227073
 40
0.3746789335227073
 40
0.3746789335227073
 40
0.4995719113636097
 40
0.4995719113636097
 40
0.4995719113636097
 40
0.7493578670454147
 40
0.7493578670454147
 40
0.7493578670454147
 40
0.9991438227272199
 40
0.9991438227272199
 40
0.9991438227272199
 40
1.0
 40
1.0
 40
1.0
 40
1.0
 10
94.30892766855628
 20
190.6724046991641
 30
0.0
 10
94.29305963837356
 20
188.9816017533439
 30
0.0
 10
94.27919558670821
 20
187.3350225014348
 30
0.0
 10
94.2666844431747
 20
185.7559018245733
 30
0.0
 10
94.26042887140795
 20
184.9663414861425
 30
0.0
 10
94.25472230783473
 20
184.2192119769438
 30
0.0
 10
94.24946221934972
 20
183.5131312923484
 30
0.0
 10
94.24420213086471
 20
182.8070506077529
 30
0.0
 10
94.23934596160629
 20
182.1356491103022
 30
0.0
 10
94.23505882357861
 20
181.5314284297996
 30
0.0
 10
94.2264845475233
 20
180.3229870687945
 30
0.0
 10
94.21991699092628
 20
179.3484486775255
 30
0.0
 10
94.21554892452225
 20
178.693154257507
 30
0.0
 10
94.2111808581182
 20
178.0378598374884
 30
0.0
 10
94.20894235611421
 20
177.6918831133638
 30
0.0
 10
94.20892774183653
 20
177.6896456481992
 30
0.0
 10
94.208927691744
 20
177.6896379789657
 30
0.0
 10
94.20892766755534
 20
177.6896343147754
 30
0.0
 10
94.20892766926932
 20
177.6896346546317
 30
0.0
  0
LINE
  5
45
330
31
100
AcDbEntity
  8
MEGA_002172
  6
CONTINUOUS
 62
     7
 48
25.4
100
AcDbLine
 10
94.3095981224
 20
186.6593316491
 30
0.0
 11
94.3089276686
 21
186.6593316491
 31
0.0
  0
SPLINE
  5
46
330
31
100
AcDbEntity
  8
MEGA_002172
  6
CONTINUOUS
 62
     7
 48
25.4
100
AcDbSpline
210
0.0
220
0.0
230
1.0
 70
     8
 71
     3
 72
    11
 73
     7
 74
     0
 42
0.0000000001
 43
0.0000000001
 40
0.0
 40
0.0
 40
0.0
 40
0.0
 40
0.8454760445252648
 40
0.8454760445252648
 40
0.8454760445252648
 40
1.0
 40
1.0
 40
1.0
 40
1.0
 10
94.30892766855628
 20
186.6593316490705
 30
0.0
 10
94.29226513596578
 20
185.2258139264857
 30
0.0
 10
94.27547157633759
 20
183.7922977255574
 30
0.0
 10
94.25860701051805
 20
182.3587823655502
 30
0.0
 10
94.25552474760792
 20
182.0967850350214
 30
0.0
 10
94.25243999644121
 20
181.834787733756
 30
0.0
 10
94.24935298902831
 20
181.5727904590868
 30
0.0
  0
LINE
  5
47
330
31
100
AcDbEntity
  8
MEGA_002172
  6
CONTINUOUS
 62
     7
 48
25.4
100
AcDbLine
 10
97.6089276686
 20
190.6724046992
 30
0.0
 11
94.3089276686
 21
190.6724046992
 31
0.0
  0
LINE
  5
48
330
31
100
AcDbEntity
  8
MEGA_002172
  6
CONTINUOUS
 62
     7
 48
25.4
100
AcDbLine
 10
88.7095981224
 20
202.6896344289
 30
0.0
 11
102.7095981224
 21
207.1896344289
 31
0.0
  0
LINE
  5
49
330
31
100
AcDbEntity
  8
MEGA_002172
  6
CONTINUOUS
 62
     7
 48
25.4
100
AcDbLine
 10
81.7095981224
 20
179.6369096623
 30
0.0
 11
81.7095981224
 21
180.2342338845
 31
0.0
  0
ELLIPSE
  5
4A
330
31
100
AcDbEntity
  8
MEGA_002172
  6
CONTINUOUS
 62
     7
 48
25.4
100
AcDbEllipse
 10
49.8207092385
 20
190.1896344303
 30
0.0
 11
180.7900946039747
 21
2.701124655699988
 31
0.0
210
0.0
220
0.0
230
1.0
 40
0.0675073942
 41
1.272902706631867
 42
1.352988286670044
  0
LINE
  5
4B
330
31
100
AcDbEntity
  8
MEGA_002172
  6
CONTINUOUS
 62
     7
 48
25.4
100
AcDbLine
 10
81.7095981224
 20
200.1450349733
 30
0.0
 11
81.7095981224
 21
200.7423591955
 31
0.0
  0
LINE
  5
4C
330
31
100
AcDbEntity
  8
MEGA_002172
  6
CONTINUOUS
 62
     7
 48
25.4
100
AcDbLine
 10
81.7095981224
 20
200.1450349733
 30
0.0
 11
80.7095981224
 21
200.1450349733
 31
0.0
  0
LINE
  5
4D
330
31
100
AcDbEntity
  8
MEGA_002172
  6
CONTINUOUS
 62
     7
 48
25.4
100
AcDbLine
 10
91.0781073915
 20
200.7423591955
 30
0.0
 11
81.7095981224
 21
200.7423591955
 31
0.0
  0
LINE
  5
4E
330
31
100
AcDbEntity
  8
MEGA_002172
  6
CONTINUOUS
 62
     7
 48
25.4
100
AcDbLine
 10
81.7095981224
 20
179.6369096623
 30
0.0
 11
91.0781073915
 21
179.6369096623
 31
0.0
  0
LINE
  5
4F
330
31
100
AcDbEntity
  8
MEGA_002172
  6
CONTINUOUS
 62
     7
 48
25.4
100
AcDbLine
 10
80.7095981224
 20
200.1450349733
 30
0.0
 11
80.7095981224
 21
187.0896344289
 31
0.0
  0
LINE
  5
50
330
31
100
AcDbEntity
  8
MEGA_002172
  6
CONTINUOUS
 62
     7
 48
25.4
100
AcDbLine
 10
77.7095981224
 20
185.7169071562
 30
0.0
 11
77.7095981224
 21
181.6199203146
 31
0.0
  0
LINE
  5
51
330
31
100
AcDbEntity
  8
MEGA_002172
  6
CONTINUOUS
 62
     7
 48
25.4
100
AcDbLine
 10
81.7095981224
 20
185.7169071562
 30
0.0
 11
81.7095981224
 21
180.2342338845
 31
0.0
  0
LINE
  5
52
330
31
100
AcDbEntity
  8
MEGA_002172
  6
CONTINUOUS
 62
     7
 48
25.4
100
AcDbLine
 10
81.7095981224
 20
177.6896344289
 30
0.0
 11
81.7095981224
 21
179.6369096623
 31
0.0
  0
LINE
  5
53
330
31
100
AcDbEntity
  8
MEGA_002172
  6
CONTINUOUS
 62
     7
 48
25.4
100
AcDbLine
 10
81.7095981224
 20
200.7423591955
 30
0.0
 11
81.7095981224
 21
202.6896344289
 31
0.0
  0
LINE
  5
54
330
31
100
AcDbEntity
  8
MEGA_002172
  6
CONTINUOUS
 62
     7
 48
25.4
100
AcDbLine
 10
104.7095981224
 20
207.1180213961
 30
0.0
 11
104.7095981224
 21
199.4502566218
 31
0.0
  0
LINE
  5
56
330
31
100
AcDbEntity
  8
MEGA_002172
  6
HIDDEN2
 62
     7
 48
25.4
100
AcDbLine
 10
104.7095981224
 20
199.4502566218
 30
0.0
 11
104.7095981224
 21
189.3289440879
 31
0.0
  0
LINE
  5
57
330
31
100
AcDbEntity
  8
MEGA_002172
  6
CONTINUOUS
 62
     7
 48
25.4
100
AcDbLine
 10
104.7095981224
 20
189.3289440879
 30
0.0
 11
104.7095981224
 21
181.6612449502
 31
0.0
  0
ARC
  5
58
330
31
100
AcDbEntity
  8
MEGA_002172
  6
CONTINUOUS
 62
     7
 48
25.4
100
AcDbCircle
 10
37.0314301661
 20
194.3896344289
 30
0.0
 40
66.409141855
100
AcDbArc
 50
355.2493264512
 51
4.7506735488
  0
ARC
  5
59
330
31
100
AcDbEntity
  8
MEGA_002172
  6
CONTINUOUS
 62
     7
 48
25.4
100
AcDbCircle
 10
162.9151437825
 20
183.8338094659
 30
0.0
 40
59.91640806780001
100
AcDbArc
 50
175.1595513101
 51
188.101811769
  0
ARC
  5
5A
330
31
100
AcDbEntity
  8
MEGA_002172
  6
CONTINUOUS
 62
     7
 48
25.4
100
AcDbCircle
 10
162.9151437825
 20
204.9454593919
 30
0.0
 40
59.91640806780001
100
AcDbArc
 50
171.898188231
 51
184.8404486899
  0
LINE
  5
5B
330
31
100
AcDbEntity
  8
MEGA_002172
  6
CONTINUOUS
 62
     7
 48
25.4
100
AcDbLine
 10
102.7095981224
 20
199.8896344289
 30
0.0
 11
102.7095981224
 21
188.8896344289
 31
0.0
  0
LINE
  5
5C
330
31
100
AcDbEntity
  8
MEGA_002172
  6
CONTINUOUS
 62
     7
 48
25.4
100
AcDbLine
 10
102.7095981224
 20
175.3896344289
 30
0.0
 11
102.7095981224
 21
188.8896344289
 31
0.0
  0
LINE
  5
5D
330
31
100
AcDbEntity
  8
MEGA_002172
  6
CONTINUOUS
 62
     7
 48
25.4
100
AcDbLine
 10
81.7095981224
 20
177.6896344289
 30
0.0
 11
94.2089938743
 21
177.6896344289
 31
0.0
  0
LINE
  5
5E
330
31
100
AcDbEntity
  8
MEGA_002172
  6
CONTINUOUS
 62
     7
 48
25.4
100
AcDbLine
 10
80.7095981224
 20
200.1450349733
 30
0.0
 11
80.7095981224
 21
202.1896344289
 31
0.0
  0
LINE
  5
5F
330
31
100
AcDbEntity
  8
MEGA_002172
  6
CONTINUOUS
 62
     7
 48
25.4
100
AcDbLine
 10
90.7095981224
 20
190.1896344289
 30
0.0
 11
91.0781073915
 21
179.6369096623
 31
0.0
  0
LINE
  5
60
330
31
100
AcDbEntity
  8
MEGA_002172
  6
CONTINUOUS
 62
     7
 48
25.4
100
AcDbLine
 10
91.0781073915
 20
200.7423591955
 30
0.0
 11
90.7095981224
 21
190.1896344289
 31
0.0
  0
LINE
  5
61
330
31
100
AcDbEntity
  8
MEGA_002172
  6
CONTINUOUS
 62
     7
 48
25.4
100
AcDbLine
 10
77.7095981224
 20
187.0896344289
 30
0.0
 11
81.7095981224
 21
187.0896344289
 31
0.0
  0
LINE
  5
62
330
31
100
AcDbEntity
  8
MEGA_002172
  6
CONTINUOUS
 62
     7
 48
25.4
100
AcDbLine
 10
77.7095981224
 20
185.7169071562
 30
0.0
 11
77.7095981224
 21
187.0896344289
 31
0.0
  0
LINE
  5
63
330
31
100
AcDbEntity
  8
MEGA_002172
  6
CONTINUOUS
 62
     7
 48
25.4
100
AcDbLine
 10
77.7095981224
 20
181.6199203146
 30
0.0
 11
77.7095981224
 21
181.3340631575
 31
0.0
  0
LINE
  5
64
330
31
100
AcDbEntity
  8
MEGA_002172
  6
CONTINUOUS
 62
     7
 48
25.4
100
AcDbLine
 10
81.7095981224
 20
187.0896344289
 30
0.0
 11
81.7095981224
 21
185.7169071562
 31
0.0
  0
ARC
  5
65
330
31
100
AcDbEntity
  8
MEGA_002172
  6
CONTINUOUS
 62
     7
 48
25.4
100
AcDbCircle
 10
352.1029650593
 20
178.4555495374
 30
0.0
 40
257.8724538384
100
AcDbArc
 50
179.307374262
 51
179.5089163243
  0
LINE
  5
66
330
31
100
AcDbEntity
  8
MEGA_002172
  6
CONTINUOUS
 62
     7
 48
25.4
100
AcDbLine
 10
80.7095981224
 20
178.1896344289
 30
0.0
 11
80.7095981224
 21
181.6199203146
 31
0.0
  0
LINE
  5
67
330
31
100
AcDbEntity
  8
MEGA_002172
  6
CONTINUOUS
 62
     7
 48
25.4
100
AcDbLine
 10
97.7088614628
 20
177.6896344289
 30
0.0
 11
102.7095981224
 21
177.6896344289
 31
0.0
  0
ARC
  5
68
330
31
100
AcDbEntity
  8
MEGA_002172
  6
CONTINUOUS
 62
     7
 48
25.4
100
AcDbCircle
 10
89.7098534509
 20
181.6612820617
 30
0.0
 40
14.9997445871
100
AcDbArc
 50
347.1040341774
 51
0.0774690216
  0
ARC
  5
69
330
31
100
AcDbEntity
  8
MEGA_002172
  6
CONTINUOUS
 62
     7
 48
25.4
100
AcDbCircle
 10
34.1489276686
 20
194.3896344289
 30
0.0
 40
72.00000000000001
100
AcDbArc
 50
344.706764045
 51
347.0968009255
  0
LINE
  5
6B
330
31
100
AcDbEntity
  8
MEGA_002176
  6
HIDDEN2
 62
     7
 48
25.4
100
AcDbLine
 10
80.7095977404
 20
187.0896344289
 30
0.0
 11
80.709597798
 21
188.1896344408
 31
0.0
  0
LINE
  5
6C
330
31
100
AcDbEntity
  8
MEGA_002176
  6
CONTINUOUS
 62
     7
 48
25.4
100
AcDbLine
 10
79.209597798
 20
188.1896345271
 30
0.0
 11
79.2095977404
 21
187.0896344289
 31
0.0
  0
LINE
  5
6D
330
31
100
AcDbEntity
  8
MEGA_002176
  6
CONTINUOUS
 62
     7
 48
25.4
100
AcDbLine
 10
79.2095974393
 20
181.3340631575
 30
0.0
 11
79.2095973783
 21
180.167658674
 31
0.0
  0
LINE
  5
6E
330
31
100
AcDbEntity
  8
MEGA_002176
  6
CONTINUOUS
 62
     7
 48
25.4
100
AcDbLine
 10
77.7095972748
 20
178.1896345859
 30
0.0
 11
80.7095972748
 21
178.1896344289
 31
0.0
  0
LINE
  5
6F
330
31
100
AcDbEntity
  8
MEGA_002176
  6
HIDDEN2
 62
     7
 48
25.4
100
AcDbLine
 10
80.7095979157
 20
190.4396344486
 30
0.0
 11
80.709597798
 21
188.1896344408
 31
0.0
  0
LINE
  5
70
330
31
100
AcDbEntity
  8
MEGA_002176
  6
CONTINUOUS
 62
     7
 48
25.4
100
AcDbLine
 10
80.7095984677
 20
200.9896344289
 30
0.0
 11
77.7095984677
 21
200.9896345859
 31
0.0
  0
ELLIPSE
  5
71
330
31
100
AcDbEntity
  8
MEGA_002176
  6
CONTINUOUS
 62
     7
 48
25.4
100
AcDbEllipse
 10
83.0201096793
 20
190.189634308
 30
0.0
 11
-5.968675831000003E-7
 21
-12.00000000000333
 31
0.0
210
0.0
220
0.0
230
1.0
 40
0.5773502692
 41
5.700821064835936
 42
5.943178347638408
  0
LINE
  5
72
330
31
100
AcDbEntity
  8
MEGA_002176
  6
CONTINUOUS
 62
     7
 48
25.4
100
AcDbLine
 10
79.209597798
 20
188.1896345271
 30
0.0
 11
80.709597798
 21
188.1896344408
 31
0.0
  0
LINE
  5
73
330
31
100
AcDbEntity
  8
MEGA_002176
  6
CONTINUOUS
 62
     7
 48
25.4
100
AcDbLine
 10
80.7095979157
 20
190.4396344486
 30
0.0
 11
79.209597798
 21
188.1896345271
 31
0.0
  0
LINE
  5
74
330
31
100
AcDbEntity
  8
MEGA_002176
  6
CONTINUOUS
 62
     7
 48
25.4
100
AcDbLine
 10
77.7095984677
 20
200.9896345859
 30
0.0
 11
77.7095981224
 21
194.3896346056
 31
0.0
  0
LINE
  5
75
330
31
100
AcDbEntity
  8
MEGA_002176
  6
CONTINUOUS
 62
     7
 48
25.4
100
AcDbLine
 10
77.7095981224
 20
194.3896346056
 30
0.0
 11
77.7095977404
 21
187.0896344289
 31
0.0
  0
LINE
  5
76
330
31
100
AcDbEntity
  8
MEGA_002176
  6
CONTINUOUS
 62
     7
 48
25.4
100
AcDbLine
 10
77.7095974393
 20
181.3340631575
 30
0.0
 11
77.7095973783
 21
180.1676587525
 31
0.0
  0
LINE
  5
77
330
31
100
AcDbEntity
  8
MEGA_002176
  6
CONTINUOUS
 62
     7
 48
25.4
100
AcDbLine
 10
80.7095973107
 20
178.8766062879
 30
0.0
 11
80.7095972748
 21
178.1896344289
 31
0.0
  0
LINE
  5
78
330
31
100
AcDbEntity
  8
MEGA_002176
  6
CONTINUOUS
 62
     7
 48
25.4
100
AcDbLine
 10
77.7095973783
 20
180.1676587525
 30
0.0
 11
77.7095972748
 21
178.1896345859
 31
0.0
  0
LINE
  5
79
330
31
100
AcDbEntity
  8
MEGA_002176
  6
HIDDEN2
 62
     7
 48
25.4
100
AcDbLine
 10
80.7095984677
 20
200.9896344289
 30
0.0
 11
80.7095984235
 21
200.1450349733
 31
0.0
  0
LINE
  5
7A
330
31
100
AcDbEntity
  8
MEGA_002176
  6
HIDDEN2
 62
     7
 48
25.4
100
AcDbLine
 10
80.7095981224
 20
194.3896344486
 30
0.0
 11
80.7095979157
 21
190.4396344486
 31
0.0
  0
LINE
  5
7B
330
31
100
AcDbEntity
  8
MEGA_002176
  6
CONTINUOUS
 62
     7
 48
25.4
100
AcDbLine
 10
79.2095973783
 20
180.167658674
 30
0.0
 11
77.7095973783
 21
180.1676587525
 31
0.0
  0
ARC
  5
7D
330
31
100
AcDbEntity
  8
MEGA_002171
  6
CONTINUOUS
 62
     7
 48
25.4
100
AcDbCircle
 10
107.557955825
 20
178.8743548011
 30
0.0
 40
25.0000000215
100
AcDbArc
 50
341.9019882933
 51
0.0316933191
  0
ARC
  5
7E
330
31
100
AcDbEntity
  8
MEGA_002171
  6
CONTINUOUS
 62
     7
 48
25.4
100
AcDbCircle
 10
125.3503479524
 20
207.1781971332
 30
0.0
 40
7.0
100
AcDbArc
 50
296.5593298074
 51
351.2894952702
  0
ARC
  5
7F
330
31
100
AcDbEntity
  8
MEGA_002171
  6
CONTINUOUS
 62
     7
 48
25.4
100
AcDbCircle
 10
120.6563902188
 20
207.3258157766
 30
0.0
 40
20.00037051839999
100
AcDbArc
 50
21.8065517507
 51
54.1706108104
  0
ARC
  5
80
330
31
100
AcDbEntity
  8
MEGA_002171
  6
CONTINUOUS
 62
     7
 48
25.4
100
AcDbCircle
 10
41.7095982315
 20
194.389636487
 30
0.0
 40
99.99999989230001
100
AcDbArc
 50
350.6935040179
 51
9.305757692
  0
ARC
  5
81
330
31
100
AcDbEntity
  8
MEGA_002171
  6
CONTINUOUS
 62
     7
 48
25.4
100
AcDbCircle
 10
107.5579574735
 20
209.9041540381
 30
0.0
 40
24.99999999999999
100
AcDbArc
 50
351.2894952702
 51
360.0
  0
ARC
  5
82
330
31
100
AcDbEntity
  8
MEGA_002171
  6
CONTINUOUS
 62
     7
 48
25.4
100
AcDbCircle
 10
107.55795585
 20
178.8751120101
 30
0.0
 40
24.99999999999999
100
AcDbArc
 50
0.0
 51
8.7104987341
  0
ARC
  5
83
330
31
100
AcDbEntity
  8
MEGA_002171
  6
CONTINUOUS
 62
     7
 48
25.4
100
AcDbCircle
 10
120.6563908177
 20
207.32581657
 30
0.0
 40
20.00036952469999
100
AcDbArc
 50
54.1706108709
 51
57.2723573544
  0
ARC
  5
84
330
31
100
AcDbEntity
  8
MEGA_002171
  6
CONTINUOUS
 62
     7
 48
25.4
100
AcDbCircle
 10
120.7049721078
 20
207.3393400096
 30
0.0
 40
19.95024184099999
100
AcDbArc
 50
9.2899895552
 51
21.8223198884
  0
ARC
  5
85
330
31
100
AcDbEntity
  8
MEGA_002171
  6
CONTINUOUS
 62
     7
 48
25.4
100
AcDbCircle
 10
125.3503466141
 20
181.6010670531
 30
0.0
 40
7.0
100
AcDbArc
 50
8.7104987341
 51
63.4406641968
  0
ARC
  5
86
330
31
100
AcDbEntity
  8
MEGA_002171
  6
CONTINUOUS
 62
     7
 48
25.4
100
AcDbCircle
 10
126.2445965098
 20
205.3892534456
 30
0.0
 40
5.0
100
AcDbArc
 50
263.3010740156
 51
296.5593298074
  0
ARC
  5
87
330
31
100
AcDbEntity
  8
MEGA_002171
  6
CONTINUOUS
 62
     7
 48
25.4
100
AcDbCircle
 10
120.6565891251
 20
181.4523800308
 30
0.0
 40
20.0000000453
100
AcDbArc
 50
308.5227169111
 51
338.1937443099
  0
ARC
  5
88
330
31
100
AcDbEntity
  8
MEGA_002171
  6
CONTINUOUS
 62
     7
 48
25.4
100
AcDbCircle
 10
130.1585436754
 20
165.8899319545
 30
0.0
 40
1.0
100
AcDbArc
 50
151.5066379558
 51
179.9222221079
  0
LINE
  5
89
330
31
100
AcDbEntity
  8
MEGA_002171
  6
CONTINUOUS
 62
     7
 48
25.4
100
AcDbLine
 10
104.7095985668
 20
202.8842545723
 30
0.0
 11
104.7095976779
 21
185.895011774
 31
0.0
  0
ARC
  5
8A
330
31
100
AcDbEntity
  8
MEGA_002171
  6
CONTINUOUS
 62
     7
 48
25.4
100
AcDbCircle
 10
126.2445953587
 20
183.3900106472
 30
0.0
 40
5.0
100
AcDbArc
 50
63.4406641968
 51
96.6989199887
  0
ARC
  5
8B
330
31
100
AcDbEntity
  8
MEGA_002171
  6
CONTINUOUS
 62
     7
 48
25.4
100
AcDbCircle
 10
130.6585461983
 20
222.8892532005
 30
0.0
 40
1.500000014499989
100
AcDbArc
 50
57.2723574949
 51
135.4493188015
  0
ARC
  5
8C
330
31
100
AcDbEntity
  8
MEGA_002171
  6
CONTINUOUS
 62
     7
 48
25.4
100
AcDbCircle
 10
130.658546208
 20
222.8892532157
 30
0.0
 40
1.50000001090001
100
AcDbArc
 50
141.3388158524
 51
189.6062700707
  0
ARC
  5
8D
330
31
100
AcDbEntity
  8
MEGA_002171
  6
CONTINUOUS
 62
     7
 48
25.4
100
AcDbCircle
 10
107.5579574973
 20
209.9041540417
 30
0.0
 40
24.99999997619999
100
AcDbArc
 50
359.9691772903
 51
17.3714098515
  0
SPLINE
  5
8E
330
31
100
AcDbEntity
  8
MEGA_002171
  6
CONTINUOUS
 62
     7
 48
25.4
100
AcDbSpline
210
0.0
220
0.0
230
1.0
 70
     8
 71
     3
 72
    35
 73
    31
 74
     0
 42
0.0000000001
 43
0.0000000001
 40
0.0
 40
0.0
 40
0.0
 40
0.0
 40
0.125
 40
0.125
 40
0.125
 40
0.1874999999999999
 40
0.1874999999999999
 40
0.1874999999999999
 40
0.2499999999999999
 40
0.2499999999999999
 40
0.2499999999999999
 40
0.375
 40
0.375
 40
0.375
 40
0.5000000000000001
 40
0.5000000000000001
 40
0.5000000000000001
 40
0.6250000000000002
 40
0.6250000000000002
 40
0.6250000000000002
 40
0.7500000000000002
 40
0.7500000000000002
 40
0.7500000000000002
 40
0.8125000000000002
 40
0.8125000000000002
 40
0.8125000000000002
 40
0.8750000000000002
 40
0.8750000000000002
 40
0.8750000000000002
 40
1.0
 40
1.0
 40
1.0
 40
1.0
 10
132.2696096929911
 20
182.7357429876288
 30
0.0
 10
132.1038112679433
 20
183.8519362490374
 30
0.0
 10
131.6795555630979
 20
184.8835566009134
 30
0.0
 10
131.1643743475296
 20
185.7996994160992
 30
0.0
 10
130.9067837397455
 20
186.2577708236921
 30
0.0
 10
130.6368186653351
 20
186.679522969985
 30
0.0
 10
130.390491959723
 20
187.0880796178489
 30
0.0
 10
130.144165254111
 20
187.4966362657127
 30
0.0
 10
129.9222461401673
 20
187.8952249066907
 30
0.0
 10
129.7390753607258
 20
188.308811545354
 30
0.0
 10
129.3727338018428
 20
189.1359848226804
 30
0.0
 10
129.1582275864374
 20
190.0195901109493
 30
0.0
 10
129.0195405379827
 20
191.0514851138786
 30
0.0
 10
128.880853489528
 20
192.0833801168079
 30
0.0
 10
128.8226856529148
 20
193.2262979710434
 30
0.0
 10
128.8220020602144
 20
194.3704681174287
 30
0.0
 10
128.821318467514
 20
195.514638263814
 30
0.0
 10
128.8782971391862
 20
196.6576542296349
 30
0.0
 10
129.0141999898657
 20
197.6876723190389
 30
0.0
 10
129.1501028405451
 20
198.717690408443
 30
0.0
 10
129.369785669577
 20
199.6327672645008
 30
0.0
 10
129.7335810937864
 20
200.4580162863906
 30
0.0
 10
129.9154788058911
 20
200.8706407973354
 30
0.0
 10
130.1370084235141
 20
201.2703596098176
 30
0.0
 10
130.3849294974881
 20
201.6819525348164
 30
0.0
 10
130.6328505714622
 20
202.0935454598153
 30
0.0
 10
130.9029842093133
 20
202.5155729997535
 30
0.0
 10
131.1587444384588
 20
202.9695601023285
 30
0.0
 10
131.6702648967498
 20
203.8775343074786
 30
0.0
 10
132.1038037625049
 20
204.9272692878544
 30
0.0
 10
132.2696109125128
 20
206.0435204825383
 30
0.0
  0
LINE
  5
8F
330
31
100
AcDbEntity
  8
MEGA_002171
  6
CONTINUOUS
 62
     7
 48
25.4
100
AcDbLine
 10
129.4872654877
 20
223.8263239211
 30
0.0
 11
129.5896009206
 21
223.9415630583
 31
0.0
  0
ARC
  5
90
330
31
100
AcDbEntity
  8
MEGA_002171
  6
CONTINUOUS
 62
     7
 48
25.4
100
AcDbCircle
 10
111.9635323323
 20
212.6529054227
 30
0.0
 40
19.8658634449
100
AcDbArc
 50
23.8922381782
 51
29.6436577347
  0
ARC
  5
91
330
31
100
AcDbEntity
  8
MEGA_002171
  6
CONTINUOUS
 62
     7
 48
25.4
100
AcDbCircle
 10
129.6725684161
 20
222.7223765675
 30
0.0
 40
0.5
100
AcDbArc
 50
189.6062701592
 51
208.803631621
  0
ARC
  5
92
330
31
100
AcDbEntity
  8
MEGA_002171
  6
CONTINUOUS
 62
     7
 48
25.4
100
AcDbCircle
 10
105.089344865
 20
179.5885060532
 30
0.0
 40
27.5671575933
100
AcDbArc
 50
331.3407300956
 51
341.8669725513
  0
ARC
  5
93
330
31
100
AcDbEntity
  8
MEGA_002171
  6
CONTINUOUS
 62
     7
 48
25.4
100
AcDbCircle
 10
130.6585437904
 20
165.8892535817
 30
0.0
 40
1.499999999799996
100
AcDbArc
 50
272.2291864095
 51
302.7276107861
  0
ARC
  5
94
330
31
100
AcDbEntity
  8
MEGA_002171
  6
CONTINUOUS
 62
     7
 48
25.4
100
AcDbCircle
 10
130.6585432107
 20
165.8892532146
 30
0.0
 40
1.499999999900012
100
AcDbArc
 50
228.8510517079
 51
267.7700415208
  0
ARC
  5
95
330
31
100
AcDbEntity
  8
MEGA_002171
  6
CONTINUOUS
 62
     7
 48
25.4
100
AcDbCircle
 10
130.6585432081
 20
165.8892532149
 30
0.0
 40
1.499999993399996
100
AcDbArc
 50
179.9222221211
 51
228.8510516538
  0
ARC
  5
96
330
31
100
AcDbEntity
  8
MEGA_002171
  6
CONTINUOUS
 62
     7
 48
25.4
100
AcDbCircle
 10
130.6271295521
 20
165.2428686966
 30
0.0
 40
0.8528416986999901
100
AcDbArc
 50
264.1549475815
 51
270.6872157838
  0
ARC
  5
97
330
31
100
AcDbEntity
  8
MEGA_002171
  6
CONTINUOUS
 62
     7
 48
25.4
100
AcDbCircle
 10
130.6822295857
 20
165.3773586794
 30
0.0
 40
0.9875560597999993
100
AcDbArc
 50
269.9137332417
 51
274.752924065
  0
LINE
  5
98
330
31
100
AcDbEntity
  8
MEGA_002171
  6
CONTINUOUS
 62
     7
 48
25.4
100
AcDbLine
 10
131.3111036098
 20
171.0776906822
 30
0.0
 11
131.3211186512
 21
171.1082686846
 31
0.0
  0
LINE
  5
99
330
31
100
AcDbEntity
  8
MEGA_002171
  6
CONTINUOUS
 62
     7
 48
25.4
100
AcDbLine
 10
131.3098349252
 20
171.0781151041
 30
0.0
 11
131.2874248149
 21
171.0089499843
 31
0.0
  0
ARC
  5
9A
330
31
100
AcDbEntity
  8
MEGA_002171
  6
CONTINUOUS
 62
     7
 48
25.4
100
AcDbCircle
 10
103.6137867293
 20
180.1424298729
 30
0.0
 40
29.14296331199999
100
AcDbArc
 50
331.7764437903
 51
341.9410950751
  0
ARC
  5
9B
330
31
100
AcDbEntity
  8
MEGA_002171
  6
CONTINUOUS
 62
     7
 48
25.4
100
AcDbCircle
 10
120.6565886229
 20
181.452380663
 30
0.0
 40
20.00000085270001
100
AcDbArc
 50
302.7276372022
 51
308.5227169088
  0
ARC
  5
9C
330
31
100
AcDbEntity
  8
MEGA_002171
  6
CONTINUOUS
 62
     7
 48
25.4
100
AcDbCircle
 10
120.7051620876
 20
181.438858066
 30
0.0
 40
19.9498804694
100
AcDbArc
 50
338.1779801056
 51
350.7092682434
  0
LINE
  5
9D
330
31
100
AcDbEntity
  8
MEGA_002171
  6
CONTINUOUS
 62
     7
 48
25.4
100
AcDbLine
 10
104.7095976779
 20
185.895011774
 30
0.0
 11
125.6613352784
 21
188.3558748901
 31
0.0
  0
LINE
  5
9E
330
31
100
AcDbEntity
  8
MEGA_002171
  6
CONTINUOUS
 62
     7
 48
25.4
100
AcDbLine
 10
125.6613359099
 20
200.4233892637
 30
0.0
 11
104.7095985668
 21
202.8842545723
 31
0.0
  0
ARC
  5
9F
330
31
100
AcDbEntity
  8
MEGA_002171
  6
CONTINUOUS
 62
     7
 48
25.4
100
AcDbCircle
 10
104.4887423479
 20
208.9256204618
 30
0.0
 40
28.22138740540001
100
AcDbArc
 50
17.4070263459
 51
28.714238145
  0
LINE
  5
A2
330
31
100
AcDbEntity
  8
STANDARD
  6
CENTER2
 62
     7
 48
25.4
100
AcDbLine
 10
143.9760880988
 20
194.3887931786
 30
0.0
 11
75.5108000528
 21
194.3896625251
 31
0.0
  0
LINE
  5
A3
330
31
100
AcDbEntity
  8
STANDARD
  6
CONTINUOUS
 62
     7
 48
25.4
100
AcDbLine
 10
130.6751056232
 20
224.389253047
 30
0.0
 11
136.8235334448
 21
224.389253047
 31
0.0
  0
LINE
  5
A4
330
31
100
AcDbEntity
  8
STANDARD
  6
CONTINUOUS
 62
     7
 48
25.4
100
AcDbLine
 10
130.7002624668
 20
164.3899672746
 30
0.0
 11
137.0780581634
 21
164.3899672746
 31
0.0
  0
ENDBLK
  5
A6
330
31
100
AcDbEntity
  8
0
100
AcDbBlockEnd
  0
BLOCK
  5
AE
330
A7
100
AcDbEntity
  8
0
100
AcDbBlockBegin
  2
SE1
 70
     0
 71
     0
 10
0.0
 20
0.0
 30
0.0
  3
SE1
  1

  0
POLYLINE
  5
A9
330
A7
100
AcDbEntity
  8
DEFAULT
  6
CONTINUOUS
 62
     7
 48
25.4
100
AcDb2dPolyline
 66
     1
 10
0.0
 20
0.0
 30
0.0
 70
     1
  0
VERTEX
  5
BB
330
A9
100
AcDbEntity
  8
DEFAULT
  6
CONTINUOUS
 62
     7
100
AcDbVertex
100
AcDb2dVertex
 10
154.2308527226
 20
221.3892530209
 30
0.0
  0
VERTEX
  5
BC
330
A9
100
AcDbEntity
  8
DEFAULT
  6
CONTINUOUS
 62
     7
100
AcDbVertex
100
AcDb2dVertex
 10
153.7308527183
 20
224.389253047
 30
0.0
  0
VERTEX
  5
BD
330
A9
100
AcDbEntity
  8
DEFAULT
  6
CONTINUOUS
 62
     7
100
AcDbVertex
100
AcDb2dVertex
 10
153.2308527139
 20
221.3892530209
 30
0.0
  0
VERTEX
  5
BE
330
A9
100
AcDbEntity
  8
DEFAULT
  6
CONTINUOUS
 62
     7
100
AcDbVertex
100
AcDb2dVertex
 10
154.2308527226
 20
221.3892530209
 30
0.0
  0
SEQEND
  5
BA
330
A9
100
AcDbEntity
  8
DEFAULT
  6
CONTINUOUS
 62
     7
 48
25.4
  0
LINE
  5
AA
330
A7
100
AcDbEntity
  8
DEFAULT
  6
CONTINUOUS
 62
     7
 48
25.4
100
AcDbLine
 10
137.0780581634
 20
164.3899672746
 30
0.0
 11
155.2308527313
 21
164.3899672746
 31
0.0
  0
LINE
  5
AB
330
A7
100
AcDbEntity
  8
DEFAULT
  6
CONTINUOUS
 62
     7
 48
25.4
100
AcDbLine
 10
136.8235334448
 20
224.389253047
 30
0.0
 11
155.2308527313
 21
224.389253047
 31
0.0
  0
LINE
  5
AC
330
A7
100
AcDbEntity
  8
DEFAULT
  6
CONTINUOUS
 62
     7
 48
25.4
100
AcDbLine
 10
153.7308527183
 20
164.3899672746
 30
0.0
 11
153.7308527183
 21
224.389254403
 31
0.0
  0
TEXT
  5
AD
330
A7
100
AcDbEntity
  8
DEFAULT
  6
CONTINUOUS
 62
     7
 48
25.4
100
AcDbText
 10
152.9808527183
 20
192.582792657
 30
0.0
 40
3.0
  1
60
 50
90.0
  7
SEACAD_SEISO_TTF
 11
149.9808527183
 21
192.582792657
 31
0.0
100
AcDbText
 73
     3
  0
ENDBLK
  5
AF
330
A7
100
AcDbEntity
  8
0
100
AcDbBlockEnd
  0
BLOCK
  5
B8
330
B0
100
AcDbEntity
  8
0
100
AcDbBlockBegin
  2
SE2
 70
     0
 71
     0
 10
0.0
 20
0.0
 30
0.0
  3
SE2
  1

  0
POLYLINE
  5
B2
330
B0
100
AcDbEntity
  8
DEFAULT
  6
CONTINUOUS
 62
     7
 48
25.4
100
AcDb2dPolyline
 66
     1
 10
0.0
 20
0.0
 30
0.0
 70
     1
  0
VERTEX
  5
C0
330
B2
100
AcDbEntity
  8
DEFAULT
  6
CONTINUOUS
 62
     7
100
AcDbVertex
100
AcDb2dVertex
 10
105.7095981485
 20
233.6175735919
 30
0.0
  0
VERTEX
  5
C1
330
B2
100
AcDbEntity
  8
DEFAULT
  6
CONTINUOUS
 62
     7
100
AcDbVertex
100
AcDb2dVertex
 10
102.7095981224
 20
233.1175735876
 30
0.0
  0
VERTEX
  5
C2
330
B2
100
AcDbEntity
  8
DEFAULT
  6
CONTINUOUS
 62
     7
100
AcDbVertex
100
AcDb2dVertex
 10
105.7095981485
 20
232.6175735832
 30
0.0
  0
VERTEX
  5
C3
330
B2
100
AcDbEntity
  8
DEFAULT
  6
CONTINUOUS
 62
     7
100
AcDbVertex
100
AcDb2dVertex
 10
105.7095981485
 20
233.6175735919
 30
0.0
  0
SEQEND
  5
BF
330
B2
100
AcDbEntity
  8
DEFAULT
  6
CONTINUOUS
 62
     7
 48
25.4
  0
POLYLINE
  5
B3
330
B0
100
AcDbEntity
  8
DEFAULT
  6
CONTINUOUS
 62
     7
 48
25.4
100
AcDb2dPolyline
 66
     1
 10
0.0
 20
0.0
 30
0.0
 70
     1
  0
VERTEX
  5
C5
330
B3
100
AcDbEntity
  8
DEFAULT
  6
CONTINUOUS
 62
     7
100
AcDbVertex
100
AcDb2dVertex
 10
140.9760880727
 20
233.6175735919
 30
0.0
  0
VERTEX
  5
C6
330
B3
100
AcDbEntity
  8
DEFAULT
  6
CONTINUOUS
 62
     7
100
AcDbVertex
100
AcDb2dVertex
 10
143.9760880988
 20
233.1175735876
 30
0.0
  0
VERTEX
  5
C7
330
B3
100
AcDbEntity
  8
DEFAULT
  6
CONTINUOUS
 62
     7
100
AcDbVertex
100
AcDb2dVertex
 10
140.9760880727
 20
232.6175735832
 30
0.0
  0
VERTEX
  5
C8
330
B3
100
AcDbEntity
  8
DEFAULT
  6
CONTINUOUS
 62
     7
100
AcDbVertex
100
AcDb2dVertex
 10
140.9760880727
 20
233.6175735919
 30
0.0
  0
SEQEND
  5
C4
330
B3
100
AcDbEntity
  8
DEFAULT
  6
CONTINUOUS
 62
     7
 48
25.4
  0
LINE
  5
B4
330
B0
100
AcDbEntity
  8
DEFAULT
  6
CONTINUOUS
 62
     7
 48
25.4
100
AcDbLine
 10
102.7095981224
 20
213.3896347791
 30
0.0
 11
102.7095981224
 21
234.6175736006
 31
0.0
  0
LINE
  5
B5
330
B0
100
AcDbEntity
  8
DEFAULT
  6
CONTINUOUS
 62
     7
 48
25.4
100
AcDbLine
 10
143.9760880988
 20
194.3887931786
 30
0.0
 11
143.9760880988
 21
234.6175736006
 31
0.0
  0
LINE
  5
B6
330
B0
100
AcDbEntity
  8
DEFAULT
  6
CONTINUOUS
 62
     7
 48
25.4
100
AcDbLine
 10
102.7095981224
 20
233.1175735876
 30
0.0
 11
143.9760878964
 21
233.1175735876
 31
0.0
  0
TEXT
  5
B7
330
B0
100
AcDbEntity
  8
DEFAULT
  6
CONTINUOUS
 62
     7
 48
25.4
100
AcDbText
 10
119.6951157366
 20
233.8675735876
 30
0.0
 40
3.0
  1
41,27
  7
SEACAD_SEISO_TTF
 11
119.6951157366
 21
236.8675735876
 31
0.0
100
AcDbText
 73
     3
  0
ENDBLK
  5
B9
330
B0
100
AcDbEntity
  8
0
100
AcDbBlockEnd
  0
ENDSEC
  0
SECTION
  2
ENTITIES
  0
TEXT
  5
2F
330
1F
100
AcDbEntity
  8
DEFAULT
  6
CONTINUOUS
 62
     7
 48
25.4
100
AcDbText
 10
97.8694579391
 20
133.283623094
 30
0.0
 40
5.0
  1
41.160
  7
SEACAD_SEISO_TTF
 11
97.8694579391
 21
138.283623094
 31
0.0
100
AcDbText
 73
     3
  0
INSERT
  5
32
330
1F
100
AcDbEntity
  8
0
100
AcDbBlockReference
  2
SE
 10
0.0
 20
0.0
 30
0.0
  0
INSERT
  5
A8
330
1F
100
AcDbEntity
  8
0
100
AcDbBlockReference
  2
SE1
 10
0.0
 20
0.0
 30
0.0
  0
INSERT
  5
B1
330
1F
100
AcDbEntity
  8
0
100
AcDbBlockReference
  2
SE2
 10
0.0
 20
0.0
 30
0.0
  0
ENDSEC
  0
SECTION
  2
OBJECTS
  0
DICTIONARY
  5
C
330
0
100
AcDbDictionary
  3
ACAD_GROUP
350
D
  3
ACAD_LAYOUT
350
1A
  3
ACAD_MLINESTYLE
350
17
  3
ACAD_PLOTSETTINGS
350
19
  3
ACAD_TABLESTYLE
350
2A
  3
ACDBVARIABLEDICTIONARY
350
2C
1001
ACAD
1000
TREAT_AS_HARD
1070
     0
  0
DICTIONARY
  5
C9
330
29
100
AcDbDictionary
  3
ACAD_XREC_ROUNDTRIP
360
CA
  0
DICTIONARY
  5
D
102
{ACAD_REACTORS
330
C
102
}
330
C
100
AcDbDictionary
1001
ACAD
1000
TREAT_AS_HARD
1070
     0
  0
DICTIONARY
  5
1A
102
{ACAD_REACTORS
330
C
102
}
330
C
100
AcDbDictionary
1001
ACAD
1000
TREAT_AS_HARD
1070
     0
  0
DICTIONARY
  5
17
102
{ACAD_REACTORS
330
C
102
}
330
C
100
AcDbDictionary
  3
STANDARD
350
18
1001
ACAD
1000
TREAT_AS_HARD
1070
     0
  0
DICTIONARY
  5
19
102
{ACAD_REACTORS
330
C
102
}
330
C
100
AcDbDictionary
1001
ACAD
1000
TREAT_AS_HARD
1070
     0
  0
DICTIONARY
  5
2A
102
{ACAD_REACTORS
330
C
102
}
330
C
100
AcDbDictionary
  3
STANDARD
350
2B
1001
ACAD
1000
TREAT_AS_HARD
1070
     0
  0
DICTIONARY
  5
2C
102
{ACAD_REACTORS
330
C
102
}
330
C
100
AcDbDictionary
  3
CTABLESTYLE
350
2D
1001
ACAD
1000
TREAT_AS_HARD
1070
     0
  0
XRECORD
  5
CA
102
{ACAD_REACTORS
330
C9
102
}
330
C9
100
AcDbXrecord
102
UCS
 74
     0
 71
     1
 10
0.0
 20
0.0
 30
0.0
 10
1.0
 20
0.0
 30
0.0
 10
0.0
 20
1.0
 30
0.0
146
0.0
 79
     0
102
VIEW
281
     0
  0
MLINESTYLE
  5
18
102
{ACAD_REACTORS
330
17
102
}
330
17
100
AcDbMlineStyle
  2
Standard
 70
     0
  3

 62
   256
 51
90.0
 52
90.0
 71
     2
 49
0.5
 62
   256
  6
BYLAYER
 49
-0.5
 62
   256
  6
BYLAYER
  0
TABLESTYLE
  5
2B
102
{ACAD_REACTORS
330
2A
102
}
330
2A
100
AcDbTableStyle
  3
Standard
 70
     0
 71
     0
 40
0.06
 41
0.06
280
     0
281
     0
  7
STANDARD
140
0.18
170
     2
 62
     0
 63
     7
283
     0
274
    -2
284
     1
 64
     0
275
    -2
285
     1
 65
     0
276
    -2
286
     1
 66
     0
277
    -2
287
     1
 67
     0
278
    -2
288
     1
 68
     0
279
    -2
289
     1
 69
     0
  7
STANDARD
140
0.25
170
     5
 62
     0
 63
     7
283
     0
274
    -2
284
     1
 64
     0
275
    -2
285
     1
 65
     0
276
    -2
286
     1
 66
     0
277
    -2
287
     1
 67
     0
278
    -2
288
     1
 68
     0
279
    -2
289
     1
 69
     0
  7
STANDARD
140
0.18
170
     5
 62
     0
 63
     7
283
     0
274
    -2
284
     1
 64
     0
275
    -2
285
     1
 65
     0
276
    -2
286
     1
 66
     0
277
    -2
287
     1
 67
     0
278
    -2
288
     1
 68
     0
279
    -2
289
     1
 69
     0
  0
DICTIONARYVAR
  5
2D
102
{ACAD_REACTORS
330
2C
102
}
330
2C
100
DictionaryVariables
280
     0
  1
Standard
  0
ENDSEC
  0
EOF
