  0
SECTION
  2
HEADER
  9
$ACADVER
  1
AC1012
  9
$DWGCODEPAGE
  3
ansi_1252
  9
$INSBASE
 10
0.0
 20
0.0
 30
0.0
  9
$EXTMIN
 10
0.0
 20
0.0
 30
0.0
  9
$EXTMAX
 10
210.0
 20
297.0
 30
0.0
  9
$LIMMIN
 10
0.0
 20
0.0
  9
$LIMMAX
 10
210.0
 20
297.0
  9
$ORTHOMODE
 70
     0
  9
$REGENMODE
 70
     1
  9
$FILLMODE
 70
     1
  9
$QTEXTMODE
 70
     0
  9
$MIRRTEXT
 70
     1
  9
$DRAGMODE
 70
     2
  9
$LTSCALE
 40
1.0
  9
$OSMODE
 70
    37
  9
$ATTMODE
 70
     1
  9
$TEXTSIZE
 40
0.2
  9
$TRACEWID
 40
0.05
  9
$TEXTSTYLE
  7
STANDARD
  9
$CLAYER
  8
0
  9
$CELTYPE
  6
BYLAYER
  9
$CECOLOR
 62
   256
  9
$CELTSCALE
 40
25.4
  9
$DELOBJ
 70
     1
  9
$DISPSILH
 70
     0
  9
$DIMSCALE
 40
1.0
  9
$DIMASZ
 40
0.18
  9
$DIMEXO
 40
0.0625
  9
$DIMDLI
 40
0.38
  9
$DIMRND
 40
0.0
  9
$DIMDLE
 40
0.0
  9
$DIMEXE
 40
0.18
  9
$DIMTP
 40
0.0
  9
$DIMTM
 40
0.0
  9
$DIMTXT
 40
0.18
  9
$DIMCEN
 40
0.09
  9
$DIMTSZ
 40
0.0
  9
$DIMTOL
 70
     0
  9
$DIMLIM
 70
     0
  9
$DIMTIH
 70
     1
  9
$DIMTOH
 70
     1
  9
$DIMSE1
 70
     0
  9
$DIMSE2
 70
     0
  9
$DIMTAD
 70
     0
  9
$DIMZIN
 70
     0
  9
$DIMBLK
  1

  9
$DIMASO
 70
     1
  9
$DIMSHO
 70
     1
  9
$DIMPOST
  1

  9
$DIMAPOST
  1

  9
$DIMALT
 70
     0
  9
$DIMALTD
 70
     2
  9
$DIMALTF
 40
25.4
  9
$DIMLFAC
 40
1.0
  9
$DIMTOFL
 70
     0
  9
$DIMTVP
 40
0.0
  9
$DIMTIX
 70
     0
  9
$DIMSOXD
 70
     0
  9
$DIMSAH
 70
     0
  9
$DIMBLK1
  1

  9
$DIMBLK2
  1

  9
$DIMSTYLE
  2
STANDARD
  9
$DIMCLRD
 70
     0
  9
$DIMCLRE
 70
     0
  9
$DIMCLRT
 70
     0
  9
$DIMTFAC
 40
1.0
  9
$DIMGAP
 40
0.09
  9
$DIMJUST
 70
     0
  9
$DIMSD1
 70
     0
  9
$DIMSD2
 70
     0
  9
$DIMTOLJ
 70
     1
  9
$DIMTZIN
 70
     0
  9
$DIMALTZ
 70
     0
  9
$DIMALTTZ
 70
     0
  9
$DIMFIT
 70
     3
  9
$DIMUPT
 70
     0
  9
$DIMUNIT
 70
     2
  9
$DIMDEC
 70
     4
  9
$DIMTDEC
 70
     4
  9
$DIMALTU
 70
     2
  9
$DIMALTTD
 70
     2
  9
$DIMTXSTY
  7
STANDARD
  9
$DIMAUNIT
 70
     0
  9
$LUNITS
 70
     2
  9
$LUPREC
 70
     4
  9
$SKETCHINC
 40
0.1
  9
$FILLETRAD
 40
0.5
  9
$AUNITS
 70
     0
  9
$AUPREC
 70
     0
  9
$MENU
  1
.
  9
$ELEVATION
 40
0.0
  9
$PELEVATION
 40
0.0
  9
$THICKNESS
 40
0.0
  9
$LIMCHECK
 70
     0
  9
$CHAMFERA
 40
0.5
  9
$CHAMFERB
 40
0.5
  9
$CHAMFERC
 40
1.0
  9
$CHAMFERD
 40
0.0
  9
$SKPOLY
 70
     0
  9
$TDCREATE
 40
2453762.546091863
  9
$TDUPDATE
 40
2453762.546091875
  9
$TDINDWG
 40
0.0000000116
  9
$TDUSRTIMER
 40
0.0000000116
  9
$USRTIMER
 70
     1
  9
$ANGBASE
 50
0.0
  9
$ANGDIR
 70
     0
  9
$PDMODE
 70
     0
  9
$PDSIZE
 40
0.0
  9
$PLINEWID
 40
0.0
  9
$COORDS
 70
     1
  9
$SPLFRAME
 70
     0
  9
$SPLINETYPE
 70
     6
  9
$SPLINESEGS
 70
     8
  9
$ATTDIA
 70
     0
  9
$ATTREQ
 70
     1
  9
$HANDLING
 70
     1
  9
$HANDSEED
  5
D6
  9
$SURFTAB1
 70
     6
  9
$SURFTAB2
 70
     6
  9
$SURFTYPE
 70
     6
  9
$SURFU
 70
     6
  9
$SURFV
 70
     6
  9
$UCSNAME
  2

  9
$UCSORG
 10
0.0
 20
0.0
 30
0.0
  9
$UCSXDIR
 10
1.0
 20
0.0
 30
0.0
  9
$UCSYDIR
 10
0.0
 20
1.0
 30
0.0
  9
$PUCSNAME
  2

  9
$PUCSORG
 10
0.0
 20
0.0
 30
0.0
  9
$PUCSXDIR
 10
1.0
 20
0.0
 30
0.0
  9
$PUCSYDIR
 10
0.0
 20
1.0
 30
0.0
  9
$USERI1
 70
     0
  9
$USERI2
 70
     0
  9
$USERI3
 70
     0
  9
$USERI4
 70
     0
  9
$USERI5
 70
     0
  9
$USERR1
 40
0.0
  9
$USERR2
 40
0.0
  9
$USERR3
 40
0.0
  9
$USERR4
 40
0.0
  9
$USERR5
 40
0.0
  9
$WORLDVIEW
 70
     1
  9
$SHADEDGE
 70
     3
  9
$SHADEDIF
 70
    70
  9
$TILEMODE
 70
     1
  9
$MAXACTVP
 70
    64
  9
$PINSBASE
 10
0.0
 20
0.0
 30
0.0
  9
$PLIMCHECK
 70
     0
  9
$PEXTMIN
 10
0.0
 20
0.0
 30
0.0
  9
$PEXTMAX
 10
210.0
 20
297.0
 30
0.0
  9
$PLIMMIN
 10
0.0
 20
0.0
  9
$PLIMMAX
 10
12.0
 20
9.0
  9
$UNITMODE
 70
     0
  9
$VISRETAIN
 70
     1
  9
$PLINEGEN
 70
     0
  9
$PSLTSCALE
 70
     1
  9
$TREEDEPTH
 70
  3020
  9
$PICKSTYLE
 70
     1
  9
$CMLSTYLE
  2
STANDARD
  9
$CMLJUST
 70
     0
  9
$CMLSCALE
 40
1.0
  9
$SAVEIMAGES
 70
     1
  0
ENDSEC
  0
SECTION
  2
CLASSES
  0
CLASS
  1
ACDBDICTIONARYWDFLT
  2
AcDbDictionaryWithDefault
  3
ObjectDBX Classes
 90
        0
280
     0
281
     0
  0
CLASS
  1
TABLESTYLE
  2
AcDbTableStyle
  3
ObjectDBX Classes
 90
     2047
280
     0
281
     0
  0
CLASS
  1
DICTIONARYVAR
  2
AcDbDictionaryVar
  3
ObjectDBX Classes
 90
        0
280
     0
281
     0
  0
CLASS
  1
XRECORD
  2
AcDbXrecord
  3
AutoCAD 2000
 90
    32768
280
     0
281
     0
  0
CLASS
  1
LWPOLYLINE
  2
AcDbPolyline
  3
AutoCAD 2000
 90
    32768
280
     0
281
     1
  0
CLASS
  1
HATCH
  2
AcDbHatch
  3
AutoCAD 2000
 90
    32768
280
     0
281
     1
  0
CLASS
  1
ACDBPLACEHOLDER
  2
AcDbPlaceHolder
  3
ObjectDBX Classes
 90
        0
280
     0
281
     0
  0
CLASS
  1
LAYOUT
  2
AcDbLayout
  3
ObjectDBX Classes
 90
        0
280
     0
281
     0
  0
ENDSEC
  0
SECTION
  2
TABLES
  0
TABLE
  2
VPORT
  5
8
330
0
100
AcDbSymbolTable
 70
     2
  0
VPORT
  5
29
102
{ACAD_XDICTIONARY
360
D4
102
}
330
8
100
AcDbSymbolTableRecord
100
AcDbViewportTableRecord
  2
*ACTIVE
 70
     0
 10
0.0
 20
0.0
 11
1.0
 21
1.0
 12
10.4299065421
 22
4.5
 13
0.0
 23
0.0
 14
0.5
 24
0.5
 15
0.5
 25
0.5
 16
0.0
 26
0.0
 36
1.0
 17
0.0
 27
0.0
 37
0.0
 40
9.0
 41
1.9729729729
 42
50.0
 43
0.0
 44
0.0
 50
0.0
 51
0.0
 71
     0
 72
   100
 73
     1
 74
     3
 75
     0
 76
     0
 77
     0
 78
     0
  0
ENDTAB
  0
TABLE
  2
LTYPE
  5
5
330
0
100
AcDbSymbolTable
 70
     2
  0
LTYPE
  5
14
330
5
100
AcDbSymbolTableRecord
100
AcDbLinetypeTableRecord
  2
BYBLOCK
 70
     0
  3

 72
    65
 73
     0
 40
0.0
  0
LTYPE
  5
15
330
5
100
AcDbSymbolTableRecord
100
AcDbLinetypeTableRecord
  2
BYLAYER
 70
     0
  3

 72
    65
 73
     0
 40
0.0
  0
LTYPE
  5
16
330
5
100
AcDbSymbolTableRecord
100
AcDbLinetypeTableRecord
  2
CONTINUOUS
 70
     0
  3
Solid line
 72
    65
 73
     0
 40
0.0
  0
LTYPE
  5
6D
330
5
100
AcDbSymbolTableRecord
100
AcDbLinetypeTableRecord
  2
CENTER2
 70
     0
  3
___ _ ___ _ ___ _ ___ _ ___ _ ___ _ ___ _ ___ _
 72
    65
 73
     4
 40
1.125
 49
0.75
 74
     4
 75
     0
340
0
 46
0.0
 50
0.0
 44
0.0
 45
0.0
 49
-0.125
 74
     4
 75
     0
340
0
 46
0.0
 50
0.0
 44
0.0
 45
0.0
 49
0.125
 74
     4
 75
     0
340
0
 46
0.0
 50
0.0
 44
0.0
 45
0.0
 49
-0.125
 74
     4
 75
     0
340
0
 46
0.0
 50
0.0
 44
0.0
 45
0.0
  0
ENDTAB
  0
TABLE
  2
LAYER
  5
2
330
0
100
AcDbSymbolTable
 70
     5
  0
LAYER
  5
10
330
2
100
AcDbSymbolTableRecord
100
AcDbLayerTableRecord
  2
0
 70
     0
 62
     7
  6
CONTINUOUS
  0
LAYER
  5
30
330
2
100
AcDbSymbolTableRecord
100
AcDbLayerTableRecord
  2
DEFAULT
 70
     0
 62
     7
  6
CONTINUOUS
  0
LAYER
  5
33
330
2
100
AcDbSymbolTableRecord
100
AcDbLayerTableRecord
  2
MEGA_002181
 70
     0
 62
     7
  6
CONTINUOUS
  0
LAYER
  5
64
330
2
100
AcDbSymbolTableRecord
100
AcDbLayerTableRecord
  2
MEGA_002182
 70
     0
 62
     7
  6
CONTINUOUS
  0
LAYER
  5
6C
330
2
100
AcDbSymbolTableRecord
100
AcDbLayerTableRecord
  2
STANDARD
 70
     0
 62
     7
  6
CONTINUOUS
  0
ENDTAB
  0
TABLE
  2
STYLE
  5
3
330
0
100
AcDbSymbolTable
 70
     3
  0
STYLE
  5
11
330
3
100
AcDbSymbolTableRecord
100
AcDbTextStyleTableRecord
  2
STANDARD
 70
     0
 40
0.0
 41
1.0
 50
0.0
 71
     0
 42
0.2
  3
txt
  4

  0
STYLE
  5
2E
330
3
100
AcDbSymbolTableRecord
100
AcDbTextStyleTableRecord
  2
SEACAD_SEISO_TTF
 70
     0
 40
0.2
 41
1.0
 50
0.0
 71
     0
 42
0.2
  3
seiso.ttf
  4

  0
STYLE
  5
85
330
3
100
AcDbSymbolTableRecord
100
AcDbTextStyleTableRecord
  2
SEACAD_SEMECI1_TTF
 70
     0
 40
0.2
 41
1.0
 50
0.0
 71
     0
 42
0.2
  3
semeci1.ttf
  4

  0
ENDTAB
  0
TABLE
  2
VIEW
  5
6
330
0
100
AcDbSymbolTable
 70
     0
  0
ENDTAB
  0
TABLE
  2
UCS
  5
7
330
0
100
AcDbSymbolTable
 70
     0
  0
ENDTAB
  0
TABLE
  2
APPID
  5
9
330
0
100
AcDbSymbolTable
 70
     1
  0
APPID
  5
12
330
9
100
AcDbSymbolTableRecord
100
AcDbRegAppTableRecord
  2
ACAD
 70
     0
  0
ENDTAB
  0
TABLE
  2
DIMSTYLE
  5
A
330
0
100
AcDbSymbolTable
 70
     1
  0
DIMSTYLE
105
27
330
A
100
AcDbSymbolTableRecord
100
AcDbDimStyleTableRecord
  2
STANDARD
 70
     0
  3

  4

  5

  6

  7

 40
1.0
 41
0.18
 42
0.0625
 43
0.38
 44
0.18
 45
0.0
 46
0.0
 47
0.0
 48
0.0
140
0.18
141
0.09
142
0.0
143
25.4
144
1.0
145
0.0
146
1.0
147
0.09
 71
     0
 72
     0
 73
     1
 74
     1
 75
     0
 76
     0
 77
     0
 78
     0
170
     0
171
     2
172
     0
173
     0
174
     0
175
     0
176
     0
177
     0
178
     0
270
     2
271
     4
272
     4
273
     2
274
     2
340
11
275
     0
280
     0
281
     0
282
     0
283
     1
284
     0
285
     0
286
     0
287
     3
288
     0
  0
ENDTAB
  0
TABLE
  2
BLOCK_RECORD
  5
1
330
0
100
AcDbSymbolTable
 70
     7
  0
BLOCK_RECORD
  5
1F
330
1
100
AcDbSymbolTableRecord
100
AcDbBlockTableRecord
  2
*MODEL_SPACE
  0
BLOCK_RECORD
  5
1B
330
1
100
AcDbSymbolTableRecord
100
AcDbBlockTableRecord
  2
*PAPER_SPACE
  0
BLOCK_RECORD
  5
31
330
1
100
AcDbSymbolTableRecord
100
AcDbBlockTableRecord
  2
SE
  0
BLOCK_RECORD
  5
74
330
1
100
AcDbSymbolTableRecord
100
AcDbBlockTableRecord
  2
SE1
  0
BLOCK_RECORD
  5
7D
330
1
100
AcDbSymbolTableRecord
100
AcDbBlockTableRecord
  2
SE2
  0
BLOCK_RECORD
  5
89
330
1
100
AcDbSymbolTableRecord
100
AcDbBlockTableRecord
  2
SE3
  0
BLOCK_RECORD
  5
93
330
1
100
AcDbSymbolTableRecord
100
AcDbBlockTableRecord
  2
SE4
  0
BLOCK_RECORD
  5
9D
330
1
100
AcDbSymbolTableRecord
100
AcDbBlockTableRecord
  2
SE5
  0
ENDTAB
  0
ENDSEC
  0
SECTION
  2
BLOCKS
  0
BLOCK
  5
20
330
1F
100
AcDbEntity
  8
0
100
AcDbBlockBegin
  2
*MODEL_SPACE
 70
     0
 71
     0
 10
0.0
 20
0.0
 30
0.0
  3
*MODEL_SPACE
  1

  0
ENDBLK
  5
21
330
1F
100
AcDbEntity
  8
0
100
AcDbBlockEnd
  0
BLOCK
  5
1C
330
1B
100
AcDbEntity
 67
     1
  8
0
100
AcDbBlockBegin
  2
*PAPER_SPACE
 70
     0
 71
     0
 10
0.0
 20
0.0
 30
0.0
  3
*PAPER_SPACE
  1

  0
ENDBLK
  5
1D
330
1B
100
AcDbEntity
 67
     1
  8
0
100
AcDbBlockEnd
  0
BLOCK
  5
72
330
31
100
AcDbEntity
  8
0
100
AcDbBlockBegin
  2
SE
 70
     0
 71
     0
 10
0.0
 20
0.0
 30
0.0
  3
SE
  1

  0
LINE
  5
34
330
31
100
AcDbEntity
  8
MEGA_002181
  6
CONTINUOUS
 62
     7
 48
25.4
100
AcDbLine
 10
96.7446545791
 20
163.8567376918
 30
0.0
 11
96.7446545791
 21
163.243268001
 31
0.0
  0
LINE
  5
35
330
31
100
AcDbEntity
  8
MEGA_002181
  6
CONTINUOUS
 62
     7
 48
25.4
100
AcDbLine
 10
92.9946545791
 20
163.3737747787
 30
0.0
 11
92.9946545791
 21
164.7822734268
 31
0.0
  0
LINE
  5
36
330
31
100
AcDbEntity
  8
MEGA_002181
  6
CONTINUOUS
 62
     7
 48
25.4
100
AcDbLine
 10
110.9946545791
 20
207.2256299108
 30
0.0
 11
110.9946545791
 21
196.0301395283
 31
0.0
  0
LINE
  5
37
330
31
100
AcDbEntity
  8
MEGA_002181
  6
CONTINUOUS
 62
     7
 48
25.4
100
AcDbLine
 10
96.7446545791
 20
164.7957367906
 30
0.0
 11
96.7446545791
 21
163.8567376918
 31
0.0
  0
LINE
  5
38
330
31
100
AcDbEntity
  8
MEGA_002181
  6
CONTINUOUS
 62
     7
 48
25.4
100
AcDbLine
 10
96.7446545791
 20
183.310320393
 30
0.0
 11
96.7446545791
 21
181.5665416226
 31
0.0
  0
LINE
  5
39
330
31
100
AcDbEntity
  8
MEGA_002181
  6
CONTINUOUS
 62
     7
 48
25.4
100
AcDbLine
 10
118.4946545791
 20
207.7256299108
 30
0.0
 11
111.4946545791
 21
207.7256299108
 31
0.0
  0
LINE
  5
3A
330
31
100
AcDbEntity
  8
MEGA_002181
  6
CONTINUOUS
 62
     7
 48
25.4
100
AcDbLine
 10
111.4946545791
 20
171.7256299108
 30
0.0
 11
118.4946545791
 21
171.7256299108
 31
0.0
  0
LINE
  5
3B
330
31
100
AcDbEntity
  8
MEGA_002181
  6
CONTINUOUS
 62
     7
 48
25.4
100
AcDbLine
 10
110.9946545791
 20
183.4155058543
 30
0.0
 11
110.9946545791
 21
172.2256299108
 31
0.0
  0
ARC
  5
3C
330
31
100
AcDbEntity
  8
MEGA_002181
  6
CONTINUOUS
 62
     7
 48
25.4
100
AcDbCircle
 10
108.994661808
 20
183.4127253491
 30
0.0
 40
2.000006614300006
100
AcDbArc
 50
0.0576852586
 51
92.7280216951
  0
ARC
  5
3D
330
31
100
AcDbEntity
  8
MEGA_002181
  6
CONTINUOUS
 62
     7
 48
25.4
100
AcDbCircle
 10
96.7446545791
 20
182.4756299108
 30
0.0
 40
0.25
100
AcDbArc
 50
270.0
 51
360.0
  0
LINE
  5
3E
330
31
100
AcDbEntity
  8
MEGA_002181
  6
CONTINUOUS
 62
     7
 48
25.4
100
AcDbLine
 10
108.8983989465
 20
194.0408463232
 30
0.0
 11
105.2321560401
 21
194.2304151348
 31
0.0
  0
ARC
  5
3F
330
31
100
AcDbEntity
  8
MEGA_002181
  6
CONTINUOUS
 62
     7
 48
25.4
100
AcDbCircle
 10
105.4173712334
 20
181.6388003479
 30
0.0
 40
3.586829562800006
100
AcDbArc
 50
92.9599317238
 51
149.2946572518
  0
LINE
  5
40
330
31
100
AcDbEntity
  8
MEGA_002181
  6
CONTINUOUS
 62
     7
 48
25.4
100
AcDbLine
 10
97.2446545791
 20
182.7256299108
 30
0.0
 11
99.7174193523
 21
182.7256299108
 31
0.0
  0
ARC
  5
41
330
31
100
AcDbEntity
  8
MEGA_002181
  6
CONTINUOUS
 62
     7
 48
25.4
100
AcDbCircle
 10
100.9034961287
 20
183.7256299108
 30
0.0
 40
0.5
100
AcDbArc
 50
0.0
 51
159.45073585
  0
ARC
  5
42
330
31
100
AcDbEntity
  8
MEGA_002181
  6
CONTINUOUS
 62
     7
 48
25.4
100
AcDbCircle
 10
101.9034961287
 20
183.7256299108
 30
0.0
 40
0.5
100
AcDbArc
 50
180.0
 51
329.2946572518
  0
LINE
  5
43
330
31
100
AcDbEntity
  8
MEGA_002181
  6
CONTINUOUS
 62
     7
 48
25.4
100
AcDbLine
 10
100.4353107651
 20
195.5501235994
 30
0.0
 11
100.0919676431
 21
196.4660349599
 31
0.0
  0
ARC
  5
44
330
31
100
AcDbEntity
  8
MEGA_002181
  6
CONTINUOUS
 62
     7
 48
25.4
100
AcDbCircle
 10
99.7174193523
 20
196.3256299108
 30
0.0
 40
0.4000000000000057
100
AcDbArc
 50
20.54926415
 51
90.0
  0
ARC
  5
45
330
31
100
AcDbEntity
  8
MEGA_002181
  6
CONTINUOUS
 62
     7
 48
25.4
100
AcDbCircle
 10
97.2446545791
 20
182.4756299108
 30
0.0
 40
0.25
100
AcDbArc
 50
90.0
 51
180.0
  0
ARC
  5
46
330
31
100
AcDbEntity
  8
MEGA_002181
  6
CONTINUOUS
 62
     7
 48
25.4
100
AcDbCircle
 10
111.4946545791
 20
207.2256299108
 30
0.0
 40
0.5
100
AcDbArc
 50
90.0
 51
180.0
  0
ARC
  5
47
330
31
100
AcDbEntity
  8
MEGA_002181
  6
CONTINUOUS
 62
     7
 48
25.4
100
AcDbCircle
 10
111.4946545791
 20
172.2256299108
 30
0.0
 40
0.5
100
AcDbArc
 50
180.0
 51
270.0
  0
LINE
  5
48
330
31
100
AcDbEntity
  8
MEGA_002181
  6
CONTINUOUS
 62
     7
 48
25.4
100
AcDbLine
 10
87.9946545791
 20
186.7256299108
 30
0.0
 11
90.3946545791
 21
186.7256299108
 31
0.0
  0
LINE
  5
49
330
31
100
AcDbEntity
  8
MEGA_002181
  6
CONTINUOUS
 62
     7
 48
25.4
100
AcDbLine
 10
118.9946545791
 20
172.2256299108
 30
0.0
 11
118.9946545791
 21
207.2256299108
 31
0.0
  0
ARC
  5
4A
330
31
100
AcDbEntity
  8
MEGA_002181
  6
CONTINUOUS
 62
     7
 48
25.4
100
AcDbCircle
 10
108.994678064
 20
196.0385198208
 30
0.0
 40
2.000021556500002
100
AcDbArc
 50
267.2182305578
 51
359.7811565843
  0
ARC
  5
4B
330
31
100
AcDbEntity
  8
MEGA_002181
  6
CONTINUOUS
 62
     7
 48
25.4
100
AcDbCircle
 10
96.7446545791
 20
196.9756299108
 30
0.0
 40
0.25
100
AcDbArc
 50
0.0
 51
90.0
  0
LINE
  5
4C
330
31
100
AcDbEntity
  8
MEGA_002181
  6
CONTINUOUS
 62
     7
 48
25.4
100
AcDbLine
 10
105.2321560401
 20
185.2208446867
 30
0.0
 11
108.9000798959
 21
185.4105004145
 31
0.0
  0
ARC
  5
4D
330
31
100
AcDbEntity
  8
MEGA_002181
  6
CONTINUOUS
 62
     7
 48
25.4
100
AcDbCircle
 10
105.4173712334
 20
197.8124594736
 30
0.0
 40
3.586829562800006
100
AcDbArc
 50
210.7053427482
 51
267.0400682762
  0
LINE
  5
4E
330
31
100
AcDbEntity
  8
MEGA_002181
  6
CONTINUOUS
 62
     7
 48
25.4
100
AcDbLine
 10
96.7446545791
 20
197.2256299108
 30
0.0
 11
92.9946545791
 21
197.2256299108
 31
0.0
  0
SPLINE
  5
4F
330
31
100
AcDbEntity
  8
MEGA_002181
  6
CONTINUOUS
 62
     7
 48
25.4
100
AcDbSpline
210
0.0
220
0.0
230
1.0
 70
     8
 71
     3
 72
    17
 73
    13
 74
     0
 42
0.0000000001
 43
0.0000000001
 40
0.0
 40
0.0
 40
0.0
 40
0.0
 40
0.25
 40
0.25
 40
0.25
 40
0.5
 40
0.5
 40
0.5
 40
0.75
 40
0.75
 40
0.75
 40
1.0
 40
1.0
 40
1.0
 40
1.0
 10
96.74465457906091
 20
185.6066974393519
 30
0.0
 10
96.74465457906091
 20
185.3710022490135
 30
0.0
 10
96.66690430977394
 20
185.154103709031
 30
0.0
 10
96.61683537934145
 20
184.962925852374
 30
0.0
 10
96.56676644890897
 20
184.7717479957169
 30
0.0
 10
96.54481105265619
 20
184.593106864296
 30
0.0
 10
96.5446554343072
 20
184.399590948628
 30
0.0
 10
96.54449981595822
 20
184.2060750329599
 30
0.0
 10
96.56655682499294
 20
183.9967866071139
 30
0.0
 10
96.61667232793428
 20
183.8064763371664
 30
0.0
 10
96.66678783087561
 20
183.6161660672189
 30
0.0
 10
96.74465457906086
 20
183.4580093163757
 30
0.0
 10
96.74465457906091
 20
183.310320392959
 30
0.0
  0
LINE
  5
50
330
31
100
AcDbEntity
  8
MEGA_002181
  6
CONTINUOUS
 62
     7
 48
25.4
100
AcDbLine
 10
99.7174193523
 20
196.7256299108
 30
0.0
 11
97.2446545791
 21
196.7256299108
 31
0.0
  0
ARC
  5
51
330
31
100
AcDbEntity
  8
MEGA_002181
  6
CONTINUOUS
 62
     7
 48
25.4
100
AcDbCircle
 10
100.9034961287
 20
195.7256299108
 30
0.0
 40
0.5
100
AcDbArc
 50
200.54926415
 51
360.0
  0
ARC
  5
52
330
31
100
AcDbEntity
  8
MEGA_002181
  6
CONTINUOUS
 62
     7
 48
25.4
100
AcDbCircle
 10
101.9034961287
 20
195.7256299108
 30
0.0
 40
0.5
100
AcDbArc
 50
30.7053427482
 51
180.0
  0
LINE
  5
53
330
31
100
AcDbEntity
  8
MEGA_002181
  6
CONTINUOUS
 62
     7
 48
25.4
100
AcDbLine
 10
100.0919676431
 20
182.9852248617
 30
0.0
 11
100.4353107651
 21
183.9011362221
 31
0.0
  0
ARC
  5
54
330
31
100
AcDbEntity
  8
MEGA_002181
  6
CONTINUOUS
 62
     7
 48
25.4
100
AcDbCircle
 10
99.7174193523
 20
183.1256299108
 30
0.0
 40
0.4000000000000057
100
AcDbArc
 50
270.0
 51
339.45073585
  0
ARC
  5
55
330
31
100
AcDbEntity
  8
MEGA_002181
  6
CONTINUOUS
 62
     7
 48
25.4
100
AcDbCircle
 10
97.2446545791
 20
196.9756299108
 30
0.0
 40
0.25
100
AcDbArc
 50
180.0
 51
270.0
  0
ARC
  5
56
330
31
100
AcDbEntity
  8
MEGA_002181
  6
CONTINUOUS
 62
     7
 48
25.4
100
AcDbCircle
 10
118.4946545791
 20
207.2256299108
 30
0.0
 40
0.5
100
AcDbArc
 50
0.0
 51
90.0
  0
ARC
  5
57
330
31
100
AcDbEntity
  8
MEGA_002181
  6
CONTINUOUS
 62
     7
 48
25.4
100
AcDbCircle
 10
118.4946545791
 20
172.2256299108
 30
0.0
 40
0.5
100
AcDbArc
 50
270.0
 51
360.0
  0
LINE
  5
58
330
31
100
AcDbEntity
  8
MEGA_002181
  6
CONTINUOUS
 62
     7
 48
25.4
100
AcDbLine
 10
96.2446545791
 20
162.7256299108
 30
0.0
 11
92.9946545791
 21
162.7256299108
 31
0.0
  0
LINE
  5
59
330
31
100
AcDbEntity
  8
MEGA_002181
  6
CONTINUOUS
 62
     7
 48
25.4
100
AcDbLine
 10
87.9946545791
 20
186.7256299108
 30
0.0
 11
87.9946545791
 21
192.7256299108
 31
0.0
  0
LINE
  5
5A
330
31
100
AcDbEntity
  8
MEGA_002181
  6
CONTINUOUS
 62
     7
 48
25.4
100
AcDbLine
 10
92.9946545791
 20
167.6992270745
 30
0.0
 11
92.9946545791
 21
164.7822734268
 31
0.0
  0
LINE
  5
5B
330
31
100
AcDbEntity
  8
MEGA_002181
  6
CONTINUOUS
 62
     7
 48
25.4
100
AcDbLine
 10
92.9946545791
 20
163.3737747787
 30
0.0
 11
92.9946545791
 21
162.7256299108
 31
0.0
  0
LINE
  5
5C
330
31
100
AcDbEntity
  8
MEGA_002181
  6
CONTINUOUS
 62
     7
 48
25.4
100
AcDbLine
 10
90.3946545791
 20
192.7256299108
 30
0.0
 11
87.9946545791
 21
192.7256299108
 31
0.0
  0
LINE
  5
5D
330
31
100
AcDbEntity
  8
MEGA_002181
  6
CONTINUOUS
 62
     7
 48
25.4
100
AcDbLine
 10
101.4034961287
 20
183.7256299108
 30
0.0
 11
101.4034961287
 21
195.7256299108
 31
0.0
  0
SPLINE
  5
5E
330
31
100
AcDbEntity
  8
MEGA_002181
  6
CONTINUOUS
 62
     7
 48
25.4
100
AcDbSpline
210
0.0
220
0.0
230
1.0
 70
    24
 71
     3
 72
     8
 73
     4
 74
     0
 42
0.0000000001
 43
0.0000000001
 40
0.0
 40
0.0
 40
0.0
 40
0.0
 40
1.0
 40
1.0
 40
1.0
 40
1.0
 10
110.99538354055
 20
196.0374457987682
 30
0.0
 10
110.9953835480543
 20
196.0374457873541
 30
0.0
 10
110.9953978376471
 20
196.037424306611
 30
0.0
 10
110.9954264088447
 20
196.0373813572661
 30
0.0
  0
LINE
  5
5F
330
31
100
AcDbEntity
  8
MEGA_002181
  6
CONTINUOUS
 62
     7
 48
25.4
100
AcDbLine
 10
96.9946545791
 20
196.9756299108
 30
0.0
 11
96.9946545791
 21
182.4756299108
 31
0.0
  0
SPLINE
  5
60
330
31
100
AcDbEntity
  8
MEGA_002181
  6
CONTINUOUS
 62
     7
 48
25.4
100
AcDbSpline
210
0.0
220
0.0
230
1.0
 70
    24
 71
     3
 72
     8
 73
     4
 74
     0
 42
0.0000000001
 43
0.0000000001
 40
0.0
 40
0.0
 40
0.0
 40
0.0
 40
1.0
 40
1.0
 40
1.0
 40
1.0
 10
108.8923504750979
 20
194.0405201838491
 30
0.0
 10
108.8923032327479
 20
194.0405533485559
 30
0.0
 10
108.8922772148266
 20
194.0405716316046
 30
0.0
 10
108.8922724398526
 20
194.0405750198772
 30
0.0
  0
SPLINE
  5
61
330
31
100
AcDbEntity
  8
MEGA_002181
  6
CONTINUOUS
 62
     7
 48
25.4
100
AcDbSpline
210
0.0
220
0.0
230
1.0
 70
     8
 71
     3
 72
    14
 73
    10
 74
     0
 42
0.0000000001
 43
0.0000000001
 40
0.0
 40
0.0
 40
0.0
 40
0.0
 40
0.5
 40
0.5
 40
0.5
 40
0.75
 40
0.75
 40
0.75
 40
1.0
 40
1.0
 40
1.0
 40
1.0
 10
96.24465457906091
 20
184.3254612833044
 30
0.0
 10
96.36137332303116
 20
184.5104732334438
 30
0.0
 10
96.47967535969126
 20
184.7070514932285
 30
0.0
 10
96.574593310396
 20
184.919453449559
 30
0.0
 10
96.62205228574838
 20
185.0256544277243
 30
0.0
 10
96.66379911578196
 20
185.136512450736
 30
0.0
 10
96.69428220651403
 20
185.2508243855445
 30
0.0
 10
96.72476529724611
 20
185.365136320353
 30
0.0
 10
96.74465457906089
 20
185.4832428421561
 30
0.0
 10
96.74465457906091
 20
185.6066974393519
 30
0.0
  0
ELLIPSE
  5
62
330
31
100
AcDbEntity
  8
MEGA_002181
  6
CONTINUOUS
 62
     7
 48
25.4
100
AcDbEllipse
 10
96.2446545791
 20
163.243268001
 30
0.0
 11
0.0
 21
0.5176380902050414
 31
0.0
210
0.0
220
0.0
230
1.0
 40
0.9659258263
 41
3.141592653589793
 42
4.71238898038469
  0
LINE
  5
63
330
31
100
AcDbEntity
  8
MEGA_002181
  6
CONTINUOUS
 62
     7
 48
25.4
100
AcDbLine
 10
96.7446545791
 20
181.5665416226
 30
0.0
 11
96.7446545791
 21
164.7957367906
 31
0.0
  0
LINE
  5
65
330
31
100
AcDbEntity
  8
MEGA_002182
  6
CONTINUOUS
 62
     7
 48
25.4
100
AcDbLine
 10
92.9946545791
 20
167.6992270745
 30
0.0
 11
90.3946545791
 21
168.1591946819
 31
0.0
  0
LINE
  5
66
330
31
100
AcDbEntity
  8
MEGA_002182
  6
CONTINUOUS
 62
     7
 48
25.4
100
AcDbLine
 10
92.9946545791
 20
211.6989852424
 30
0.0
 11
90.3946545791
 21
211.2420575896
 31
0.0
  0
LINE
  5
67
330
31
100
AcDbEntity
  8
MEGA_002182
  6
CONTINUOUS
 62
     7
 48
25.4
100
AcDbLine
 10
92.9946545791
 20
211.6989852424
 30
0.0
 11
92.9946545791
 21
167.6992270745
 31
0.0
  0
LINE
  5
68
330
31
100
AcDbEntity
  8
MEGA_002182
  6
CONTINUOUS
 62
     7
 48
25.4
100
AcDbLine
 10
92.9946545791
 20
211.7520327471
 30
0.0
 11
92.9946545791
 21
211.6989852424
 31
0.0
  0
LINE
  5
69
330
31
100
AcDbEntity
  8
MEGA_002182
  6
CONTINUOUS
 62
     7
 48
25.4
100
AcDbLine
 10
90.3946545791
 20
211.2420575896
 30
0.0
 11
90.3946545791
 21
168.1591946819
 31
0.0
  0
LINE
  5
6A
330
31
100
AcDbEntity
  8
MEGA_002182
  6
CONTINUOUS
 62
     7
 48
25.4
100
AcDbLine
 10
90.3946545791
 20
211.2920651397
 30
0.0
 11
90.3946545791
 21
211.2420575896
 31
0.0
  0
LINE
  5
6B
330
31
100
AcDbEntity
  8
MEGA_002182
  6
CONTINUOUS
 62
     7
 48
25.4
100
AcDbLine
 10
92.9946545791
 20
211.7520327471
 30
0.0
 11
90.3946545791
 21
211.2920651397
 31
0.0
  0
LINE
  5
6E
330
31
100
AcDbEntity
  8
STANDARD
  6
CENTER2
 62
     7
 48
25.4
100
AcDbLine
 10
114.9946545791
 20
207.7256299108
 30
0.0
 11
114.9946545791
 21
171.7256299108
 31
0.0
  0
LINE
  5
6F
330
31
100
AcDbEntity
  8
STANDARD
  6
CENTER2
 62
     7
 48
25.4
100
AcDbLine
 10
114.9946545791
 20
189.7256299108
 30
0.0
 11
87.9946545791
 21
189.7256299108
 31
0.0
  0
LINE
  5
70
330
31
100
AcDbEntity
  8
STANDARD
  6
CENTER2
 62
     7
 48
25.4
100
AcDbLine
 10
92.9946545791
 20
206.7255364757
 30
0.0
 11
68.4886030311
 21
206.7255364757
 31
0.0
  0
LINE
  5
71
330
31
100
AcDbEntity
  8
STANDARD
  6
CENTER2
 62
     7
 48
25.4
100
AcDbLine
 10
92.9946545791
 20
172.7257233459
 30
0.0
 11
68.4886030311
 21
172.7257233459
 31
0.0
  0
ENDBLK
  5
73
330
31
100
AcDbEntity
  8
0
100
AcDbBlockEnd
  0
BLOCK
  5
7B
330
74
100
AcDbEntity
  8
0
100
AcDbBlockBegin
  2
SE1
 70
     0
 71
     0
 10
0.0
 20
0.0
 30
0.0
  3
SE1
  1

  0
POLYLINE
  5
76
330
74
100
AcDbEntity
  8
DEFAULT
  6
CONTINUOUS
 62
     7
 48
25.4
100
AcDb2dPolyline
 66
     1
 10
0.0
 20
0.0
 30
0.0
 70
     1
  0
VERTEX
  5
A8
330
76
100
AcDbEntity
  8
DEFAULT
  6
CONTINUOUS
 62
     7
100
AcDbVertex
100
AcDb2dVertex
 10
62.8569674392
 20
175.725723372
 30
0.0
  0
VERTEX
  5
A9
330
76
100
AcDbEntity
  8
DEFAULT
  6
CONTINUOUS
 62
     7
100
AcDbVertex
100
AcDb2dVertex
 10
63.3569674435
 20
172.7257233459
 30
0.0
  0
VERTEX
  5
AA
330
76
100
AcDbEntity
  8
DEFAULT
  6
CONTINUOUS
 62
     7
100
AcDbVertex
100
AcDb2dVertex
 10
63.8569674478
 20
175.725723372
 30
0.0
  0
VERTEX
  5
AB
330
76
100
AcDbEntity
  8
DEFAULT
  6
CONTINUOUS
 62
     7
100
AcDbVertex
100
AcDb2dVertex
 10
62.8569674392
 20
175.725723372
 30
0.0
  0
SEQEND
  5
A7
330
76
100
AcDbEntity
  8
DEFAULT
  6
CONTINUOUS
 62
     7
 48
25.4
  0
LINE
  5
77
330
74
100
AcDbEntity
  8
DEFAULT
  6
CONTINUOUS
 62
     7
 48
25.4
100
AcDbLine
 10
68.7630928921
 20
206.7255364757
 30
0.0
 11
61.8569674305
 21
206.7255364757
 31
0.0
  0
LINE
  5
78
330
74
100
AcDbEntity
  8
DEFAULT
  6
CONTINUOUS
 62
     7
 48
25.4
100
AcDbLine
 10
68.9188510048
 20
172.7257233459
 30
0.0
 11
61.8569674305
 21
172.7257233459
 31
0.0
  0
LINE
  5
79
330
74
100
AcDbEntity
  8
DEFAULT
  6
CONTINUOUS
 62
     7
 48
25.4
100
AcDbLine
 10
63.3569674435
 20
206.7255364757
 30
0.0
 11
63.3569674435
 21
172.7257246177
 31
0.0
  0
TEXT
  5
7A
330
74
100
AcDbEntity
  8
DEFAULT
  6
CONTINUOUS
 62
     7
 48
25.4
100
AcDbText
 10
62.6069674435
 20
188.0551760013
 30
0.0
 40
3.0
  1
34
 50
90.0
  7
SEACAD_SEISO_TTF
 11
59.6069674435
 21
188.0551760013
 31
0.0
100
AcDbText
 73
     3
  0
ENDBLK
  5
7C
330
74
100
AcDbEntity
  8
0
100
AcDbBlockEnd
  0
BLOCK
  5
87
330
7D
100
AcDbEntity
  8
0
100
AcDbBlockBegin
  2
SE2
 70
     0
 71
     0
 10
0.0
 20
0.0
 30
0.0
  3
SE2
  1

  0
POLYLINE
  5
7F
330
7D
100
AcDbEntity
  8
DEFAULT
  6
CONTINUOUS
 62
     7
 48
25.4
100
AcDb2dPolyline
 66
     1
 10
0.0
 20
0.0
 30
0.0
 70
     1
  0
VERTEX
  5
AD
330
7F
100
AcDbEntity
  8
DEFAULT
  6
CONTINUOUS
 62
     7
100
AcDbVertex
100
AcDb2dVertex
 10
107.994654553
 20
218.9548626772
 30
0.0
  0
VERTEX
  5
AE
330
7F
100
AcDbEntity
  8
DEFAULT
  6
CONTINUOUS
 62
     7
100
AcDbVertex
100
AcDb2dVertex
 10
110.9946545791
 20
218.4548626729
 30
0.0
  0
VERTEX
  5
AF
330
7F
100
AcDbEntity
  8
DEFAULT
  6
CONTINUOUS
 62
     7
100
AcDbVertex
100
AcDb2dVertex
 10
107.994654553
 20
217.9548626685
 30
0.0
  0
VERTEX
  5
B0
330
7F
100
AcDbEntity
  8
DEFAULT
  6
CONTINUOUS
 62
     7
100
AcDbVertex
100
AcDb2dVertex
 10
107.994654553
 20
218.9548626772
 30
0.0
  0
SEQEND
  5
AC
330
7F
100
AcDbEntity
  8
DEFAULT
  6
CONTINUOUS
 62
     7
 48
25.4
  0
POLYLINE
  5
80
330
7D
100
AcDbEntity
  8
DEFAULT
  6
CONTINUOUS
 62
     7
 48
25.4
100
AcDb2dPolyline
 66
     1
 10
0.0
 20
0.0
 30
0.0
 70
     1
  0
VERTEX
  5
B2
330
80
100
AcDbEntity
  8
DEFAULT
  6
CONTINUOUS
 62
     7
100
AcDbVertex
100
AcDb2dVertex
 10
121.9946546051
 20
218.9548626772
 30
0.0
  0
VERTEX
  5
B3
330
80
100
AcDbEntity
  8
DEFAULT
  6
CONTINUOUS
 62
     7
100
AcDbVertex
100
AcDb2dVertex
 10
118.9946545791
 20
218.4548626729
 30
0.0
  0
VERTEX
  5
B4
330
80
100
AcDbEntity
  8
DEFAULT
  6
CONTINUOUS
 62
     7
100
AcDbVertex
100
AcDb2dVertex
 10
121.9946546051
 20
217.9548626685
 30
0.0
  0
VERTEX
  5
B5
330
80
100
AcDbEntity
  8
DEFAULT
  6
CONTINUOUS
 62
     7
100
AcDbVertex
100
AcDb2dVertex
 10
121.9946546051
 20
218.9548626772
 30
0.0
  0
SEQEND
  5
B1
330
80
100
AcDbEntity
  8
DEFAULT
  6
CONTINUOUS
 62
     7
 48
25.4
  0
LINE
  5
81
330
7D
100
AcDbEntity
  8
DEFAULT
  6
CONTINUOUS
 62
     7
 48
25.4
100
AcDbLine
 10
110.9946545791
 20
201.6278847195
 30
0.0
 11
110.9946545791
 21
219.9548626859
 31
0.0
  0
LINE
  5
82
330
7D
100
AcDbEntity
  8
DEFAULT
  6
CONTINUOUS
 62
     7
 48
25.4
100
AcDbLine
 10
118.9946545791
 20
207.2256299108
 30
0.0
 11
118.9946545791
 21
219.9548626859
 31
0.0
  0
LINE
  5
83
330
7D
100
AcDbEntity
  8
DEFAULT
  6
CONTINUOUS
 62
     7
 48
25.4
100
AcDbLine
 10
104.9946545269
 20
218.4548626729
 30
0.0
 11
124.9946550112
 21
218.4548626729
 31
0.0
  0
TEXT
  5
84
330
7D
100
AcDbEntity
  8
DEFAULT
  6
CONTINUOUS
 62
     7
 48
25.4
100
AcDbText
 10
115.8604149914
 20
219.2048626729
 30
0.0
 40
3.0
  1
8
  7
SEACAD_SEISO_TTF
 11
115.8604149914
 21
222.2048626729
 31
0.0
100
AcDbText
 73
     3
  0
TEXT
  5
86
330
7D
100
AcDbEntity
  8
DEFAULT
  6
CONTINUOUS
 62
     7
 48
25.4
100
AcDbText
 10
112.2198036376
 20
219.2048626729
 30
0.0
 40
3.0
  1
O
  7
SEACAD_SEMECI1_TTF
 11
112.2198036376
 21
222.2048626729
 31
0.0
100
AcDbText
 73
     3
  0
ENDBLK
  5
88
330
7D
100
AcDbEntity
  8
0
100
AcDbBlockEnd
  0
BLOCK
  5
91
330
89
100
AcDbEntity
  8
0
100
AcDbBlockBegin
  2
SE3
 70
     0
 71
     0
 10
0.0
 20
0.0
 30
0.0
  3
SE3
  1

  0
POLYLINE
  5
8B
330
89
100
AcDbEntity
  8
DEFAULT
  6
CONTINUOUS
 62
     7
 48
25.4
100
AcDb2dPolyline
 66
     1
 10
0.0
 20
0.0
 30
0.0
 70
     1
  0
VERTEX
  5
B7
330
8B
100
AcDbEntity
  8
DEFAULT
  6
CONTINUOUS
 62
     7
100
AcDbVertex
100
AcDb2dVertex
 10
135.0396382237
 20
204.7256298847
 30
0.0
  0
VERTEX
  5
B8
330
8B
100
AcDbEntity
  8
DEFAULT
  6
CONTINUOUS
 62
     7
100
AcDbVertex
100
AcDb2dVertex
 10
134.5396382194
 20
207.7256299108
 30
0.0
  0
VERTEX
  5
B9
330
8B
100
AcDbEntity
  8
DEFAULT
  6
CONTINUOUS
 62
     7
100
AcDbVertex
100
AcDb2dVertex
 10
134.039638215
 20
204.7256298847
 30
0.0
  0
VERTEX
  5
BA
330
8B
100
AcDbEntity
  8
DEFAULT
  6
CONTINUOUS
 62
     7
100
AcDbVertex
100
AcDb2dVertex
 10
135.0396382237
 20
204.7256298847
 30
0.0
  0
SEQEND
  5
B6
330
8B
100
AcDbEntity
  8
DEFAULT
  6
CONTINUOUS
 62
     7
 48
25.4
  0
POLYLINE
  5
8C
330
89
100
AcDbEntity
  8
DEFAULT
  6
CONTINUOUS
 62
     7
 48
25.4
100
AcDb2dPolyline
 66
     1
 10
0.0
 20
0.0
 30
0.0
 70
     1
  0
VERTEX
  5
BC
330
8C
100
AcDbEntity
  8
DEFAULT
  6
CONTINUOUS
 62
     7
100
AcDbVertex
100
AcDb2dVertex
 10
135.0396382237
 20
174.7256299369
 30
0.0
  0
VERTEX
  5
BD
330
8C
100
AcDbEntity
  8
DEFAULT
  6
CONTINUOUS
 62
     7
100
AcDbVertex
100
AcDb2dVertex
 10
134.5396382194
 20
171.7256299108
 30
0.0
  0
VERTEX
  5
BE
330
8C
100
AcDbEntity
  8
DEFAULT
  6
CONTINUOUS
 62
     7
100
AcDbVertex
100
AcDb2dVertex
 10
134.039638215
 20
174.7256299369
 30
0.0
  0
VERTEX
  5
BF
330
8C
100
AcDbEntity
  8
DEFAULT
  6
CONTINUOUS
 62
     7
100
AcDbVertex
100
AcDb2dVertex
 10
135.0396382237
 20
174.7256299369
 30
0.0
  0
SEQEND
  5
BB
330
8C
100
AcDbEntity
  8
DEFAULT
  6
CONTINUOUS
 62
     7
 48
25.4
  0
LINE
  5
8D
330
89
100
AcDbEntity
  8
DEFAULT
  6
CONTINUOUS
 62
     7
 48
25.4
100
AcDbLine
 10
118.4946545791
 20
207.7256299108
 30
0.0
 11
136.0396382324
 21
207.7256299108
 31
0.0
  0
LINE
  5
8E
330
89
100
AcDbEntity
  8
DEFAULT
  6
CONTINUOUS
 62
     7
 48
25.4
100
AcDbLine
 10
118.4946545791
 20
171.7256299108
 30
0.0
 11
136.0396382324
 21
171.7256299108
 31
0.0
  0
LINE
  5
8F
330
89
100
AcDbEntity
  8
DEFAULT
  6
CONTINUOUS
 62
     7
 48
25.4
100
AcDbLine
 10
134.5396382194
 20
207.7256299108
 30
0.0
 11
134.5396382194
 21
171.7256314605
 31
0.0
  0
TEXT
  5
90
330
89
100
AcDbEntity
  8
DEFAULT
  6
CONTINUOUS
 62
     7
 48
25.4
100
AcDbText
 10
133.7896382194
 20
188.0210852311
 30
0.0
 40
3.0
  1
36
 50
90.0
  7
SEACAD_SEISO_TTF
 11
130.7896382194
 21
188.0210852311
 31
0.0
100
AcDbText
 73
     3
  0
ENDBLK
  5
92
330
89
100
AcDbEntity
  8
0
100
AcDbBlockEnd
  0
BLOCK
  5
9B
330
93
100
AcDbEntity
  8
0
100
AcDbBlockBegin
  2
SE4
 70
     0
 71
     0
 10
0.0
 20
0.0
 30
0.0
  3
SE4
  1

  0
POLYLINE
  5
95
330
93
100
AcDbEntity
  8
DEFAULT
  6
CONTINUOUS
 62
     7
 48
25.4
100
AcDb2dPolyline
 66
     1
 10
0.0
 20
0.0
 30
0.0
 70
     1
  0
VERTEX
  5
C1
330
95
100
AcDbEntity
  8
DEFAULT
  6
CONTINUOUS
 62
     7
100
AcDbVertex
100
AcDb2dVertex
 10
115.994654553
 20
153.5530025915
 30
0.0
  0
VERTEX
  5
C2
330
95
100
AcDbEntity
  8
DEFAULT
  6
CONTINUOUS
 62
     7
100
AcDbVertex
100
AcDb2dVertex
 10
118.9946545791
 20
154.0530025959
 30
0.0
  0
VERTEX
  5
C3
330
95
100
AcDbEntity
  8
DEFAULT
  6
CONTINUOUS
 62
     7
100
AcDbVertex
100
AcDb2dVertex
 10
115.994654553
 20
154.5530026002
 30
0.0
  0
VERTEX
  5
C4
330
95
100
AcDbEntity
  8
DEFAULT
  6
CONTINUOUS
 62
     7
100
AcDbVertex
100
AcDb2dVertex
 10
115.994654553
 20
153.5530025915
 30
0.0
  0
SEQEND
  5
C0
330
95
100
AcDbEntity
  8
DEFAULT
  6
CONTINUOUS
 62
     7
 48
25.4
  0
POLYLINE
  5
96
330
93
100
AcDbEntity
  8
DEFAULT
  6
CONTINUOUS
 62
     7
 48
25.4
100
AcDb2dPolyline
 66
     1
 10
0.0
 20
0.0
 30
0.0
 70
     1
  0
VERTEX
  5
C6
330
96
100
AcDbEntity
  8
DEFAULT
  6
CONTINUOUS
 62
     7
100
AcDbVertex
100
AcDb2dVertex
 10
95.9946546051
 20
153.5530025915
 30
0.0
  0
VERTEX
  5
C7
330
96
100
AcDbEntity
  8
DEFAULT
  6
CONTINUOUS
 62
     7
100
AcDbVertex
100
AcDb2dVertex
 10
92.9946545791
 20
154.0530025959
 30
0.0
  0
VERTEX
  5
C8
330
96
100
AcDbEntity
  8
DEFAULT
  6
CONTINUOUS
 62
     7
100
AcDbVertex
100
AcDb2dVertex
 10
95.9946546051
 20
154.5530026002
 30
0.0
  0
VERTEX
  5
C9
330
96
100
AcDbEntity
  8
DEFAULT
  6
CONTINUOUS
 62
     7
100
AcDbVertex
100
AcDb2dVertex
 10
95.9946546051
 20
153.5530025915
 30
0.0
  0
SEQEND
  5
C5
330
96
100
AcDbEntity
  8
DEFAULT
  6
CONTINUOUS
 62
     7
 48
25.4
  0
LINE
  5
97
330
93
100
AcDbEntity
  8
DEFAULT
  6
CONTINUOUS
 62
     7
 48
25.4
100
AcDbLine
 10
118.9946545791
 20
172.2256299108
 30
0.0
 11
118.9946545791
 21
152.5530025828
 31
0.0
  0
LINE
  5
98
330
93
100
AcDbEntity
  8
DEFAULT
  6
CONTINUOUS
 62
     7
 48
25.4
100
AcDbLine
 10
92.9946545791
 20
164.7822734268
 30
0.0
 11
92.9946545791
 21
152.5530025828
 31
0.0
  0
LINE
  5
99
330
93
100
AcDbEntity
  8
DEFAULT
  6
CONTINUOUS
 62
     7
 48
25.4
100
AcDbLine
 10
118.9946545791
 20
154.0530025959
 30
0.0
 11
92.9946540426
 21
154.0530025959
 31
0.0
  0
TEXT
  5
9A
330
93
100
AcDbEntity
  8
DEFAULT
  6
CONTINUOUS
 62
     7
 48
25.4
100
AcDbText
 10
104.1537452199
 20
154.8030025959
 30
0.0
 40
3.0
  1
26
  7
SEACAD_SEISO_TTF
 11
104.1537452199
 21
157.8030025959
 31
0.0
100
AcDbText
 73
     3
  0
ENDBLK
  5
9C
330
93
100
AcDbEntity
  8
0
100
AcDbBlockEnd
  0
BLOCK
  5
A5
330
9D
100
AcDbEntity
  8
0
100
AcDbBlockBegin
  2
SE5
 70
     0
 71
     0
 10
0.0
 20
0.0
 30
0.0
  3
SE5
  1

  0
POLYLINE
  5
9F
330
9D
100
AcDbEntity
  8
DEFAULT
  6
CONTINUOUS
 62
     7
 48
25.4
100
AcDb2dPolyline
 66
     1
 10
0.0
 20
0.0
 30
0.0
 70
     1
  0
VERTEX
  5
CB
330
9F
100
AcDbEntity
  8
DEFAULT
  6
CONTINUOUS
 62
     7
100
AcDbVertex
100
AcDb2dVertex
 10
115.994654553
 20
147.3481721089
 30
0.0
  0
VERTEX
  5
CC
330
9F
100
AcDbEntity
  8
DEFAULT
  6
CONTINUOUS
 62
     7
100
AcDbVertex
100
AcDb2dVertex
 10
118.9946545791
 20
147.8481721133
 30
0.0
  0
VERTEX
  5
CD
330
9F
100
AcDbEntity
  8
DEFAULT
  6
CONTINUOUS
 62
     7
100
AcDbVertex
100
AcDb2dVertex
 10
115.994654553
 20
148.3481721176
 30
0.0
  0
VERTEX
  5
CE
330
9F
100
AcDbEntity
  8
DEFAULT
  6
CONTINUOUS
 62
     7
100
AcDbVertex
100
AcDb2dVertex
 10
115.994654553
 20
147.3481721089
 30
0.0
  0
SEQEND
  5
CA
330
9F
100
AcDbEntity
  8
DEFAULT
  6
CONTINUOUS
 62
     7
 48
25.4
  0
POLYLINE
  5
A0
330
9D
100
AcDbEntity
  8
DEFAULT
  6
CONTINUOUS
 62
     7
 48
25.4
100
AcDb2dPolyline
 66
     1
 10
0.0
 20
0.0
 30
0.0
 70
     1
  0
VERTEX
  5
D0
330
A0
100
AcDbEntity
  8
DEFAULT
  6
CONTINUOUS
 62
     7
100
AcDbVertex
100
AcDb2dVertex
 10
93.3946546051
 20
147.3481721089
 30
0.0
  0
VERTEX
  5
D1
330
A0
100
AcDbEntity
  8
DEFAULT
  6
CONTINUOUS
 62
     7
100
AcDbVertex
100
AcDb2dVertex
 10
90.3946545791
 20
147.8481721133
 30
0.0
  0
VERTEX
  5
D2
330
A0
100
AcDbEntity
  8
DEFAULT
  6
CONTINUOUS
 62
     7
100
AcDbVertex
100
AcDb2dVertex
 10
93.3946546051
 20
148.3481721176
 30
0.0
  0
VERTEX
  5
D3
330
A0
100
AcDbEntity
  8
DEFAULT
  6
CONTINUOUS
 62
     7
100
AcDbVertex
100
AcDb2dVertex
 10
93.3946546051
 20
147.3481721089
 30
0.0
  0
SEQEND
  5
CF
330
A0
100
AcDbEntity
  8
DEFAULT
  6
CONTINUOUS
 62
     7
 48
25.4
  0
LINE
  5
A1
330
9D
100
AcDbEntity
  8
DEFAULT
  6
CONTINUOUS
 62
     7
 48
25.4
100
AcDbLine
 10
118.9946545791
 20
172.2256299108
 30
0.0
 11
118.9946545791
 21
146.3481721002
 31
0.0
  0
LINE
  5
A2
330
9D
100
AcDbEntity
  8
DEFAULT
  6
CONTINUOUS
 62
     7
 48
25.4
100
AcDbLine
 10
90.3946545791
 20
168.1591946819
 30
0.0
 11
90.3946545791
 21
146.3481721002
 31
0.0
  0
LINE
  5
A3
330
9D
100
AcDbEntity
  8
DEFAULT
  6
CONTINUOUS
 62
     7
 48
25.4
100
AcDbLine
 10
118.9946545791
 20
147.8481721133
 30
0.0
 11
90.394654734
 21
147.8481721133
 31
0.0
  0
TEXT
  5
A4
330
9D
100
AcDbEntity
  8
DEFAULT
  6
CONTINUOUS
 62
     7
 48
25.4
100
AcDbText
 10
102.8537455656
 20
148.5981721133
 30
0.0
 40
3.0
  1
29
  7
SEACAD_SEISO_TTF
 11
102.8537455656
 21
151.5981721133
 31
0.0
100
AcDbText
 73
     3
  0
ENDBLK
  5
A6
330
9D
100
AcDbEntity
  8
0
100
AcDbBlockEnd
  0
ENDSEC
  0
SECTION
  2
ENTITIES
  0
TEXT
  5
2F
330
1F
100
AcDbEntity
  8
DEFAULT
  6
CONTINUOUS
 62
     7
 48
25.4
100
AcDbText
 10
98.5698236747
 20
114.9921693441
 30
0.0
 40
5.0
  1
41.205
  7
SEACAD_SEISO_TTF
 11
98.5698236747
 21
119.9921693441
 31
0.0
100
AcDbText
 73
     3
  0
INSERT
  5
32
330
1F
100
AcDbEntity
  8
0
100
AcDbBlockReference
  2
SE
 10
0.0
 20
0.0
 30
0.0
  0
INSERT
  5
75
330
1F
100
AcDbEntity
  8
0
100
AcDbBlockReference
  2
SE1
 10
0.0
 20
0.0
 30
0.0
  0
INSERT
  5
7E
330
1F
100
AcDbEntity
  8
0
100
AcDbBlockReference
  2
SE2
 10
0.0
 20
0.0
 30
0.0
  0
INSERT
  5
8A
330
1F
100
AcDbEntity
  8
0
100
AcDbBlockReference
  2
SE3
 10
0.0
 20
0.0
 30
0.0
  0
INSERT
  5
94
330
1F
100
AcDbEntity
  8
0
100
AcDbBlockReference
  2
SE4
 10
0.0
 20
0.0
 30
0.0
  0
INSERT
  5
9E
330
1F
100
AcDbEntity
  8
0
100
AcDbBlockReference
  2
SE5
 10
0.0
 20
0.0
 30
0.0
  0
ENDSEC
  0
SECTION
  2
OBJECTS
  0
DICTIONARY
  5
C
330
0
100
AcDbDictionary
  3
ACAD_GROUP
350
D
  3
ACAD_LAYOUT
350
1A
  3
ACAD_MLINESTYLE
350
17
  3
ACAD_PLOTSETTINGS
350
19
  3
ACAD_TABLESTYLE
350
2A
  3
ACDBVARIABLEDICTIONARY
350
2C
1001
ACAD
1000
TREAT_AS_HARD
1070
     0
  0
DICTIONARY
  5
D4
330
29
100
AcDbDictionary
  3
ACAD_XREC_ROUNDTRIP
360
D5
  0
DICTIONARY
  5
D
102
{ACAD_REACTORS
330
C
102
}
330
C
100
AcDbDictionary
1001
ACAD
1000
TREAT_AS_HARD
1070
     0
  0
DICTIONARY
  5
1A
102
{ACAD_REACTORS
330
C
102
}
330
C
100
AcDbDictionary
1001
ACAD
1000
TREAT_AS_HARD
1070
     0
  0
DICTIONARY
  5
17
102
{ACAD_REACTORS
330
C
102
}
330
C
100
AcDbDictionary
  3
STANDARD
350
18
1001
ACAD
1000
TREAT_AS_HARD
1070
     0
  0
DICTIONARY
  5
19
102
{ACAD_REACTORS
330
C
102
}
330
C
100
AcDbDictionary
1001
ACAD
1000
TREAT_AS_HARD
1070
     0
  0
DICTIONARY
  5
2A
102
{ACAD_REACTORS
330
C
102
}
330
C
100
AcDbDictionary
  3
STANDARD
350
2B
1001
ACAD
1000
TREAT_AS_HARD
1070
     0
  0
DICTIONARY
  5
2C
102
{ACAD_REACTORS
330
C
102
}
330
C
100
AcDbDictionary
  3
CTABLESTYLE
350
2D
1001
ACAD
1000
TREAT_AS_HARD
1070
     0
  0
XRECORD
  5
D5
102
{ACAD_REACTORS
330
D4
102
}
330
D4
100
AcDbXrecord
102
UCS
 74
     0
 71
     1
 10
0.0
 20
0.0
 30
0.0
 10
1.0
 20
0.0
 30
0.0
 10
0.0
 20
1.0
 30
0.0
146
0.0
 79
     0
102
VIEW
281
     0
  0
MLINESTYLE
  5
18
102
{ACAD_REACTORS
330
17
102
}
330
17
100
AcDbMlineStyle
  2
Standard
 70
     0
  3

 62
   256
 51
90.0
 52
90.0
 71
     2
 49
0.5
 62
   256
  6
BYLAYER
 49
-0.5
 62
   256
  6
BYLAYER
  0
TABLESTYLE
  5
2B
102
{ACAD_REACTORS
330
2A
102
}
330
2A
100
AcDbTableStyle
  3
Standard
 70
     0
 71
     0
 40
0.06
 41
0.06
280
     0
281
     0
  7
STANDARD
140
0.18
170
     2
 62
     0
 63
     7
283
     0
274
    -2
284
     1
 64
     0
275
    -2
285
     1
 65
     0
276
    -2
286
     1
 66
     0
277
    -2
287
     1
 67
     0
278
    -2
288
     1
 68
     0
279
    -2
289
     1
 69
     0
  7
STANDARD
140
0.25
170
     5
 62
     0
 63
     7
283
     0
274
    -2
284
     1
 64
     0
275
    -2
285
     1
 65
     0
276
    -2
286
     1
 66
     0
277
    -2
287
     1
 67
     0
278
    -2
288
     1
 68
     0
279
    -2
289
     1
 69
     0
  7
STANDARD
140
0.18
170
     5
 62
     0
 63
     7
283
     0
274
    -2
284
     1
 64
     0
275
    -2
285
     1
 65
     0
276
    -2
286
     1
 66
     0
277
    -2
287
     1
 67
     0
278
    -2
288
     1
 68
     0
279
    -2
289
     1
 69
     0
  0
DICTIONARYVAR
  5
2D
102
{ACAD_REACTORS
330
2C
102
}
330
2C
100
DictionaryVariables
280
     0
  1
Standard
  0
ENDSEC
  0
EOF
