  0
SECTION
  2
HEADER
  9
$ACADVER
  1
AC1012
  9
$DWGCODEPAGE
  3
ansi_1252
  9
$INSBASE
 10
0.0
 20
0.0
 30
0.0
  9
$EXTMIN
 10
0.0
 20
0.0
 30
0.0
  9
$EXTMAX
 10
210.0
 20
297.0
 30
0.0
  9
$LIMMIN
 10
0.0
 20
0.0
  9
$LIMMAX
 10
210.0
 20
297.0
  9
$ORTHOMODE
 70
     0
  9
$REGENMODE
 70
     1
  9
$FILLMODE
 70
     1
  9
$QTEXTMODE
 70
     0
  9
$MIRRTEXT
 70
     1
  9
$DRAGMODE
 70
     2
  9
$LTSCALE
 40
1.0
  9
$OSMODE
 70
    37
  9
$ATTMODE
 70
     1
  9
$TEXTSIZE
 40
0.2
  9
$TRACEWID
 40
0.05
  9
$TEXTSTYLE
  7
STANDARD
  9
$CLAYER
  8
0
  9
$CELTYPE
  6
BYLAYER
  9
$CECOLOR
 62
   256
  9
$CELTSCALE
 40
25.4
  9
$DELOBJ
 70
     1
  9
$DISPSILH
 70
     0
  9
$DIMSCALE
 40
1.0
  9
$DIMASZ
 40
0.18
  9
$DIMEXO
 40
0.0625
  9
$DIMDLI
 40
0.38
  9
$DIMRND
 40
0.0
  9
$DIMDLE
 40
0.0
  9
$DIMEXE
 40
0.18
  9
$DIMTP
 40
0.0
  9
$DIMTM
 40
0.0
  9
$DIMTXT
 40
0.18
  9
$DIMCEN
 40
0.09
  9
$DIMTSZ
 40
0.0
  9
$DIMTOL
 70
     0
  9
$DIMLIM
 70
     0
  9
$DIMTIH
 70
     1
  9
$DIMTOH
 70
     1
  9
$DIMSE1
 70
     0
  9
$DIMSE2
 70
     0
  9
$DIMTAD
 70
     0
  9
$DIMZIN
 70
     0
  9
$DIMBLK
  1

  9
$DIMASO
 70
     1
  9
$DIMSHO
 70
     1
  9
$DIMPOST
  1

  9
$DIMAPOST
  1

  9
$DIMALT
 70
     0
  9
$DIMALTD
 70
     2
  9
$DIMALTF
 40
25.4
  9
$DIMLFAC
 40
1.0
  9
$DIMTOFL
 70
     0
  9
$DIMTVP
 40
0.0
  9
$DIMTIX
 70
     0
  9
$DIMSOXD
 70
     0
  9
$DIMSAH
 70
     0
  9
$DIMBLK1
  1

  9
$DIMBLK2
  1

  9
$DIMSTYLE
  2
STANDARD
  9
$DIMCLRD
 70
     0
  9
$DIMCLRE
 70
     0
  9
$DIMCLRT
 70
     0
  9
$DIMTFAC
 40
1.0
  9
$DIMGAP
 40
0.09
  9
$DIMJUST
 70
     0
  9
$DIMSD1
 70
     0
  9
$DIMSD2
 70
     0
  9
$DIMTOLJ
 70
     1
  9
$DIMTZIN
 70
     0
  9
$DIMALTZ
 70
     0
  9
$DIMALTTZ
 70
     0
  9
$DIMFIT
 70
     3
  9
$DIMUPT
 70
     0
  9
$DIMUNIT
 70
     2
  9
$DIMDEC
 70
     4
  9
$DIMTDEC
 70
     4
  9
$DIMALTU
 70
     2
  9
$DIMALTTD
 70
     2
  9
$DIMTXSTY
  7
STANDARD
  9
$DIMAUNIT
 70
     0
  9
$LUNITS
 70
     2
  9
$LUPREC
 70
     4
  9
$SKETCHINC
 40
0.1
  9
$FILLETRAD
 40
0.5
  9
$AUNITS
 70
     0
  9
$AUPREC
 70
     0
  9
$MENU
  1
.
  9
$ELEVATION
 40
0.0
  9
$PELEVATION
 40
0.0
  9
$THICKNESS
 40
0.0
  9
$LIMCHECK
 70
     0
  9
$CHAMFERA
 40
0.5
  9
$CHAMFERB
 40
0.5
  9
$CHAMFERC
 40
1.0
  9
$CHAMFERD
 40
0.0
  9
$SKPOLY
 70
     0
  9
$TDCREATE
 40
2453762.546210498
  9
$TDUPDATE
 40
2453762.546210509
  9
$TDINDWG
 40
0.0000000116
  9
$TDUSRTIMER
 40
0.0000000116
  9
$USRTIMER
 70
     1
  9
$ANGBASE
 50
0.0
  9
$ANGDIR
 70
     0
  9
$PDMODE
 70
     0
  9
$PDSIZE
 40
0.0
  9
$PLINEWID
 40
0.0
  9
$COORDS
 70
     1
  9
$SPLFRAME
 70
     0
  9
$SPLINETYPE
 70
     6
  9
$SPLINESEGS
 70
     8
  9
$ATTDIA
 70
     0
  9
$ATTREQ
 70
     1
  9
$HANDLING
 70
     1
  9
$HANDSEED
  5
195
  9
$SURFTAB1
 70
     6
  9
$SURFTAB2
 70
     6
  9
$SURFTYPE
 70
     6
  9
$SURFU
 70
     6
  9
$SURFV
 70
     6
  9
$UCSNAME
  2

  9
$UCSORG
 10
0.0
 20
0.0
 30
0.0
  9
$UCSXDIR
 10
1.0
 20
0.0
 30
0.0
  9
$UCSYDIR
 10
0.0
 20
1.0
 30
0.0
  9
$PUCSNAME
  2

  9
$PUCSORG
 10
0.0
 20
0.0
 30
0.0
  9
$PUCSXDIR
 10
1.0
 20
0.0
 30
0.0
  9
$PUCSYDIR
 10
0.0
 20
1.0
 30
0.0
  9
$USERI1
 70
     0
  9
$USERI2
 70
     0
  9
$USERI3
 70
     0
  9
$USERI4
 70
     0
  9
$USERI5
 70
     0
  9
$USERR1
 40
0.0
  9
$USERR2
 40
0.0
  9
$USERR3
 40
0.0
  9
$USERR4
 40
0.0
  9
$USERR5
 40
0.0
  9
$WORLDVIEW
 70
     1
  9
$SHADEDGE
 70
     3
  9
$SHADEDIF
 70
    70
  9
$TILEMODE
 70
     1
  9
$MAXACTVP
 70
    64
  9
$PINSBASE
 10
0.0
 20
0.0
 30
0.0
  9
$PLIMCHECK
 70
     0
  9
$PEXTMIN
 10
0.0
 20
0.0
 30
0.0
  9
$PEXTMAX
 10
210.0
 20
297.0
 30
0.0
  9
$PLIMMIN
 10
0.0
 20
0.0
  9
$PLIMMAX
 10
12.0
 20
9.0
  9
$UNITMODE
 70
     0
  9
$VISRETAIN
 70
     1
  9
$PLINEGEN
 70
     0
  9
$PSLTSCALE
 70
     1
  9
$TREEDEPTH
 70
  3020
  9
$PICKSTYLE
 70
     1
  9
$CMLSTYLE
  2
STANDARD
  9
$CMLJUST
 70
     0
  9
$CMLSCALE
 40
1.0
  9
$SAVEIMAGES
 70
     1
  0
ENDSEC
  0
SECTION
  2
CLASSES
  0
CLASS
  1
ACDBDICTIONARYWDFLT
  2
AcDbDictionaryWithDefault
  3
ObjectDBX Classes
 90
        0
280
     0
281
     0
  0
CLASS
  1
TABLESTYLE
  2
AcDbTableStyle
  3
ObjectDBX Classes
 90
     2047
280
     0
281
     0
  0
CLASS
  1
DICTIONARYVAR
  2
AcDbDictionaryVar
  3
ObjectDBX Classes
 90
        0
280
     0
281
     0
  0
CLASS
  1
XRECORD
  2
AcDbXrecord
  3
AutoCAD 2000
 90
    32768
280
     0
281
     0
  0
CLASS
  1
LWPOLYLINE
  2
AcDbPolyline
  3
AutoCAD 2000
 90
    32768
280
     0
281
     1
  0
CLASS
  1
HATCH
  2
AcDbHatch
  3
AutoCAD 2000
 90
    32768
280
     0
281
     1
  0
CLASS
  1
ACDBPLACEHOLDER
  2
AcDbPlaceHolder
  3
ObjectDBX Classes
 90
        0
280
     0
281
     0
  0
CLASS
  1
LAYOUT
  2
AcDbLayout
  3
ObjectDBX Classes
 90
        0
280
     0
281
     0
  0
ENDSEC
  0
SECTION
  2
TABLES
  0
TABLE
  2
VPORT
  5
8
330
0
100
AcDbSymbolTable
 70
     2
  0
VPORT
  5
29
102
{ACAD_XDICTIONARY
360
193
102
}
330
8
100
AcDbSymbolTableRecord
100
AcDbViewportTableRecord
  2
*ACTIVE
 70
     0
 10
0.0
 20
0.0
 11
1.0
 21
1.0
 12
10.4299065421
 22
4.5
 13
0.0
 23
0.0
 14
0.5
 24
0.5
 15
0.5
 25
0.5
 16
0.0
 26
0.0
 36
1.0
 17
0.0
 27
0.0
 37
0.0
 40
9.0
 41
1.9729729729
 42
50.0
 43
0.0
 44
0.0
 50
0.0
 51
0.0
 71
     0
 72
   100
 73
     1
 74
     3
 75
     0
 76
     0
 77
     0
 78
     0
  0
ENDTAB
  0
TABLE
  2
LTYPE
  5
5
330
0
100
AcDbSymbolTable
 70
     3
  0
LTYPE
  5
14
330
5
100
AcDbSymbolTableRecord
100
AcDbLinetypeTableRecord
  2
BYBLOCK
 70
     0
  3

 72
    65
 73
     0
 40
0.0
  0
LTYPE
  5
15
330
5
100
AcDbSymbolTableRecord
100
AcDbLinetypeTableRecord
  2
BYLAYER
 70
     0
  3

 72
    65
 73
     0
 40
0.0
  0
LTYPE
  5
16
330
5
100
AcDbSymbolTableRecord
100
AcDbLinetypeTableRecord
  2
CONTINUOUS
 70
     0
  3
Solid line
 72
    65
 73
     0
 40
0.0
  0
LTYPE
  5
3A
330
5
100
AcDbSymbolTableRecord
100
AcDbLinetypeTableRecord
  2
HIDDEN2
 70
     0
  3
_ _ _ _ _ _ _ _ _ _ _ _ _ _ _ _ _ _ _ _ _ _ _ _
 72
    65
 73
     2
 40
0.1875
 49
0.125
 74
     4
 75
     0
340
0
 46
0.0
 50
0.0
 44
0.0
 45
0.0
 49
-0.0625
 74
     4
 75
     0
340
0
 46
0.0
 50
0.0
 44
0.0
 45
0.0
  0
LTYPE
  5
45
330
5
100
AcDbSymbolTableRecord
100
AcDbLinetypeTableRecord
  2
CENTER2
 70
     0
  3
___ _ ___ _ ___ _ ___ _ ___ _ ___ _ ___ _ ___ _
 72
    65
 73
     4
 40
1.125
 49
0.75
 74
     4
 75
     0
340
0
 46
0.0
 50
0.0
 44
0.0
 45
0.0
 49
-0.125
 74
     4
 75
     0
340
0
 46
0.0
 50
0.0
 44
0.0
 45
0.0
 49
0.125
 74
     4
 75
     0
340
0
 46
0.0
 50
0.0
 44
0.0
 45
0.0
 49
-0.125
 74
     4
 75
     0
340
0
 46
0.0
 50
0.0
 44
0.0
 45
0.0
  0
ENDTAB
  0
TABLE
  2
LAYER
  5
2
330
0
100
AcDbSymbolTable
 70
     5
  0
LAYER
  5
10
330
2
100
AcDbSymbolTableRecord
100
AcDbLayerTableRecord
  2
0
 70
     0
 62
     7
  6
CONTINUOUS
  0
LAYER
  5
30
330
2
100
AcDbSymbolTableRecord
100
AcDbLayerTableRecord
  2
DEFAULT
 70
     0
 62
     7
  6
CONTINUOUS
  0
LAYER
  5
33
330
2
100
AcDbSymbolTableRecord
100
AcDbLayerTableRecord
  2
MEGA_002237
 70
     0
 62
     7
  6
CONTINUOUS
  0
LAYER
  5
39
330
2
100
AcDbSymbolTableRecord
100
AcDbLayerTableRecord
  2
MEGA_002238
 70
     0
 62
     7
  6
CONTINUOUS
  0
LAYER
  5
44
330
2
100
AcDbSymbolTableRecord
100
AcDbLayerTableRecord
  2
STANDARD
 70
     0
 62
     7
  6
CONTINUOUS
  0
ENDTAB
  0
TABLE
  2
STYLE
  5
3
330
0
100
AcDbSymbolTable
 70
     3
  0
STYLE
  5
11
330
3
100
AcDbSymbolTableRecord
100
AcDbTextStyleTableRecord
  2
STANDARD
 70
     0
 40
0.0
 41
1.0
 50
0.0
 71
     0
 42
0.2
  3
txt
  4

  0
STYLE
  5
2E
330
3
100
AcDbSymbolTableRecord
100
AcDbTextStyleTableRecord
  2
SEACAD_SEISO_TTF
 70
     0
 40
0.2
 41
1.0
 50
0.0
 71
     0
 42
0.2
  3
seiso.ttf
  4

  0
STYLE
  5
AA
330
3
100
AcDbSymbolTableRecord
100
AcDbTextStyleTableRecord
  2
SEACAD_SEMECI1_TTF
 70
     0
 40
0.2
 41
1.0
 50
0.0
 71
     0
 42
0.2
  3
semeci1.ttf
  4

  0
ENDTAB
  0
TABLE
  2
VIEW
  5
6
330
0
100
AcDbSymbolTable
 70
     0
  0
ENDTAB
  0
TABLE
  2
UCS
  5
7
330
0
100
AcDbSymbolTable
 70
     0
  0
ENDTAB
  0
TABLE
  2
APPID
  5
9
330
0
100
AcDbSymbolTable
 70
     1
  0
APPID
  5
12
330
9
100
AcDbSymbolTableRecord
100
AcDbRegAppTableRecord
  2
ACAD
 70
     0
  0
ENDTAB
  0
TABLE
  2
DIMSTYLE
  5
A
330
0
100
AcDbSymbolTable
 70
     1
  0
DIMSTYLE
105
27
330
A
100
AcDbSymbolTableRecord
100
AcDbDimStyleTableRecord
  2
STANDARD
 70
     0
  3

  4

  5

  6

  7

 40
1.0
 41
0.18
 42
0.0625
 43
0.38
 44
0.18
 45
0.0
 46
0.0
 47
0.0
 48
0.0
140
0.18
141
0.09
142
0.0
143
25.4
144
1.0
145
0.0
146
1.0
147
0.09
 71
     0
 72
     0
 73
     1
 74
     1
 75
     0
 76
     0
 77
     0
 78
     0
170
     0
171
     2
172
     0
173
     0
174
     0
175
     0
176
     0
177
     0
178
     0
270
     2
271
     4
272
     4
273
     2
274
     2
340
11
275
     0
280
     0
281
     0
282
     0
283
     1
284
     0
285
     0
286
     0
287
     3
288
     0
  0
ENDTAB
  0
TABLE
  2
BLOCK_RECORD
  5
1
330
0
100
AcDbSymbolTable
 70
    17
  0
BLOCK_RECORD
  5
1F
330
1
100
AcDbSymbolTableRecord
100
AcDbBlockTableRecord
  2
*MODEL_SPACE
  0
BLOCK_RECORD
  5
1B
330
1
100
AcDbSymbolTableRecord
100
AcDbBlockTableRecord
  2
*PAPER_SPACE
  0
BLOCK_RECORD
  5
31
330
1
100
AcDbSymbolTableRecord
100
AcDbBlockTableRecord
  2
SE
  0
BLOCK_RECORD
  5
4E
330
1
100
AcDbSymbolTableRecord
100
AcDbBlockTableRecord
  2
SE1
  0
BLOCK_RECORD
  5
7B
330
1
100
AcDbSymbolTableRecord
100
AcDbBlockTableRecord
  2
SE2
  0
BLOCK_RECORD
  5
84
330
1
100
AcDbSymbolTableRecord
100
AcDbBlockTableRecord
  2
SE3
  0
BLOCK_RECORD
  5
8E
330
1
100
AcDbSymbolTableRecord
100
AcDbBlockTableRecord
  2
SE4
  0
BLOCK_RECORD
  5
98
330
1
100
AcDbSymbolTableRecord
100
AcDbBlockTableRecord
  2
SE5
  0
BLOCK_RECORD
  5
A2
330
1
100
AcDbSymbolTableRecord
100
AcDbBlockTableRecord
  2
SE6
  0
BLOCK_RECORD
  5
AE
330
1
100
AcDbSymbolTableRecord
100
AcDbBlockTableRecord
  2
SE7
  0
BLOCK_RECORD
  5
B9
330
1
100
AcDbSymbolTableRecord
100
AcDbBlockTableRecord
  2
SE8
  0
BLOCK_RECORD
  5
C4
330
1
100
AcDbSymbolTableRecord
100
AcDbBlockTableRecord
  2
SE9
  0
BLOCK_RECORD
  5
CF
330
1
100
AcDbSymbolTableRecord
100
AcDbBlockTableRecord
  2
SE10
  0
BLOCK_RECORD
  5
D9
330
1
100
AcDbSymbolTableRecord
100
AcDbBlockTableRecord
  2
SE11
  0
BLOCK_RECORD
  5
E3
330
1
100
AcDbSymbolTableRecord
100
AcDbBlockTableRecord
  2
SE12
  0
BLOCK_RECORD
  5
ED
330
1
100
AcDbSymbolTableRecord
100
AcDbBlockTableRecord
  2
SE13
  0
BLOCK_RECORD
  5
F7
330
1
100
AcDbSymbolTableRecord
100
AcDbBlockTableRecord
  2
SE14
  0
BLOCK_RECORD
  5
101
330
1
100
AcDbSymbolTableRecord
100
AcDbBlockTableRecord
  2
SE15
  0
ENDTAB
  0
ENDSEC
  0
SECTION
  2
BLOCKS
  0
BLOCK
  5
20
330
1F
100
AcDbEntity
  8
0
100
AcDbBlockBegin
  2
*MODEL_SPACE
 70
     0
 71
     0
 10
0.0
 20
0.0
 30
0.0
  3
*MODEL_SPACE
  1

  0
ENDBLK
  5
21
330
1F
100
AcDbEntity
  8
0
100
AcDbBlockEnd
  0
BLOCK
  5
1C
330
1B
100
AcDbEntity
 67
     1
  8
0
100
AcDbBlockBegin
  2
*PAPER_SPACE
 70
     0
 71
     0
 10
0.0
 20
0.0
 30
0.0
  3
*PAPER_SPACE
  1

  0
ENDBLK
  5
1D
330
1B
100
AcDbEntity
 67
     1
  8
0
100
AcDbBlockEnd
  0
BLOCK
  5
4C
330
31
100
AcDbEntity
  8
0
100
AcDbBlockBegin
  2
SE
 70
     0
 71
     0
 10
0.0
 20
0.0
 30
0.0
  3
SE
  1

  0
CIRCLE
  5
34
330
31
100
AcDbEntity
  8
MEGA_002237
  6
CONTINUOUS
 62
     7
 48
25.4
100
AcDbCircle
 10
43.6276652487
 20
176.7782222794
 30
0.0
 40
7.999999999999993
  0
ARC
  5
35
330
31
100
AcDbEntity
  8
MEGA_002237
  6
CONTINUOUS
 62
     7
 48
25.4
100
AcDbCircle
 10
43.6276652487
 20
193.7782222794
 30
0.0
 40
15.5
100
AcDbArc
 50
0.0
 51
180.0
  0
ARC
  5
36
330
31
100
AcDbEntity
  8
MEGA_002237
  6
CONTINUOUS
 62
     7
 48
25.4
100
AcDbCircle
 10
43.6276652487
 20
159.7782222794
 30
0.0
 40
15.5
100
AcDbArc
 50
180.0
 51
360.0
  0
LINE
  5
37
330
31
100
AcDbEntity
  8
MEGA_002237
  6
CONTINUOUS
 62
     7
 48
25.4
100
AcDbLine
 10
59.1276652487
 20
193.7782222794
 30
0.0
 11
59.1276652487
 21
159.7782222794
 31
0.0
  0
LINE
  5
38
330
31
100
AcDbEntity
  8
MEGA_002237
  6
CONTINUOUS
 62
     7
 48
25.4
100
AcDbLine
 10
28.1276652487
 20
159.7782222794
 30
0.0
 11
28.1276652487
 21
193.7782222794
 31
0.0
  0
CIRCLE
  5
3B
330
31
100
AcDbEntity
  8
MEGA_002238
  6
HIDDEN2
 62
     7
 48
25.4
100
AcDbCircle
 10
43.6276652487
 20
155.2782222794
 30
0.0
 40
4.999999999999993
  0
CIRCLE
  5
3C
330
31
100
AcDbEntity
  8
MEGA_002238
  6
HIDDEN2
 62
     7
 48
25.4
100
AcDbCircle
 10
43.6276652487
 20
198.2782222794
 30
0.0
 40
4.999999999999993
  0
LINE
  5
3D
330
31
100
AcDbEntity
  8
MEGA_002238
  6
CONTINUOUS
 62
     7
 48
25.4
100
AcDbLine
 10
39.6276652487
 20
172.7782222794
 30
0.0
 11
47.6276652487
 21
172.7782222794
 31
0.0
  0
LINE
  5
3E
330
31
100
AcDbEntity
  8
MEGA_002238
  6
CONTINUOUS
 62
     7
 48
25.4
100
AcDbLine
 10
47.6276652487
 20
180.7782222794
 30
0.0
 11
39.6276652487
 21
180.7782222794
 31
0.0
  0
LINE
  5
3F
330
31
100
AcDbEntity
  8
MEGA_002238
  6
CONTINUOUS
 62
     7
 48
25.4
100
AcDbLine
 10
39.6276652487
 20
180.7782222794
 30
0.0
 11
39.6276652487
 21
172.7782222794
 31
0.0
  0
CIRCLE
  5
40
330
31
100
AcDbEntity
  8
MEGA_002238
  6
HIDDEN2
 62
     7
 48
25.4
100
AcDbCircle
 10
43.6276652487
 20
155.2782222794
 30
0.0
 40
2.899999999999992
  0
CIRCLE
  5
41
330
31
100
AcDbEntity
  8
MEGA_002238
  6
HIDDEN2
 62
     7
 48
25.4
100
AcDbCircle
 10
43.6276652487
 20
198.2782222794
 30
0.0
 40
2.899999999999992
  0
LINE
  5
42
330
31
100
AcDbEntity
  8
MEGA_002238
  6
CONTINUOUS
 62
     7
 48
25.4
100
AcDbLine
 10
47.6276652487
 20
172.7782222794
 30
0.0
 11
47.6276652487
 21
180.7782222794
 31
0.0
  0
CIRCLE
  5
43
330
31
100
AcDbEntity
  8
MEGA_002238
  6
CONTINUOUS
 62
     7
 48
25.4
100
AcDbCircle
 10
42.3276652487
 20
176.7782222794
 30
0.0
 40
1.999999999999993
  0
LINE
  5
46
330
31
100
AcDbEntity
  8
STANDARD
  6
CENTER2
 62
     7
 48
25.4
100
AcDbLine
 10
43.6276652487
 20
209.2782222794
 30
0.0
 11
43.6276652487
 21
144.2782222794
 31
0.0
  0
LINE
  5
47
330
31
100
AcDbEntity
  8
STANDARD
  6
CENTER2
 62
     7
 48
25.4
100
AcDbLine
 10
28.1276652487
 20
176.7782222794
 30
0.0
 11
59.1276652487
 21
176.7782222794
 31
0.0
  0
LINE
  5
48
330
31
100
AcDbEntity
  8
STANDARD
  6
CENTER2
 62
     7
 48
25.4
100
AcDbLine
 10
43.6276652487
 20
209.2782222794
 30
0.0
 11
43.6276652487
 21
214.4008601131
 31
0.0
  0
LINE
  5
49
330
31
100
AcDbEntity
  8
STANDARD
  6
CENTER2
 62
     7
 48
25.4
100
AcDbLine
 10
59.1276652487
 20
176.7782222794
 30
0.0
 11
63.7942665082
 21
176.7782222794
 31
0.0
  0
LINE
  5
4A
330
31
100
AcDbEntity
  8
STANDARD
  6
CENTER2
 62
     7
 48
25.4
100
AcDbLine
 10
28.1276652487
 20
176.7782222794
 30
0.0
 11
23.0273736394
 21
176.7782222794
 31
0.0
  0
LINE
  5
4B
330
31
100
AcDbEntity
  8
STANDARD
  6
CENTER2
 62
     7
 48
25.4
100
AcDbLine
 10
43.6276652487
 20
144.2782222794
 30
0.0
 11
43.6276652487
 21
138.9387392709
 31
0.0
  0
ENDBLK
  5
4D
330
31
100
AcDbEntity
  8
0
100
AcDbBlockEnd
  0
BLOCK
  5
79
330
4E
100
AcDbEntity
  8
0
100
AcDbBlockBegin
  2
SE1
 70
     0
 71
     0
 10
0.0
 20
0.0
 30
0.0
  3
SE1
  1

  0
LINE
  5
50
330
4E
100
AcDbEntity
  8
MEGA_002237
  6
CONTINUOUS
 62
     7
 48
25.4
100
AcDbLine
 10
130.6784445724
 20
144.2782222794
 30
0.0
 11
140.6784445724
 21
144.2782222794
 31
0.0
  0
LINE
  5
51
330
4E
100
AcDbEntity
  8
MEGA_002237
  6
CONTINUOUS
 62
     7
 48
25.4
100
AcDbLine
 10
130.6784445724
 20
193.7782222794
 30
0.0
 11
130.6784445724
 21
159.7782222794
 31
0.0
  0
LINE
  5
52
330
4E
100
AcDbEntity
  8
MEGA_002237
  6
CONTINUOUS
 62
     7
 48
25.4
100
AcDbLine
 10
130.6784445724
 20
209.2782222794
 30
0.0
 11
130.6784445724
 21
193.7782222794
 31
0.0
  0
LINE
  5
53
330
4E
100
AcDbEntity
  8
MEGA_002237
  6
CONTINUOUS
 62
     7
 48
25.4
100
AcDbLine
 10
130.6784445724
 20
144.2782222794
 30
0.0
 11
130.6784445724
 21
159.7782222794
 31
0.0
  0
LINE
  5
54
330
4E
100
AcDbEntity
  8
MEGA_002237
  6
CONTINUOUS
 62
     7
 48
25.4
100
AcDbLine
 10
142.6784445724
 20
146.2782222794
 30
0.0
 11
142.6784445724
 21
159.7782222794
 31
0.0
  0
LINE
  5
55
330
4E
100
AcDbEntity
  8
MEGA_002237
  6
CONTINUOUS
 62
     7
 48
25.4
100
AcDbLine
 10
142.6784445724
 20
193.7782222794
 30
0.0
 11
142.6784445724
 21
159.7782222794
 31
0.0
  0
LINE
  5
56
330
4E
100
AcDbEntity
  8
MEGA_002237
  6
CONTINUOUS
 62
     7
 48
25.4
100
AcDbLine
 10
142.6784445724
 20
207.2782222794
 30
0.0
 11
142.6784445724
 21
193.7782222794
 31
0.0
  0
ARC
  5
57
330
4E
100
AcDbEntity
  8
MEGA_002237
  6
CONTINUOUS
 62
     7
 48
25.4
100
AcDbCircle
 10
140.6784445724
 20
207.2782222794
 30
0.0
 40
2.0
100
AcDbArc
 50
0.0
 51
90.0
  0
LINE
  5
58
330
4E
100
AcDbEntity
  8
MEGA_002237
  6
CONTINUOUS
 62
     7
 48
25.4
100
AcDbLine
 10
140.6784445724
 20
209.2782222794
 30
0.0
 11
130.6784445724
 21
209.2782222794
 31
0.0
  0
ARC
  5
59
330
4E
100
AcDbEntity
  8
MEGA_002237
  6
CONTINUOUS
 62
     7
 48
25.4
100
AcDbCircle
 10
140.6784445724
 20
146.2782222794
 30
0.0
 40
2.0
100
AcDbArc
 50
270.0
 51
360.0
  0
LINE
  5
5A
330
4E
100
AcDbEntity
  8
MEGA_002238
  6
CONTINUOUS
 62
     7
 48
25.4
100
AcDbLine
 10
128.1784445724
 20
150.2782222794
 30
0.0
 11
130.6784445724
 21
150.2782222794
 31
0.0
  0
LINE
  5
5B
330
4E
100
AcDbEntity
  8
MEGA_002238
  6
CONTINUOUS
 62
     7
 48
25.4
100
AcDbLine
 10
128.1784445724
 20
193.2782222794
 30
0.0
 11
130.6784445724
 21
193.2782222794
 31
0.0
  0
LINE
  5
5C
330
4E
100
AcDbEntity
  8
MEGA_002238
  6
HIDDEN2
 62
     7
 48
25.4
100
AcDbLine
 10
131.6784445724
 20
168.5282222794
 30
0.0
 11
141.6784445724
 21
168.5282222794
 31
0.0
  0
LINE
  5
5D
330
4E
100
AcDbEntity
  8
MEGA_002238
  6
CONTINUOUS
 62
     7
 48
25.4
100
AcDbLine
 10
124.6784445724
 20
170.5282222794
 30
0.0
 11
130.6784445724
 21
170.5282222794
 31
0.0
  0
LINE
  5
5E
330
4E
100
AcDbEntity
  8
MEGA_002238
  6
CONTINUOUS
 62
     7
 48
25.4
100
AcDbLine
 10
165.6784445724
 20
180.7782222794
 30
0.0
 11
142.6784445724
 21
180.7782222794
 31
0.0
  0
LINE
  5
5F
330
4E
100
AcDbEntity
  8
MEGA_002238
  6
CONTINUOUS
 62
     7
 48
25.4
100
AcDbLine
 10
165.6784445724
 20
172.7782222794
 30
0.0
 11
142.6784445724
 21
172.7782222794
 31
0.0
  0
LINE
  5
60
330
4E
100
AcDbEntity
  8
MEGA_002238
  6
CONTINUOUS
 62
     7
 48
25.4
100
AcDbLine
 10
165.6784445724
 20
180.7782222794
 30
0.0
 11
165.6784445724
 21
172.7782222794
 31
0.0
  0
LINE
  5
61
330
4E
100
AcDbEntity
  8
MEGA_002238
  6
CONTINUOUS
 62
     7
 48
25.4
100
AcDbLine
 10
95.6784445724
 20
180.2782222794
 30
0.0
 11
124.6784445724
 21
180.2782222794
 31
0.0
  0
LINE
  5
62
330
4E
100
AcDbEntity
  8
MEGA_002238
  6
CONTINUOUS
 62
     7
 48
25.4
100
AcDbLine
 10
95.6784445724
 20
173.2782222794
 30
0.0
 11
95.6784445724
 21
180.2782222794
 31
0.0
  0
LINE
  5
63
330
4E
100
AcDbEntity
  8
MEGA_002238
  6
CONTINUOUS
 62
     7
 48
25.4
100
AcDbLine
 10
95.6784445724
 20
173.2782222794
 30
0.0
 11
124.6784445724
 21
173.2782222794
 31
0.0
  0
LINE
  5
64
330
4E
100
AcDbEntity
  8
MEGA_002238
  6
CONTINUOUS
 62
     7
 48
25.4
100
AcDbLine
 10
128.1784445724
 20
160.2782222794
 30
0.0
 11
128.1784445724
 21
150.2782222794
 31
0.0
  0
LINE
  5
65
330
4E
100
AcDbEntity
  8
MEGA_002238
  6
CONTINUOUS
 62
     7
 48
25.4
100
AcDbLine
 10
128.1784445724
 20
193.2782222794
 30
0.0
 11
128.1784445724
 21
203.2782222794
 31
0.0
  0
LINE
  5
66
330
4E
100
AcDbEntity
  8
MEGA_002238
  6
HIDDEN2
 62
     7
 48
25.4
100
AcDbLine
 10
131.6784445724
 20
168.5282222794
 30
0.0
 11
131.6784445724
 21
185.0282222794
 31
0.0
  0
LINE
  5
67
330
4E
100
AcDbEntity
  8
MEGA_002238
  6
CONTINUOUS
 62
     7
 48
25.4
100
AcDbLine
 10
124.6784445724
 20
170.5282222794
 30
0.0
 11
124.6784445724
 21
183.0282222794
 31
0.0
  0
LINE
  5
68
330
4E
100
AcDbEntity
  8
MEGA_002238
  6
CONTINUOUS
 62
     7
 48
25.4
100
AcDbLine
 10
130.6784445724
 20
160.2782222794
 30
0.0
 11
128.1784445724
 21
160.2782222794
 31
0.0
  0
LINE
  5
69
330
4E
100
AcDbEntity
  8
MEGA_002238
  6
CONTINUOUS
 62
     7
 48
25.4
100
AcDbLine
 10
130.6784445724
 20
203.2782222794
 30
0.0
 11
128.1784445724
 21
203.2782222794
 31
0.0
  0
LINE
  5
6A
330
4E
100
AcDbEntity
  8
MEGA_002238
  6
HIDDEN2
 62
     7
 48
25.4
100
AcDbLine
 10
141.6784445724
 20
185.0282222794
 30
0.0
 11
131.6784445724
 21
185.0282222794
 31
0.0
  0
LINE
  5
6B
330
4E
100
AcDbEntity
  8
MEGA_002238
  6
CONTINUOUS
 62
     7
 48
25.4
100
AcDbLine
 10
130.6784445724
 20
183.0282222794
 30
0.0
 11
124.6784445724
 21
183.0282222794
 31
0.0
  0
LINE
  5
6C
330
4E
100
AcDbEntity
  8
STANDARD
  6
CONTINUOUS
 62
     7
 48
25.4
100
AcDbLine
 10
95.6784445724
 20
173.2782222794
 30
0.0
 11
124.6784445724
 21
180.2782222794
 31
0.0
  0
LINE
  5
6D
330
4E
100
AcDbEntity
  8
STANDARD
  6
CONTINUOUS
 62
     7
 48
25.4
100
AcDbLine
 10
95.6784445724
 20
180.2782222794
 30
0.0
 11
124.6784445724
 21
173.2782222794
 31
0.0
  0
LINE
  5
6E
330
4E
100
AcDbEntity
  8
STANDARD
  6
CONTINUOUS
 62
     7
 48
25.4
100
AcDbLine
 10
142.6784445724
 20
172.7782222794
 30
0.0
 11
165.6784445724
 21
180.7782222794
 31
0.0
  0
LINE
  5
6F
330
4E
100
AcDbEntity
  8
STANDARD
  6
CONTINUOUS
 62
     7
 48
25.4
100
AcDbLine
 10
142.6784445724
 20
180.7782222794
 30
0.0
 11
165.6784445724
 21
172.7782222794
 31
0.0
  0
LINE
  5
70
330
4E
100
AcDbEntity
  8
STANDARD
  6
CENTER2
 62
     7
 48
25.4
100
AcDbLine
 10
128.1784445724
 20
198.2782222794
 30
0.0
 11
142.6784445724
 21
198.2782222794
 31
0.0
  0
LINE
  5
71
330
4E
100
AcDbEntity
  8
STANDARD
  6
CENTER2
 62
     7
 48
25.4
100
AcDbLine
 10
95.6784445724
 20
176.7782222794
 30
0.0
 11
165.6784445724
 21
176.7782222794
 31
0.0
  0
LINE
  5
72
330
4E
100
AcDbEntity
  8
STANDARD
  6
CENTER2
 62
     7
 48
25.4
100
AcDbLine
 10
128.1784445724
 20
155.2782222794
 30
0.0
 11
142.6784445724
 21
155.2782222794
 31
0.0
  0
LINE
  5
73
330
4E
100
AcDbEntity
  8
STANDARD
  6
CENTER2
 62
     7
 48
25.4
100
AcDbLine
 10
95.6784445724
 20
176.7782222794
 30
0.0
 11
89.6791466461
 21
176.7782222794
 31
0.0
  0
LINE
  5
74
330
4E
100
AcDbEntity
  8
STANDARD
  6
CENTER2
 62
     7
 48
25.4
100
AcDbLine
 10
165.6784445724
 20
176.7782222794
 30
0.0
 11
169.843563381
 21
176.7782222794
 31
0.0
  0
LINE
  5
75
330
4E
100
AcDbEntity
  8
STANDARD
  6
CENTER2
 62
     7
 48
25.4
100
AcDbLine
 10
142.6784445724
 20
155.2782222794
 30
0.0
 11
146.2150206287
 21
155.2782222794
 31
0.0
  0
LINE
  5
76
330
4E
100
AcDbEntity
  8
STANDARD
  6
CENTER2
 62
     7
 48
25.4
100
AcDbLine
 10
128.1784445724
 20
155.2782222794
 30
0.0
 11
123.2338352121
 21
155.2782222794
 31
0.0
  0
LINE
  5
77
330
4E
100
AcDbEntity
  8
STANDARD
  6
CENTER2
 62
     7
 48
25.4
100
AcDbLine
 10
128.1784445724
 20
198.2782222794
 30
0.0
 11
122.5864778764
 21
198.2782222794
 31
0.0
  0
LINE
  5
78
330
4E
100
AcDbEntity
  8
STANDARD
  6
CENTER2
 62
     7
 48
25.4
100
AcDbLine
 10
142.6784445724
 20
198.2782222794
 30
0.0
 11
149.8833788642
 21
198.2782222794
 31
0.0
  0
ENDBLK
  5
7A
330
4E
100
AcDbEntity
  8
0
100
AcDbBlockEnd
  0
BLOCK
  5
82
330
7B
100
AcDbEntity
  8
0
100
AcDbBlockBegin
  2
SE2
 70
     0
 71
     0
 10
0.0
 20
0.0
 30
0.0
  3
SE2
  1

  0
POLYLINE
  5
7D
330
7B
100
AcDbEntity
  8
DEFAULT
  6
CONTINUOUS
 62
     7
 48
25.4
100
AcDb2dPolyline
 66
     1
 10
0.0
 20
0.0
 30
0.0
 70
     1
  0
VERTEX
  5
10D
330
7D
100
AcDbEntity
  8
DEFAULT
  6
CONTINUOUS
 62
     7
100
AcDbVertex
100
AcDb2dVertex
 10
9.828163259
 20
147.2782223055
 30
0.0
  0
VERTEX
  5
10E
330
7D
100
AcDbEntity
  8
DEFAULT
  6
CONTINUOUS
 62
     7
100
AcDbVertex
100
AcDb2dVertex
 10
10.3281632633
 20
144.2782222794
 30
0.0
  0
VERTEX
  5
10F
330
7D
100
AcDbEntity
  8
DEFAULT
  6
CONTINUOUS
 62
     7
100
AcDbVertex
100
AcDb2dVertex
 10
10.8281632677
 20
147.2782223055
 30
0.0
  0
VERTEX
  5
110
330
7D
100
AcDbEntity
  8
DEFAULT
  6
CONTINUOUS
 62
     7
100
AcDbVertex
100
AcDb2dVertex
 10
9.828163259
 20
147.2782223055
 30
0.0
  0
SEQEND
  5
10C
330
7D
100
AcDbEntity
  8
DEFAULT
  6
CONTINUOUS
 62
     7
 48
25.4
  0
LINE
  5
7E
330
7B
100
AcDbEntity
  8
DEFAULT
  6
CONTINUOUS
 62
     7
 48
25.4
100
AcDbLine
 10
43.6276652487
 20
209.2782222794
 30
0.0
 11
8.8281632503
 21
209.2782222794
 31
0.0
  0
LINE
  5
7F
330
7B
100
AcDbEntity
  8
DEFAULT
  6
CONTINUOUS
 62
     7
 48
25.4
100
AcDbLine
 10
43.6276652487
 20
144.2782222794
 30
0.0
 11
8.8281632503
 21
144.2782222794
 31
0.0
  0
LINE
  5
80
330
7B
100
AcDbEntity
  8
DEFAULT
  6
CONTINUOUS
 62
     7
 48
25.4
100
AcDbLine
 10
10.3281632633
 20
209.2782222794
 30
0.0
 11
10.3281632633
 21
144.2782246636
 31
0.0
  0
TEXT
  5
81
330
7B
100
AcDbEntity
  8
DEFAULT
  6
CONTINUOUS
 62
     7
 48
25.4
100
AcDbText
 10
9.5781632633
 20
175.0054961988
 30
0.0
 40
3.0
  1
65
 50
90.0
  7
SEACAD_SEISO_TTF
 11
6.5781632633
 21
175.0054961988
 31
0.0
100
AcDbText
 73
     3
  0
ENDBLK
  5
83
330
7B
100
AcDbEntity
  8
0
100
AcDbBlockEnd
  0
BLOCK
  5
8C
330
84
100
AcDbEntity
  8
0
100
AcDbBlockBegin
  2
SE3
 70
     0
 71
     0
 10
0.0
 20
0.0
 30
0.0
  3
SE3
  1

  0
POLYLINE
  5
86
330
84
100
AcDbEntity
  8
DEFAULT
  6
CONTINUOUS
 62
     7
 48
25.4
100
AcDb2dPolyline
 66
     1
 10
0.0
 20
0.0
 30
0.0
 70
     1
  0
VERTEX
  5
112
330
86
100
AcDbEntity
  8
DEFAULT
  6
CONTINUOUS
 62
     7
100
AcDbVertex
100
AcDb2dVertex
 10
16.4596922177
 20
158.2782223055
 30
0.0
  0
VERTEX
  5
113
330
86
100
AcDbEntity
  8
DEFAULT
  6
CONTINUOUS
 62
     7
100
AcDbVertex
100
AcDb2dVertex
 10
16.959692222
 20
155.2782222794
 30
0.0
  0
VERTEX
  5
114
330
86
100
AcDbEntity
  8
DEFAULT
  6
CONTINUOUS
 62
     7
100
AcDbVertex
100
AcDb2dVertex
 10
17.4596922264
 20
158.2782223055
 30
0.0
  0
VERTEX
  5
115
330
86
100
AcDbEntity
  8
DEFAULT
  6
CONTINUOUS
 62
     7
100
AcDbVertex
100
AcDb2dVertex
 10
16.4596922177
 20
158.2782223055
 30
0.0
  0
SEQEND
  5
111
330
86
100
AcDbEntity
  8
DEFAULT
  6
CONTINUOUS
 62
     7
 48
25.4
  0
POLYLINE
  5
87
330
84
100
AcDbEntity
  8
DEFAULT
  6
CONTINUOUS
 62
     7
 48
25.4
100
AcDb2dPolyline
 66
     1
 10
0.0
 20
0.0
 30
0.0
 70
     1
  0
VERTEX
  5
117
330
87
100
AcDbEntity
  8
DEFAULT
  6
CONTINUOUS
 62
     7
100
AcDbVertex
100
AcDb2dVertex
 10
16.4596922177
 20
195.2782222533
 30
0.0
  0
VERTEX
  5
118
330
87
100
AcDbEntity
  8
DEFAULT
  6
CONTINUOUS
 62
     7
100
AcDbVertex
100
AcDb2dVertex
 10
16.959692222
 20
198.2782222794
 30
0.0
  0
VERTEX
  5
119
330
87
100
AcDbEntity
  8
DEFAULT
  6
CONTINUOUS
 62
     7
100
AcDbVertex
100
AcDb2dVertex
 10
17.4596922264
 20
195.2782222533
 30
0.0
  0
VERTEX
  5
11A
330
87
100
AcDbEntity
  8
DEFAULT
  6
CONTINUOUS
 62
     7
100
AcDbVertex
100
AcDb2dVertex
 10
16.4596922177
 20
195.2782222533
 30
0.0
  0
SEQEND
  5
116
330
87
100
AcDbEntity
  8
DEFAULT
  6
CONTINUOUS
 62
     7
 48
25.4
  0
LINE
  5
88
330
84
100
AcDbEntity
  8
DEFAULT
  6
CONTINUOUS
 62
     7
 48
25.4
100
AcDbLine
 10
43.6276652487
 20
155.2782222794
 30
0.0
 11
15.459692209
 21
155.2782222794
 31
0.0
  0
LINE
  5
89
330
84
100
AcDbEntity
  8
DEFAULT
  6
CONTINUOUS
 62
     7
 48
25.4
100
AcDbLine
 10
43.6276652487
 20
198.2782222794
 30
0.0
 11
15.459692209
 21
198.2782222794
 31
0.0
  0
LINE
  5
8A
330
84
100
AcDbEntity
  8
DEFAULT
  6
CONTINUOUS
 62
     7
 48
25.4
100
AcDbLine
 10
16.959692222
 20
155.2782222794
 30
0.0
 11
16.959692222
 21
198.2782237397
 31
0.0
  0
TEXT
  5
8B
330
84
100
AcDbEntity
  8
DEFAULT
  6
CONTINUOUS
 62
     7
 48
25.4
100
AcDbText
 10
16.209692222
 20
175.1077684641
 30
0.0
 40
3.0
  1
43
 50
90.0
  7
SEACAD_SEISO_TTF
 11
13.209692222
 21
175.1077684641
 31
0.0
100
AcDbText
 73
     3
  0
ENDBLK
  5
8D
330
84
100
AcDbEntity
  8
0
100
AcDbBlockEnd
  0
BLOCK
  5
96
330
8E
100
AcDbEntity
  8
0
100
AcDbBlockBegin
  2
SE4
 70
     0
 71
     0
 10
0.0
 20
0.0
 30
0.0
  3
SE4
  1

  0
POLYLINE
  5
90
330
8E
100
AcDbEntity
  8
DEFAULT
  6
CONTINUOUS
 62
     7
 48
25.4
100
AcDb2dPolyline
 66
     1
 10
0.0
 20
0.0
 30
0.0
 70
     1
  0
VERTEX
  5
11C
330
90
100
AcDbEntity
  8
DEFAULT
  6
CONTINUOUS
 62
     7
100
AcDbVertex
100
AcDb2dVertex
 10
31.1276652747
 20
114.1615592959
 30
0.0
  0
VERTEX
  5
11D
330
90
100
AcDbEntity
  8
DEFAULT
  6
CONTINUOUS
 62
     7
100
AcDbVertex
100
AcDb2dVertex
 10
28.1276652487
 20
114.6615593003
 30
0.0
  0
VERTEX
  5
11E
330
90
100
AcDbEntity
  8
DEFAULT
  6
CONTINUOUS
 62
     7
100
AcDbVertex
100
AcDb2dVertex
 10
31.1276652747
 20
115.1615593046
 30
0.0
  0
VERTEX
  5
11F
330
90
100
AcDbEntity
  8
DEFAULT
  6
CONTINUOUS
 62
     7
100
AcDbVertex
100
AcDb2dVertex
 10
31.1276652747
 20
114.1615592959
 30
0.0
  0
SEQEND
  5
11B
330
90
100
AcDbEntity
  8
DEFAULT
  6
CONTINUOUS
 62
     7
 48
25.4
  0
POLYLINE
  5
91
330
8E
100
AcDbEntity
  8
DEFAULT
  6
CONTINUOUS
 62
     7
 48
25.4
100
AcDb2dPolyline
 66
     1
 10
0.0
 20
0.0
 30
0.0
 70
     1
  0
VERTEX
  5
121
330
91
100
AcDbEntity
  8
DEFAULT
  6
CONTINUOUS
 62
     7
100
AcDbVertex
100
AcDb2dVertex
 10
56.1276652226
 20
114.1615592959
 30
0.0
  0
VERTEX
  5
122
330
91
100
AcDbEntity
  8
DEFAULT
  6
CONTINUOUS
 62
     7
100
AcDbVertex
100
AcDb2dVertex
 10
59.1276652487
 20
114.6615593003
 30
0.0
  0
VERTEX
  5
123
330
91
100
AcDbEntity
  8
DEFAULT
  6
CONTINUOUS
 62
     7
100
AcDbVertex
100
AcDb2dVertex
 10
56.1276652226
 20
115.1615593046
 30
0.0
  0
VERTEX
  5
124
330
91
100
AcDbEntity
  8
DEFAULT
  6
CONTINUOUS
 62
     7
100
AcDbVertex
100
AcDb2dVertex
 10
56.1276652226
 20
114.1615592959
 30
0.0
  0
SEQEND
  5
120
330
91
100
AcDbEntity
  8
DEFAULT
  6
CONTINUOUS
 62
     7
 48
25.4
  0
LINE
  5
92
330
8E
100
AcDbEntity
  8
DEFAULT
  6
CONTINUOUS
 62
     7
 48
25.4
100
AcDbLine
 10
28.1276652487
 20
159.7782222794
 30
0.0
 11
28.1276652487
 21
113.1615592873
 31
0.0
  0
LINE
  5
93
330
8E
100
AcDbEntity
  8
DEFAULT
  6
CONTINUOUS
 62
     7
 48
25.4
100
AcDbLine
 10
59.1276652487
 20
159.7782222794
 30
0.0
 11
59.1276652487
 21
113.1615592873
 31
0.0
  0
LINE
  5
94
330
8E
100
AcDbEntity
  8
DEFAULT
  6
CONTINUOUS
 62
     7
 48
25.4
100
AcDbLine
 10
28.1276652487
 20
114.6615593003
 30
0.0
 11
59.127664742
 21
114.6615593003
 31
0.0
  0
TEXT
  5
95
330
8E
100
AcDbEntity
  8
DEFAULT
  6
CONTINUOUS
 62
     7
 48
25.4
100
AcDbText
 10
42.2299377226
 20
115.4115593003
 30
0.0
 40
3.0
  1
31
  7
SEACAD_SEISO_TTF
 11
42.2299377226
 21
118.4115593003
 31
0.0
100
AcDbText
 73
     3
  0
ENDBLK
  5
97
330
8E
100
AcDbEntity
  8
0
100
AcDbBlockEnd
  0
BLOCK
  5
A0
330
98
100
AcDbEntity
  8
0
100
AcDbBlockBegin
  2
SE5
 70
     0
 71
     0
 10
0.0
 20
0.0
 30
0.0
  3
SE5
  1

  0
POLYLINE
  5
9A
330
98
100
AcDbEntity
  8
DEFAULT
  6
CONTINUOUS
 62
     7
 48
25.4
100
AcDb2dPolyline
 66
     1
 10
0.0
 20
0.0
 30
0.0
 70
     1
  0
VERTEX
  5
126
330
9A
100
AcDbEntity
  8
DEFAULT
  6
CONTINUOUS
 62
     7
100
AcDbVertex
100
AcDb2dVertex
 10
37.7276652226
 20
123.0035970929
 30
0.0
  0
VERTEX
  5
127
330
9A
100
AcDbEntity
  8
DEFAULT
  6
CONTINUOUS
 62
     7
100
AcDbVertex
100
AcDb2dVertex
 10
40.7276652487
 20
123.5035970973
 30
0.0
  0
VERTEX
  5
128
330
9A
100
AcDbEntity
  8
DEFAULT
  6
CONTINUOUS
 62
     7
100
AcDbVertex
100
AcDb2dVertex
 10
37.7276652226
 20
124.0035971016
 30
0.0
  0
VERTEX
  5
129
330
9A
100
AcDbEntity
  8
DEFAULT
  6
CONTINUOUS
 62
     7
100
AcDbVertex
100
AcDb2dVertex
 10
37.7276652226
 20
123.0035970929
 30
0.0
  0
SEQEND
  5
125
330
9A
100
AcDbEntity
  8
DEFAULT
  6
CONTINUOUS
 62
     7
 48
25.4
  0
POLYLINE
  5
9B
330
98
100
AcDbEntity
  8
DEFAULT
  6
CONTINUOUS
 62
     7
 48
25.4
100
AcDb2dPolyline
 66
     1
 10
0.0
 20
0.0
 30
0.0
 70
     1
  0
VERTEX
  5
12B
330
9B
100
AcDbEntity
  8
DEFAULT
  6
CONTINUOUS
 62
     7
100
AcDbVertex
100
AcDb2dVertex
 10
49.5276652747
 20
123.0035970929
 30
0.0
  0
VERTEX
  5
12C
330
9B
100
AcDbEntity
  8
DEFAULT
  6
CONTINUOUS
 62
     7
100
AcDbVertex
100
AcDb2dVertex
 10
46.5276652487
 20
123.5035970973
 30
0.0
  0
VERTEX
  5
12D
330
9B
100
AcDbEntity
  8
DEFAULT
  6
CONTINUOUS
 62
     7
100
AcDbVertex
100
AcDb2dVertex
 10
49.5276652747
 20
124.0035971016
 30
0.0
  0
VERTEX
  5
12E
330
9B
100
AcDbEntity
  8
DEFAULT
  6
CONTINUOUS
 62
     7
100
AcDbVertex
100
AcDb2dVertex
 10
49.5276652747
 20
123.0035970929
 30
0.0
  0
SEQEND
  5
12A
330
9B
100
AcDbEntity
  8
DEFAULT
  6
CONTINUOUS
 62
     7
 48
25.4
  0
LINE
  5
9C
330
98
100
AcDbEntity
  8
DEFAULT
  6
CONTINUOUS
 62
     7
 48
25.4
100
AcDbLine
 10
40.7276652487
 20
155.2782222794
 30
0.0
 11
40.7276652487
 21
122.0035970842
 31
0.0
  0
LINE
  5
9D
330
98
100
AcDbEntity
  8
DEFAULT
  6
CONTINUOUS
 62
     7
 48
25.4
100
AcDbLine
 10
46.5276652487
 20
155.2782222794
 30
0.0
 11
46.5276652487
 21
122.0035970842
 31
0.0
  0
LINE
  5
9E
330
98
100
AcDbEntity
  8
DEFAULT
  6
CONTINUOUS
 62
     7
 48
25.4
100
AcDbLine
 10
34.7276651965
 20
123.5035970973
 30
0.0
 11
52.5276656927
 21
123.5035970973
 31
0.0
  0
TEXT
  5
9F
330
98
100
AcDbEntity
  8
DEFAULT
  6
CONTINUOUS
 62
     7
 48
25.4
100
AcDbText
 10
41.5481197572
 20
124.2535970973
 30
0.0
 40
3.0
  1
5,8
  7
SEACAD_SEISO_TTF
 11
41.5481197572
 21
127.2535970973
 31
0.0
100
AcDbText
 73
     3
  0
ENDBLK
  5
A1
330
98
100
AcDbEntity
  8
0
100
AcDbBlockEnd
  0
BLOCK
  5
AC
330
A2
100
AcDbEntity
  8
0
100
AcDbBlockBegin
  2
SE6
 70
     0
 71
     0
 10
0.0
 20
0.0
 30
0.0
  3
SE6
  1

  0
POLYLINE
  5
A4
330
A2
100
AcDbEntity
  8
DEFAULT
  6
CONTINUOUS
 62
     7
 48
25.4
100
AcDb2dPolyline
 66
     1
 10
0.0
 20
0.0
 30
0.0
 70
     1
  0
VERTEX
  5
130
330
A4
100
AcDbEntity
  8
DEFAULT
  6
CONTINUOUS
 62
     7
100
AcDbVertex
100
AcDb2dVertex
 10
103.0880771168
 20
196.2782223055
 30
0.0
  0
VERTEX
  5
131
330
A4
100
AcDbEntity
  8
DEFAULT
  6
CONTINUOUS
 62
     7
100
AcDbVertex
100
AcDb2dVertex
 10
103.5880771211
 20
193.2782222794
 30
0.0
  0
VERTEX
  5
132
330
A4
100
AcDbEntity
  8
DEFAULT
  6
CONTINUOUS
 62
     7
100
AcDbVertex
100
AcDb2dVertex
 10
104.0880771255
 20
196.2782223055
 30
0.0
  0
VERTEX
  5
133
330
A4
100
AcDbEntity
  8
DEFAULT
  6
CONTINUOUS
 62
     7
100
AcDbVertex
100
AcDb2dVertex
 10
103.0880771168
 20
196.2782223055
 30
0.0
  0
SEQEND
  5
12F
330
A4
100
AcDbEntity
  8
DEFAULT
  6
CONTINUOUS
 62
     7
 48
25.4
  0
POLYLINE
  5
A5
330
A2
100
AcDbEntity
  8
DEFAULT
  6
CONTINUOUS
 62
     7
 48
25.4
100
AcDb2dPolyline
 66
     1
 10
0.0
 20
0.0
 30
0.0
 70
     1
  0
VERTEX
  5
135
330
A5
100
AcDbEntity
  8
DEFAULT
  6
CONTINUOUS
 62
     7
100
AcDbVertex
100
AcDb2dVertex
 10
103.0880771168
 20
200.2782222533
 30
0.0
  0
VERTEX
  5
136
330
A5
100
AcDbEntity
  8
DEFAULT
  6
CONTINUOUS
 62
     7
100
AcDbVertex
100
AcDb2dVertex
 10
103.5880771211
 20
203.2782222794
 30
0.0
  0
VERTEX
  5
137
330
A5
100
AcDbEntity
  8
DEFAULT
  6
CONTINUOUS
 62
     7
100
AcDbVertex
100
AcDb2dVertex
 10
104.0880771255
 20
200.2782222533
 30
0.0
  0
VERTEX
  5
138
330
A5
100
AcDbEntity
  8
DEFAULT
  6
CONTINUOUS
 62
     7
100
AcDbVertex
100
AcDb2dVertex
 10
103.0880771168
 20
200.2782222533
 30
0.0
  0
SEQEND
  5
134
330
A5
100
AcDbEntity
  8
DEFAULT
  6
CONTINUOUS
 62
     7
 48
25.4
  0
LINE
  5
A6
330
A2
100
AcDbEntity
  8
DEFAULT
  6
CONTINUOUS
 62
     7
 48
25.4
100
AcDbLine
 10
128.1784445724
 20
193.2782222794
 30
0.0
 11
102.0880771081
 21
193.2782222794
 31
0.0
  0
LINE
  5
A7
330
A2
100
AcDbEntity
  8
DEFAULT
  6
CONTINUOUS
 62
     7
 48
25.4
100
AcDbLine
 10
128.1784445724
 20
203.2782222794
 30
0.0
 11
102.0880771081
 21
203.2782222794
 31
0.0
  0
LINE
  5
A8
330
A2
100
AcDbEntity
  8
DEFAULT
  6
CONTINUOUS
 62
     7
 48
25.4
100
AcDbLine
 10
103.5880771211
 20
193.2782222794
 30
0.0
 11
103.5880771211
 21
203.2782220559
 31
0.0
  0
TEXT
  5
A9
330
A2
100
AcDbEntity
  8
DEFAULT
  6
CONTINUOUS
 62
     7
 48
25.4
100
AcDbText
 10
102.8380771211
 20
198.6312789362
 30
0.0
 40
3.0
  1
10
 50
90.0
  7
SEACAD_SEISO_TTF
 11
99.8380771211
 21
198.6312789362
 31
0.0
100
AcDbText
 73
     3
  0
TEXT
  5
AB
330
A2
100
AcDbEntity
  8
DEFAULT
  6
CONTINUOUS
 62
     7
 48
25.4
100
AcDbText
 10
102.8380771211
 20
194.9251653991
 30
0.0
 40
3.0
  1
q
 50
90.0
  7
SEACAD_SEMECI1_TTF
 11
99.8380771211
 21
194.9251653991
 31
0.0
100
AcDbText
 73
     3
  0
ENDBLK
  5
AD
330
A2
100
AcDbEntity
  8
0
100
AcDbBlockEnd
  0
BLOCK
  5
B7
330
AE
100
AcDbEntity
  8
0
100
AcDbBlockBegin
  2
SE7
 70
     0
 71
     0
 10
0.0
 20
0.0
 30
0.0
  3
SE7
  1

  0
POLYLINE
  5
B0
330
AE
100
AcDbEntity
  8
DEFAULT
  6
CONTINUOUS
 62
     7
 48
25.4
100
AcDb2dPolyline
 66
     1
 10
0.0
 20
0.0
 30
0.0
 70
     1
  0
VERTEX
  5
13A
330
B0
100
AcDbEntity
  8
DEFAULT
  6
CONTINUOUS
 62
     7
100
AcDbVertex
100
AcDb2dVertex
 10
81.5704787858
 20
170.2782222533
 30
0.0
  0
VERTEX
  5
13B
330
B0
100
AcDbEntity
  8
DEFAULT
  6
CONTINUOUS
 62
     7
100
AcDbVertex
100
AcDb2dVertex
 10
82.0704787901
 20
173.2782222794
 30
0.0
  0
VERTEX
  5
13C
330
B0
100
AcDbEntity
  8
DEFAULT
  6
CONTINUOUS
 62
     7
100
AcDbVertex
100
AcDb2dVertex
 10
82.5704787945
 20
170.2782222533
 30
0.0
  0
VERTEX
  5
13D
330
B0
100
AcDbEntity
  8
DEFAULT
  6
CONTINUOUS
 62
     7
100
AcDbVertex
100
AcDb2dVertex
 10
81.5704787858
 20
170.2782222533
 30
0.0
  0
SEQEND
  5
139
330
B0
100
AcDbEntity
  8
DEFAULT
  6
CONTINUOUS
 62
     7
 48
25.4
  0
POLYLINE
  5
B1
330
AE
100
AcDbEntity
  8
DEFAULT
  6
CONTINUOUS
 62
     7
 48
25.4
100
AcDb2dPolyline
 66
     1
 10
0.0
 20
0.0
 30
0.0
 70
     1
  0
VERTEX
  5
13F
330
B1
100
AcDbEntity
  8
DEFAULT
  6
CONTINUOUS
 62
     7
100
AcDbVertex
100
AcDb2dVertex
 10
81.5704787858
 20
183.2782223055
 30
0.0
  0
VERTEX
  5
140
330
B1
100
AcDbEntity
  8
DEFAULT
  6
CONTINUOUS
 62
     7
100
AcDbVertex
100
AcDb2dVertex
 10
82.0704787901
 20
180.2782222794
 30
0.0
  0
VERTEX
  5
141
330
B1
100
AcDbEntity
  8
DEFAULT
  6
CONTINUOUS
 62
     7
100
AcDbVertex
100
AcDb2dVertex
 10
82.5704787945
 20
183.2782223055
 30
0.0
  0
VERTEX
  5
142
330
B1
100
AcDbEntity
  8
DEFAULT
  6
CONTINUOUS
 62
     7
100
AcDbVertex
100
AcDb2dVertex
 10
81.5704787858
 20
183.2782223055
 30
0.0
  0
SEQEND
  5
13E
330
B1
100
AcDbEntity
  8
DEFAULT
  6
CONTINUOUS
 62
     7
 48
25.4
  0
LINE
  5
B2
330
AE
100
AcDbEntity
  8
DEFAULT
  6
CONTINUOUS
 62
     7
 48
25.4
100
AcDbLine
 10
95.6784445724
 20
173.2782222794
 30
0.0
 11
80.5704787771
 21
173.2782222794
 31
0.0
  0
LINE
  5
B3
330
AE
100
AcDbEntity
  8
DEFAULT
  6
CONTINUOUS
 62
     7
 48
25.4
100
AcDbLine
 10
95.6784445724
 20
180.2782222794
 30
0.0
 11
80.5704787771
 21
180.2782222794
 31
0.0
  0
LINE
  5
B4
330
AE
100
AcDbEntity
  8
DEFAULT
  6
CONTINUOUS
 62
     7
 48
25.4
100
AcDbLine
 10
82.0704787901
 20
167.2782222273
 30
0.0
 11
82.0704787901
 21
186.2782225476
 31
0.0
  0
TEXT
  5
B5
330
AE
100
AcDbEntity
  8
DEFAULT
  6
CONTINUOUS
 62
     7
 48
25.4
100
AcDbText
 10
81.3204787901
 20
177.6767337015
 30
0.0
 40
3.0
  1
7
 50
90.0
  7
SEACAD_SEISO_TTF
 11
78.3204787901
 21
177.6767337015
 31
0.0
100
AcDbText
 73
     3
  0
TEXT
  5
B6
330
AE
100
AcDbEntity
  8
DEFAULT
  6
CONTINUOUS
 62
     7
 48
25.4
100
AcDbText
 10
81.3204787901
 20
173.9706201644
 30
0.0
 40
3.0
  1
q
 50
90.0
  7
SEACAD_SEMECI1_TTF
 11
78.3204787901
 21
173.9706201644
 31
0.0
100
AcDbText
 73
     3
  0
ENDBLK
  5
B8
330
AE
100
AcDbEntity
  8
0
100
AcDbBlockEnd
  0
BLOCK
  5
C2
330
B9
100
AcDbEntity
  8
0
100
AcDbBlockBegin
  2
SE8
 70
     0
 71
     0
 10
0.0
 20
0.0
 30
0.0
  3
SE8
  1

  0
POLYLINE
  5
BB
330
B9
100
AcDbEntity
  8
DEFAULT
  6
CONTINUOUS
 62
     7
 48
25.4
100
AcDb2dPolyline
 66
     1
 10
0.0
 20
0.0
 30
0.0
 70
     1
  0
VERTEX
  5
144
330
BB
100
AcDbEntity
  8
DEFAULT
  6
CONTINUOUS
 62
     7
100
AcDbVertex
100
AcDb2dVertex
 10
73.733215753
 20
173.5282223055
 30
0.0
  0
VERTEX
  5
145
330
BB
100
AcDbEntity
  8
DEFAULT
  6
CONTINUOUS
 62
     7
100
AcDbVertex
100
AcDb2dVertex
 10
74.2332157574
 20
170.5282222794
 30
0.0
  0
VERTEX
  5
146
330
BB
100
AcDbEntity
  8
DEFAULT
  6
CONTINUOUS
 62
     7
100
AcDbVertex
100
AcDb2dVertex
 10
74.7332157617
 20
173.5282223055
 30
0.0
  0
VERTEX
  5
147
330
BB
100
AcDbEntity
  8
DEFAULT
  6
CONTINUOUS
 62
     7
100
AcDbVertex
100
AcDb2dVertex
 10
73.733215753
 20
173.5282223055
 30
0.0
  0
SEQEND
  5
143
330
BB
100
AcDbEntity
  8
DEFAULT
  6
CONTINUOUS
 62
     7
 48
25.4
  0
POLYLINE
  5
BC
330
B9
100
AcDbEntity
  8
DEFAULT
  6
CONTINUOUS
 62
     7
 48
25.4
100
AcDb2dPolyline
 66
     1
 10
0.0
 20
0.0
 30
0.0
 70
     1
  0
VERTEX
  5
149
330
BC
100
AcDbEntity
  8
DEFAULT
  6
CONTINUOUS
 62
     7
100
AcDbVertex
100
AcDb2dVertex
 10
73.733215753
 20
180.0282222533
 30
0.0
  0
VERTEX
  5
14A
330
BC
100
AcDbEntity
  8
DEFAULT
  6
CONTINUOUS
 62
     7
100
AcDbVertex
100
AcDb2dVertex
 10
74.2332157574
 20
183.0282222794
 30
0.0
  0
VERTEX
  5
14B
330
BC
100
AcDbEntity
  8
DEFAULT
  6
CONTINUOUS
 62
     7
100
AcDbVertex
100
AcDb2dVertex
 10
74.7332157617
 20
180.0282222533
 30
0.0
  0
VERTEX
  5
14C
330
BC
100
AcDbEntity
  8
DEFAULT
  6
CONTINUOUS
 62
     7
100
AcDbVertex
100
AcDb2dVertex
 10
73.733215753
 20
180.0282222533
 30
0.0
  0
SEQEND
  5
148
330
BC
100
AcDbEntity
  8
DEFAULT
  6
CONTINUOUS
 62
     7
 48
25.4
  0
LINE
  5
BD
330
B9
100
AcDbEntity
  8
DEFAULT
  6
CONTINUOUS
 62
     7
 48
25.4
100
AcDbLine
 10
124.6784445724
 20
170.5282222794
 30
0.0
 11
72.7332157443
 21
170.5282222794
 31
0.0
  0
LINE
  5
BE
330
B9
100
AcDbEntity
  8
DEFAULT
  6
CONTINUOUS
 62
     7
 48
25.4
100
AcDbLine
 10
124.6784445724
 20
183.0282222794
 30
0.0
 11
72.7332157443
 21
183.0282222794
 31
0.0
  0
LINE
  5
BF
330
B9
100
AcDbEntity
  8
DEFAULT
  6
CONTINUOUS
 62
     7
 48
25.4
100
AcDbLine
 10
74.2332157574
 20
170.5282222794
 30
0.0
 11
74.2332157574
 21
183.0282224657
 31
0.0
  0
TEXT
  5
C0
330
B9
100
AcDbEntity
  8
DEFAULT
  6
CONTINUOUS
 62
     7
 48
25.4
100
AcDbText
 10
73.4832157574
 20
175.9394371403
 30
0.0
 40
3.0
  1
12,5
 50
90.0
  7
SEACAD_SEISO_TTF
 11
70.4832157574
 21
175.9394371403
 31
0.0
100
AcDbText
 73
     3
  0
TEXT
  5
C1
330
B9
100
AcDbEntity
  8
DEFAULT
  6
CONTINUOUS
 62
     7
 48
25.4
100
AcDbText
 10
73.4832157574
 20
172.2988257866
 30
0.0
 40
3.0
  1
O
 50
90.0
  7
SEACAD_SEMECI1_TTF
 11
70.4832157574
 21
172.2988257866
 31
0.0
100
AcDbText
 73
     3
  0
ENDBLK
  5
C3
330
B9
100
AcDbEntity
  8
0
100
AcDbBlockEnd
  0
BLOCK
  5
CD
330
C4
100
AcDbEntity
  8
0
100
AcDbBlockBegin
  2
SE9
 70
     0
 71
     0
 10
0.0
 20
0.0
 30
0.0
  3
SE9
  1

  0
POLYLINE
  5
C6
330
C4
100
AcDbEntity
  8
DEFAULT
  6
CONTINUOUS
 62
     7
 48
25.4
100
AcDb2dPolyline
 66
     1
 10
0.0
 20
0.0
 30
0.0
 70
     1
  0
VERTEX
  5
14E
330
C6
100
AcDbEntity
  8
DEFAULT
  6
CONTINUOUS
 62
     7
100
AcDbVertex
100
AcDb2dVertex
 10
185.2587034827
 20
183.7782223055
 30
0.0
  0
VERTEX
  5
14F
330
C6
100
AcDbEntity
  8
DEFAULT
  6
CONTINUOUS
 62
     7
100
AcDbVertex
100
AcDb2dVertex
 10
184.7587034783
 20
180.7782222794
 30
0.0
  0
VERTEX
  5
150
330
C6
100
AcDbEntity
  8
DEFAULT
  6
CONTINUOUS
 62
     7
100
AcDbVertex
100
AcDb2dVertex
 10
184.258703474
 20
183.7782223055
 30
0.0
  0
VERTEX
  5
151
330
C6
100
AcDbEntity
  8
DEFAULT
  6
CONTINUOUS
 62
     7
100
AcDbVertex
100
AcDb2dVertex
 10
185.2587034827
 20
183.7782223055
 30
0.0
  0
SEQEND
  5
14D
330
C6
100
AcDbEntity
  8
DEFAULT
  6
CONTINUOUS
 62
     7
 48
25.4
  0
POLYLINE
  5
C7
330
C4
100
AcDbEntity
  8
DEFAULT
  6
CONTINUOUS
 62
     7
 48
25.4
100
AcDb2dPolyline
 66
     1
 10
0.0
 20
0.0
 30
0.0
 70
     1
  0
VERTEX
  5
153
330
C7
100
AcDbEntity
  8
DEFAULT
  6
CONTINUOUS
 62
     7
100
AcDbVertex
100
AcDb2dVertex
 10
185.2587034827
 20
169.7782222533
 30
0.0
  0
VERTEX
  5
154
330
C7
100
AcDbEntity
  8
DEFAULT
  6
CONTINUOUS
 62
     7
100
AcDbVertex
100
AcDb2dVertex
 10
184.7587034783
 20
172.7782222794
 30
0.0
  0
VERTEX
  5
155
330
C7
100
AcDbEntity
  8
DEFAULT
  6
CONTINUOUS
 62
     7
100
AcDbVertex
100
AcDb2dVertex
 10
184.258703474
 20
169.7782222533
 30
0.0
  0
VERTEX
  5
156
330
C7
100
AcDbEntity
  8
DEFAULT
  6
CONTINUOUS
 62
     7
100
AcDbVertex
100
AcDb2dVertex
 10
185.2587034827
 20
169.7782222533
 30
0.0
  0
SEQEND
  5
152
330
C7
100
AcDbEntity
  8
DEFAULT
  6
CONTINUOUS
 62
     7
 48
25.4
  0
LINE
  5
C8
330
C4
100
AcDbEntity
  8
DEFAULT
  6
CONTINUOUS
 62
     7
 48
25.4
100
AcDbLine
 10
165.6784445724
 20
180.7782222794
 30
0.0
 11
186.2587034914
 21
180.7782222794
 31
0.0
  0
LINE
  5
C9
330
C4
100
AcDbEntity
  8
DEFAULT
  6
CONTINUOUS
 62
     7
 48
25.4
100
AcDbLine
 10
165.6784445724
 20
172.7782222794
 30
0.0
 11
186.2587034914
 21
172.7782222794
 31
0.0
  0
LINE
  5
CA
330
C4
100
AcDbEntity
  8
DEFAULT
  6
CONTINUOUS
 62
     7
 48
25.4
100
AcDbLine
 10
184.7587034783
 20
186.7782223316
 30
0.0
 11
184.7587034783
 21
166.7782218473
 31
0.0
  0
TEXT
  5
CB
330
C4
100
AcDbEntity
  8
DEFAULT
  6
CONTINUOUS
 62
     7
 48
25.4
100
AcDbText
 10
184.0087034783
 20
177.6767334034
 30
0.0
 40
3.0
  1
8
 50
90.0
  7
SEACAD_SEISO_TTF
 11
181.0087034783
 21
177.6767334034
 31
0.0
100
AcDbText
 73
     3
  0
TEXT
  5
CC
330
C4
100
AcDbEntity
  8
DEFAULT
  6
CONTINUOUS
 62
     7
 48
25.4
100
AcDbText
 10
184.0087034783
 20
173.9706198663
 30
0.0
 40
3.0
  1
q
 50
90.0
  7
SEACAD_SEMECI1_TTF
 11
181.0087034783
 21
173.9706198663
 31
0.0
100
AcDbText
 73
     3
  0
ENDBLK
  5
CE
330
C4
100
AcDbEntity
  8
0
100
AcDbBlockEnd
  0
BLOCK
  5
D7
330
CF
100
AcDbEntity
  8
0
100
AcDbBlockBegin
  2
SE10
 70
     0
 71
     0
 10
0.0
 20
0.0
 30
0.0
  3
SE10
  1

  0
POLYLINE
  5
D1
330
CF
100
AcDbEntity
  8
DEFAULT
  6
CONTINUOUS
 62
     7
 48
25.4
100
AcDb2dPolyline
 66
     1
 10
0.0
 20
0.0
 30
0.0
 70
     1
  0
VERTEX
  5
158
330
D1
100
AcDbEntity
  8
DEFAULT
  6
CONTINUOUS
 62
     7
100
AcDbVertex
100
AcDb2dVertex
 10
133.6784445985
 20
220.663160114
 30
0.0
  0
VERTEX
  5
159
330
D1
100
AcDbEntity
  8
DEFAULT
  6
CONTINUOUS
 62
     7
100
AcDbVertex
100
AcDb2dVertex
 10
130.6784445724
 20
220.1631601097
 30
0.0
  0
VERTEX
  5
15A
330
D1
100
AcDbEntity
  8
DEFAULT
  6
CONTINUOUS
 62
     7
100
AcDbVertex
100
AcDb2dVertex
 10
133.6784445985
 20
219.6631601053
 30
0.0
  0
VERTEX
  5
15B
330
D1
100
AcDbEntity
  8
DEFAULT
  6
CONTINUOUS
 62
     7
100
AcDbVertex
100
AcDb2dVertex
 10
133.6784445985
 20
220.663160114
 30
0.0
  0
SEQEND
  5
157
330
D1
100
AcDbEntity
  8
DEFAULT
  6
CONTINUOUS
 62
     7
 48
25.4
  0
POLYLINE
  5
D2
330
CF
100
AcDbEntity
  8
DEFAULT
  6
CONTINUOUS
 62
     7
 48
25.4
100
AcDb2dPolyline
 66
     1
 10
0.0
 20
0.0
 30
0.0
 70
     1
  0
VERTEX
  5
15D
330
D2
100
AcDbEntity
  8
DEFAULT
  6
CONTINUOUS
 62
     7
100
AcDbVertex
100
AcDb2dVertex
 10
125.1784445464
 20
220.663160114
 30
0.0
  0
VERTEX
  5
15E
330
D2
100
AcDbEntity
  8
DEFAULT
  6
CONTINUOUS
 62
     7
100
AcDbVertex
100
AcDb2dVertex
 10
128.1784445724
 20
220.1631601097
 30
0.0
  0
VERTEX
  5
15F
330
D2
100
AcDbEntity
  8
DEFAULT
  6
CONTINUOUS
 62
     7
100
AcDbVertex
100
AcDb2dVertex
 10
125.1784445464
 20
219.6631601053
 30
0.0
  0
VERTEX
  5
160
330
D2
100
AcDbEntity
  8
DEFAULT
  6
CONTINUOUS
 62
     7
100
AcDbVertex
100
AcDb2dVertex
 10
125.1784445464
 20
220.663160114
 30
0.0
  0
SEQEND
  5
15C
330
D2
100
AcDbEntity
  8
DEFAULT
  6
CONTINUOUS
 62
     7
 48
25.4
  0
LINE
  5
D3
330
CF
100
AcDbEntity
  8
DEFAULT
  6
CONTINUOUS
 62
     7
 48
25.4
100
AcDbLine
 10
130.6784445724
 20
209.2782222794
 30
0.0
 11
130.6784445724
 21
221.6631601227
 31
0.0
  0
LINE
  5
D4
330
CF
100
AcDbEntity
  8
DEFAULT
  6
CONTINUOUS
 62
     7
 48
25.4
100
AcDbLine
 10
128.1784445724
 20
203.2782222794
 30
0.0
 11
128.1784445724
 21
221.6631601227
 31
0.0
  0
LINE
  5
D5
330
CF
100
AcDbEntity
  8
DEFAULT
  6
CONTINUOUS
 62
     7
 48
25.4
100
AcDbLine
 10
136.6784446246
 20
220.1631601097
 30
0.0
 11
118.4821207381
 21
220.1631601097
 31
0.0
  0
TEXT
  5
D6
330
CF
100
AcDbEntity
  8
DEFAULT
  6
CONTINUOUS
 62
     7
 48
25.4
100
AcDbText
 10
119.5321207199
 20
220.9131601097
 30
0.0
 40
3.0
  1
2,5
  7
SEACAD_SEISO_TTF
 11
119.5321207199
 21
223.9131601097
 31
0.0
100
AcDbText
 73
     3
  0
ENDBLK
  5
D8
330
CF
100
AcDbEntity
  8
0
100
AcDbBlockEnd
  0
BLOCK
  5
E1
330
D9
100
AcDbEntity
  8
0
100
AcDbBlockBegin
  2
SE11
 70
     0
 71
     0
 10
0.0
 20
0.0
 30
0.0
  3
SE11
  1

  0
POLYLINE
  5
DB
330
D9
100
AcDbEntity
  8
DEFAULT
  6
CONTINUOUS
 62
     7
 48
25.4
100
AcDb2dPolyline
 66
     1
 10
0.0
 20
0.0
 30
0.0
 70
     1
  0
VERTEX
  5
162
330
DB
100
AcDbEntity
  8
DEFAULT
  6
CONTINUOUS
 62
     7
100
AcDbVertex
100
AcDb2dVertex
 10
121.6784445464
 20
123.40551011
 30
0.0
  0
VERTEX
  5
163
330
DB
100
AcDbEntity
  8
DEFAULT
  6
CONTINUOUS
 62
     7
100
AcDbVertex
100
AcDb2dVertex
 10
124.6784445724
 20
123.9055101143
 30
0.0
  0
VERTEX
  5
164
330
DB
100
AcDbEntity
  8
DEFAULT
  6
CONTINUOUS
 62
     7
100
AcDbVertex
100
AcDb2dVertex
 10
121.6784445464
 20
124.4055101187
 30
0.0
  0
VERTEX
  5
165
330
DB
100
AcDbEntity
  8
DEFAULT
  6
CONTINUOUS
 62
     7
100
AcDbVertex
100
AcDb2dVertex
 10
121.6784445464
 20
123.40551011
 30
0.0
  0
SEQEND
  5
161
330
DB
100
AcDbEntity
  8
DEFAULT
  6
CONTINUOUS
 62
     7
 48
25.4
  0
POLYLINE
  5
DC
330
D9
100
AcDbEntity
  8
DEFAULT
  6
CONTINUOUS
 62
     7
 48
25.4
100
AcDb2dPolyline
 66
     1
 10
0.0
 20
0.0
 30
0.0
 70
     1
  0
VERTEX
  5
167
330
DC
100
AcDbEntity
  8
DEFAULT
  6
CONTINUOUS
 62
     7
100
AcDbVertex
100
AcDb2dVertex
 10
133.6784445985
 20
123.40551011
 30
0.0
  0
VERTEX
  5
168
330
DC
100
AcDbEntity
  8
DEFAULT
  6
CONTINUOUS
 62
     7
100
AcDbVertex
100
AcDb2dVertex
 10
130.6784445724
 20
123.9055101143
 30
0.0
  0
VERTEX
  5
169
330
DC
100
AcDbEntity
  8
DEFAULT
  6
CONTINUOUS
 62
     7
100
AcDbVertex
100
AcDb2dVertex
 10
133.6784445985
 20
124.4055101187
 30
0.0
  0
VERTEX
  5
16A
330
DC
100
AcDbEntity
  8
DEFAULT
  6
CONTINUOUS
 62
     7
100
AcDbVertex
100
AcDb2dVertex
 10
133.6784445985
 20
123.40551011
 30
0.0
  0
SEQEND
  5
166
330
DC
100
AcDbEntity
  8
DEFAULT
  6
CONTINUOUS
 62
     7
 48
25.4
  0
LINE
  5
DD
330
D9
100
AcDbEntity
  8
DEFAULT
  6
CONTINUOUS
 62
     7
 48
25.4
100
AcDbLine
 10
124.6784445724
 20
170.5282222794
 30
0.0
 11
124.6784445724
 21
122.4055101013
 31
0.0
  0
LINE
  5
DE
330
D9
100
AcDbEntity
  8
DEFAULT
  6
CONTINUOUS
 62
     7
 48
25.4
100
AcDbLine
 10
130.6784445724
 20
159.7782222794
 30
0.0
 11
130.6784445724
 21
122.4055101013
 31
0.0
  0
LINE
  5
DF
330
D9
100
AcDbEntity
  8
DEFAULT
  6
CONTINUOUS
 62
     7
 48
25.4
100
AcDbLine
 10
118.6784445203
 20
123.9055101143
 30
0.0
 11
136.6784446767
 21
123.9055101143
 31
0.0
  0
TEXT
  5
E0
330
D9
100
AcDbEntity
  8
DEFAULT
  6
CONTINUOUS
 62
     7
 48
25.4
100
AcDbText
 10
126.7579900531
 20
124.6555101143
 30
0.0
 40
3.0
  1
6
  7
SEACAD_SEISO_TTF
 11
126.7579900531
 21
127.6555101143
 31
0.0
100
AcDbText
 73
     3
  0
ENDBLK
  5
E2
330
D9
100
AcDbEntity
  8
0
100
AcDbBlockEnd
  0
BLOCK
  5
EB
330
E3
100
AcDbEntity
  8
0
100
AcDbBlockBegin
  2
SE12
 70
     0
 71
     0
 10
0.0
 20
0.0
 30
0.0
  3
SE12
  1

  0
POLYLINE
  5
E5
330
E3
100
AcDbEntity
  8
DEFAULT
  6
CONTINUOUS
 62
     7
 48
25.4
100
AcDb2dPolyline
 66
     1
 10
0.0
 20
0.0
 30
0.0
 70
     1
  0
VERTEX
  5
16C
330
E5
100
AcDbEntity
  8
DEFAULT
  6
CONTINUOUS
 62
     7
100
AcDbVertex
100
AcDb2dVertex
 10
133.6784445985
 20
114.3625163558
 30
0.0
  0
VERTEX
  5
16D
330
E5
100
AcDbEntity
  8
DEFAULT
  6
CONTINUOUS
 62
     7
100
AcDbVertex
100
AcDb2dVertex
 10
130.6784445724
 20
114.8625163602
 30
0.0
  0
VERTEX
  5
16E
330
E5
100
AcDbEntity
  8
DEFAULT
  6
CONTINUOUS
 62
     7
100
AcDbVertex
100
AcDb2dVertex
 10
133.6784445985
 20
115.3625163645
 30
0.0
  0
VERTEX
  5
16F
330
E5
100
AcDbEntity
  8
DEFAULT
  6
CONTINUOUS
 62
     7
100
AcDbVertex
100
AcDb2dVertex
 10
133.6784445985
 20
114.3625163558
 30
0.0
  0
SEQEND
  5
16B
330
E5
100
AcDbEntity
  8
DEFAULT
  6
CONTINUOUS
 62
     7
 48
25.4
  0
POLYLINE
  5
E6
330
E3
100
AcDbEntity
  8
DEFAULT
  6
CONTINUOUS
 62
     7
 48
25.4
100
AcDb2dPolyline
 66
     1
 10
0.0
 20
0.0
 30
0.0
 70
     1
  0
VERTEX
  5
171
330
E6
100
AcDbEntity
  8
DEFAULT
  6
CONTINUOUS
 62
     7
100
AcDbVertex
100
AcDb2dVertex
 10
139.6784445464
 20
114.3625163558
 30
0.0
  0
VERTEX
  5
172
330
E6
100
AcDbEntity
  8
DEFAULT
  6
CONTINUOUS
 62
     7
100
AcDbVertex
100
AcDb2dVertex
 10
142.6784445724
 20
114.8625163602
 30
0.0
  0
VERTEX
  5
173
330
E6
100
AcDbEntity
  8
DEFAULT
  6
CONTINUOUS
 62
     7
100
AcDbVertex
100
AcDb2dVertex
 10
139.6784445464
 20
115.3625163645
 30
0.0
  0
VERTEX
  5
174
330
E6
100
AcDbEntity
  8
DEFAULT
  6
CONTINUOUS
 62
     7
100
AcDbVertex
100
AcDb2dVertex
 10
139.6784445464
 20
114.3625163558
 30
0.0
  0
SEQEND
  5
170
330
E6
100
AcDbEntity
  8
DEFAULT
  6
CONTINUOUS
 62
     7
 48
25.4
  0
LINE
  5
E7
330
E3
100
AcDbEntity
  8
DEFAULT
  6
CONTINUOUS
 62
     7
 48
25.4
100
AcDbLine
 10
130.6784445724
 20
159.7782222794
 30
0.0
 11
130.6784445724
 21
113.3625163471
 31
0.0
  0
LINE
  5
E8
330
E3
100
AcDbEntity
  8
DEFAULT
  6
CONTINUOUS
 62
     7
 48
25.4
100
AcDbLine
 10
142.6784445724
 20
159.7782222794
 30
0.0
 11
142.6784445724
 21
113.3625163471
 31
0.0
  0
LINE
  5
E9
330
E3
100
AcDbEntity
  8
DEFAULT
  6
CONTINUOUS
 62
     7
 48
25.4
100
AcDbLine
 10
130.6784445724
 20
114.8625163602
 30
0.0
 11
142.6784446767
 21
114.8625163602
 31
0.0
  0
TEXT
  5
EA
330
E3
100
AcDbEntity
  8
DEFAULT
  6
CONTINUOUS
 62
     7
 48
25.4
100
AcDbText
 10
135.1443537155
 20
115.6125163602
 30
0.0
 40
3.0
  1
12
  7
SEACAD_SEISO_TTF
 11
135.1443537155
 21
118.6125163602
 31
0.0
100
AcDbText
 73
     3
  0
ENDBLK
  5
EC
330
E3
100
AcDbEntity
  8
0
100
AcDbBlockEnd
  0
BLOCK
  5
F5
330
ED
100
AcDbEntity
  8
0
100
AcDbBlockBegin
  2
SE13
 70
     0
 71
     0
 10
0.0
 20
0.0
 30
0.0
  3
SE13
  1

  0
POLYLINE
  5
EF
330
ED
100
AcDbEntity
  8
DEFAULT
  6
CONTINUOUS
 62
     7
 48
25.4
100
AcDb2dPolyline
 66
     1
 10
0.0
 20
0.0
 30
0.0
 70
     1
  0
VERTEX
  5
176
330
EF
100
AcDbEntity
  8
DEFAULT
  6
CONTINUOUS
 62
     7
100
AcDbVertex
100
AcDb2dVertex
 10
145.6784445985
 20
114.3625163558
 30
0.0
  0
VERTEX
  5
177
330
EF
100
AcDbEntity
  8
DEFAULT
  6
CONTINUOUS
 62
     7
100
AcDbVertex
100
AcDb2dVertex
 10
142.6784445724
 20
114.8625163602
 30
0.0
  0
VERTEX
  5
178
330
EF
100
AcDbEntity
  8
DEFAULT
  6
CONTINUOUS
 62
     7
100
AcDbVertex
100
AcDb2dVertex
 10
145.6784445985
 20
115.3625163645
 30
0.0
  0
VERTEX
  5
179
330
EF
100
AcDbEntity
  8
DEFAULT
  6
CONTINUOUS
 62
     7
100
AcDbVertex
100
AcDb2dVertex
 10
145.6784445985
 20
114.3625163558
 30
0.0
  0
SEQEND
  5
175
330
EF
100
AcDbEntity
  8
DEFAULT
  6
CONTINUOUS
 62
     7
 48
25.4
  0
POLYLINE
  5
F0
330
ED
100
AcDbEntity
  8
DEFAULT
  6
CONTINUOUS
 62
     7
 48
25.4
100
AcDb2dPolyline
 66
     1
 10
0.0
 20
0.0
 30
0.0
 70
     1
  0
VERTEX
  5
17B
330
F0
100
AcDbEntity
  8
DEFAULT
  6
CONTINUOUS
 62
     7
100
AcDbVertex
100
AcDb2dVertex
 10
162.6784445464
 20
114.3625163558
 30
0.0
  0
VERTEX
  5
17C
330
F0
100
AcDbEntity
  8
DEFAULT
  6
CONTINUOUS
 62
     7
100
AcDbVertex
100
AcDb2dVertex
 10
165.6784445724
 20
114.8625163602
 30
0.0
  0
VERTEX
  5
17D
330
F0
100
AcDbEntity
  8
DEFAULT
  6
CONTINUOUS
 62
     7
100
AcDbVertex
100
AcDb2dVertex
 10
162.6784445464
 20
115.3625163645
 30
0.0
  0
VERTEX
  5
17E
330
F0
100
AcDbEntity
  8
DEFAULT
  6
CONTINUOUS
 62
     7
100
AcDbVertex
100
AcDb2dVertex
 10
162.6784445464
 20
114.3625163558
 30
0.0
  0
SEQEND
  5
17A
330
F0
100
AcDbEntity
  8
DEFAULT
  6
CONTINUOUS
 62
     7
 48
25.4
  0
LINE
  5
F1
330
ED
100
AcDbEntity
  8
DEFAULT
  6
CONTINUOUS
 62
     7
 48
25.4
100
AcDbLine
 10
142.6784445724
 20
159.7782222794
 30
0.0
 11
142.6784445724
 21
113.3625163471
 31
0.0
  0
LINE
  5
F2
330
ED
100
AcDbEntity
  8
DEFAULT
  6
CONTINUOUS
 62
     7
 48
25.4
100
AcDbLine
 10
165.6784445724
 20
172.7782222794
 30
0.0
 11
165.6784445724
 21
113.3625163471
 31
0.0
  0
LINE
  5
F3
330
ED
100
AcDbEntity
  8
DEFAULT
  6
CONTINUOUS
 62
     7
 48
25.4
100
AcDbLine
 10
142.6784445724
 20
114.8625163602
 30
0.0
 11
165.6784446171
 21
114.8625163602
 31
0.0
  0
TEXT
  5
F4
330
ED
100
AcDbEntity
  8
DEFAULT
  6
CONTINUOUS
 62
     7
 48
25.4
100
AcDbText
 10
152.4738991402
 20
115.6125163602
 30
0.0
 40
3.0
  1
23
  7
SEACAD_SEISO_TTF
 11
152.4738991402
 21
118.6125163602
 31
0.0
100
AcDbText
 73
     3
  0
ENDBLK
  5
F6
330
ED
100
AcDbEntity
  8
0
100
AcDbBlockEnd
  0
BLOCK
  5
FF
330
F7
100
AcDbEntity
  8
0
100
AcDbBlockBegin
  2
SE14
 70
     0
 71
     0
 10
0.0
 20
0.0
 30
0.0
  3
SE14
  1

  0
POLYLINE
  5
F9
330
F7
100
AcDbEntity
  8
DEFAULT
  6
CONTINUOUS
 62
     7
 48
25.4
100
AcDb2dPolyline
 66
     1
 10
0.0
 20
0.0
 30
0.0
 70
     1
  0
VERTEX
  5
180
330
F9
100
AcDbEntity
  8
DEFAULT
  6
CONTINUOUS
 62
     7
100
AcDbVertex
100
AcDb2dVertex
 10
127.6784445464
 20
114.3625163558
 30
0.0
  0
VERTEX
  5
181
330
F9
100
AcDbEntity
  8
DEFAULT
  6
CONTINUOUS
 62
     7
100
AcDbVertex
100
AcDb2dVertex
 10
130.6784445724
 20
114.8625163602
 30
0.0
  0
VERTEX
  5
182
330
F9
100
AcDbEntity
  8
DEFAULT
  6
CONTINUOUS
 62
     7
100
AcDbVertex
100
AcDb2dVertex
 10
127.6784445464
 20
115.3625163645
 30
0.0
  0
VERTEX
  5
183
330
F9
100
AcDbEntity
  8
DEFAULT
  6
CONTINUOUS
 62
     7
100
AcDbVertex
100
AcDb2dVertex
 10
127.6784445464
 20
114.3625163558
 30
0.0
  0
SEQEND
  5
17F
330
F9
100
AcDbEntity
  8
DEFAULT
  6
CONTINUOUS
 62
     7
 48
25.4
  0
POLYLINE
  5
FA
330
F7
100
AcDbEntity
  8
DEFAULT
  6
CONTINUOUS
 62
     7
 48
25.4
100
AcDb2dPolyline
 66
     1
 10
0.0
 20
0.0
 30
0.0
 70
     1
  0
VERTEX
  5
185
330
FA
100
AcDbEntity
  8
DEFAULT
  6
CONTINUOUS
 62
     7
100
AcDbVertex
100
AcDb2dVertex
 10
98.6784445985
 20
114.3625163558
 30
0.0
  0
VERTEX
  5
186
330
FA
100
AcDbEntity
  8
DEFAULT
  6
CONTINUOUS
 62
     7
100
AcDbVertex
100
AcDb2dVertex
 10
95.6784445724
 20
114.8625163602
 30
0.0
  0
VERTEX
  5
187
330
FA
100
AcDbEntity
  8
DEFAULT
  6
CONTINUOUS
 62
     7
100
AcDbVertex
100
AcDb2dVertex
 10
98.6784445985
 20
115.3625163645
 30
0.0
  0
VERTEX
  5
188
330
FA
100
AcDbEntity
  8
DEFAULT
  6
CONTINUOUS
 62
     7
100
AcDbVertex
100
AcDb2dVertex
 10
98.6784445985
 20
114.3625163558
 30
0.0
  0
SEQEND
  5
184
330
FA
100
AcDbEntity
  8
DEFAULT
  6
CONTINUOUS
 62
     7
 48
25.4
  0
LINE
  5
FB
330
F7
100
AcDbEntity
  8
DEFAULT
  6
CONTINUOUS
 62
     7
 48
25.4
100
AcDbLine
 10
130.6784445724
 20
159.7782222794
 30
0.0
 11
130.6784445724
 21
113.3625163471
 31
0.0
  0
LINE
  5
FC
330
F7
100
AcDbEntity
  8
DEFAULT
  6
CONTINUOUS
 62
     7
 48
25.4
100
AcDbLine
 10
95.6784445724
 20
176.7782222794
 30
0.0
 11
95.6784445724
 21
113.3625163471
 31
0.0
  0
LINE
  5
FD
330
F7
100
AcDbEntity
  8
DEFAULT
  6
CONTINUOUS
 62
     7
 48
25.4
100
AcDbLine
 10
130.6784445724
 20
114.8625163602
 30
0.0
 11
95.6784444234
 21
114.8625163602
 31
0.0
  0
TEXT
  5
FE
330
F7
100
AcDbEntity
  8
DEFAULT
  6
CONTINUOUS
 62
     7
 48
25.4
100
AcDbText
 10
111.5420808616
 20
115.6125163602
 30
0.0
 40
3.0
  1
35
  7
SEACAD_SEISO_TTF
 11
111.5420808616
 21
118.6125163602
 31
0.0
100
AcDbText
 73
     3
  0
ENDBLK
  5
100
330
F7
100
AcDbEntity
  8
0
100
AcDbBlockEnd
  0
BLOCK
  5
10A
330
101
100
AcDbEntity
  8
0
100
AcDbBlockBegin
  2
SE15
 70
     0
 71
     0
 10
0.0
 20
0.0
 30
0.0
  3
SE15
  1

  0
POLYLINE
  5
103
330
101
100
AcDbEntity
  8
DEFAULT
  6
CONTINUOUS
 62
     7
 48
25.4
100
AcDb2dPolyline
 66
     1
 10
0.0
 20
0.0
 30
0.0
 70
     1
  0
VERTEX
  5
18A
330
103
100
AcDbEntity
  8
DEFAULT
  6
CONTINUOUS
 62
     7
100
AcDbVertex
100
AcDb2dVertex
 10
194.7036099558
 20
171.5282223055
 30
0.0
  0
VERTEX
  5
18B
330
103
100
AcDbEntity
  8
DEFAULT
  6
CONTINUOUS
 62
     7
100
AcDbVertex
100
AcDb2dVertex
 10
194.2036099515
 20
168.5282222794
 30
0.0
  0
VERTEX
  5
18C
330
103
100
AcDbEntity
  8
DEFAULT
  6
CONTINUOUS
 62
     7
100
AcDbVertex
100
AcDb2dVertex
 10
193.7036099471
 20
171.5282223055
 30
0.0
  0
VERTEX
  5
18D
330
103
100
AcDbEntity
  8
DEFAULT
  6
CONTINUOUS
 62
     7
100
AcDbVertex
100
AcDb2dVertex
 10
194.7036099558
 20
171.5282223055
 30
0.0
  0
SEQEND
  5
189
330
103
100
AcDbEntity
  8
DEFAULT
  6
CONTINUOUS
 62
     7
 48
25.4
  0
POLYLINE
  5
104
330
101
100
AcDbEntity
  8
DEFAULT
  6
CONTINUOUS
 62
     7
 48
25.4
100
AcDb2dPolyline
 66
     1
 10
0.0
 20
0.0
 30
0.0
 70
     1
  0
VERTEX
  5
18F
330
104
100
AcDbEntity
  8
DEFAULT
  6
CONTINUOUS
 62
     7
100
AcDbVertex
100
AcDb2dVertex
 10
194.7036099558
 20
182.0282222533
 30
0.0
  0
VERTEX
  5
190
330
104
100
AcDbEntity
  8
DEFAULT
  6
CONTINUOUS
 62
     7
100
AcDbVertex
100
AcDb2dVertex
 10
194.2036099515
 20
185.0282222794
 30
0.0
  0
VERTEX
  5
191
330
104
100
AcDbEntity
  8
DEFAULT
  6
CONTINUOUS
 62
     7
100
AcDbVertex
100
AcDb2dVertex
 10
193.7036099471
 20
182.0282222533
 30
0.0
  0
VERTEX
  5
192
330
104
100
AcDbEntity
  8
DEFAULT
  6
CONTINUOUS
 62
     7
100
AcDbVertex
100
AcDb2dVertex
 10
194.7036099558
 20
182.0282222533
 30
0.0
  0
SEQEND
  5
18E
330
104
100
AcDbEntity
  8
DEFAULT
  6
CONTINUOUS
 62
     7
 48
25.4
  0
LINE
  5
105
330
101
100
AcDbEntity
  8
DEFAULT
  6
CONTINUOUS
 62
     7
 48
25.4
100
AcDbLine
 10
136.6784445724
 20
168.5282222794
 30
0.0
 11
195.7036099645
 21
168.5282222794
 31
0.0
  0
LINE
  5
106
330
101
100
AcDbEntity
  8
DEFAULT
  6
CONTINUOUS
 62
     7
 48
25.4
100
AcDbLine
 10
141.6784445724
 20
185.0282222794
 30
0.0
 11
195.7036099645
 21
185.0282222794
 31
0.0
  0
LINE
  5
107
330
101
100
AcDbEntity
  8
DEFAULT
  6
CONTINUOUS
 62
     7
 48
25.4
100
AcDbLine
 10
194.2036099515
 20
168.5282222794
 30
0.0
 11
194.2036099515
 21
185.02822219
 31
0.0
  0
TEXT
  5
108
330
101
100
AcDbEntity
  8
DEFAULT
  6
CONTINUOUS
 62
     7
 48
25.4
100
AcDbText
 10
193.4536099515
 20
175.9394370025
 30
0.0
 40
3.0
  1
16,5
 50
90.0
  7
SEACAD_SEISO_TTF
 11
190.4536099515
 21
175.9394370025
 31
0.0
100
AcDbText
 73
     3
  0
TEXT
  5
109
330
101
100
AcDbEntity
  8
DEFAULT
  6
CONTINUOUS
 62
     7
 48
25.4
100
AcDbText
 10
193.4536099515
 20
172.2988256488
 30
0.0
 40
3.0
  1
O
 50
90.0
  7
SEACAD_SEMECI1_TTF
 11
190.4536099515
 21
172.2988256488
 31
0.0
100
AcDbText
 73
     3
  0
ENDBLK
  5
10B
330
101
100
AcDbEntity
  8
0
100
AcDbBlockEnd
  0
ENDSEC
  0
SECTION
  2
ENTITIES
  0
TEXT
  5
2F
330
1F
100
AcDbEntity
  8
DEFAULT
  6
CONTINUOUS
 62
     7
 48
25.4
100
AcDbText
 10
92.5998389649
 20
57.4473171714
 30
0.0
 40
5.0
  1
41.405
  7
SEACAD_SEISO_TTF
 11
92.5998389649
 21
62.4473171714
 31
0.0
100
AcDbText
 73
     3
  0
INSERT
  5
32
330
1F
100
AcDbEntity
  8
0
100
AcDbBlockReference
  2
SE
 10
0.0
 20
0.0
 30
0.0
  0
INSERT
  5
4F
330
1F
100
AcDbEntity
  8
0
100
AcDbBlockReference
  2
SE1
 10
0.0
 20
0.0
 30
0.0
  0
INSERT
  5
7C
330
1F
100
AcDbEntity
  8
0
100
AcDbBlockReference
  2
SE2
 10
0.0
 20
0.0
 30
0.0
  0
INSERT
  5
85
330
1F
100
AcDbEntity
  8
0
100
AcDbBlockReference
  2
SE3
 10
0.0
 20
0.0
 30
0.0
  0
INSERT
  5
8F
330
1F
100
AcDbEntity
  8
0
100
AcDbBlockReference
  2
SE4
 10
0.0
 20
0.0
 30
0.0
  0
INSERT
  5
99
330
1F
100
AcDbEntity
  8
0
100
AcDbBlockReference
  2
SE5
 10
0.0
 20
0.0
 30
0.0
  0
INSERT
  5
A3
330
1F
100
AcDbEntity
  8
0
100
AcDbBlockReference
  2
SE6
 10
0.0
 20
0.0
 30
0.0
  0
INSERT
  5
AF
330
1F
100
AcDbEntity
  8
0
100
AcDbBlockReference
  2
SE7
 10
0.0
 20
0.0
 30
0.0
  0
INSERT
  5
BA
330
1F
100
AcDbEntity
  8
0
100
AcDbBlockReference
  2
SE8
 10
0.0
 20
0.0
 30
0.0
  0
INSERT
  5
C5
330
1F
100
AcDbEntity
  8
0
100
AcDbBlockReference
  2
SE9
 10
0.0
 20
0.0
 30
0.0
  0
INSERT
  5
D0
330
1F
100
AcDbEntity
  8
0
100
AcDbBlockReference
  2
SE10
 10
0.0
 20
0.0
 30
0.0
  0
INSERT
  5
DA
330
1F
100
AcDbEntity
  8
0
100
AcDbBlockReference
  2
SE11
 10
0.0
 20
0.0
 30
0.0
  0
INSERT
  5
E4
330
1F
100
AcDbEntity
  8
0
100
AcDbBlockReference
  2
SE12
 10
0.0
 20
0.0
 30
0.0
  0
INSERT
  5
EE
330
1F
100
AcDbEntity
  8
0
100
AcDbBlockReference
  2
SE13
 10
0.0
 20
0.0
 30
0.0
  0
INSERT
  5
F8
330
1F
100
AcDbEntity
  8
0
100
AcDbBlockReference
  2
SE14
 10
0.0
 20
0.0
 30
0.0
  0
INSERT
  5
102
330
1F
100
AcDbEntity
  8
0
100
AcDbBlockReference
  2
SE15
 10
0.0
 20
0.0
 30
0.0
  0
ENDSEC
  0
SECTION
  2
OBJECTS
  0
DICTIONARY
  5
C
330
0
100
AcDbDictionary
  3
ACAD_GROUP
350
D
  3
ACAD_LAYOUT
350
1A
  3
ACAD_MLINESTYLE
350
17
  3
ACAD_PLOTSETTINGS
350
19
  3
ACAD_TABLESTYLE
350
2A
  3
ACDBVARIABLEDICTIONARY
350
2C
1001
ACAD
1000
TREAT_AS_HARD
1070
     0
  0
DICTIONARY
  5
193
330
29
100
AcDbDictionary
  3
ACAD_XREC_ROUNDTRIP
360
194
  0
DICTIONARY
  5
D
102
{ACAD_REACTORS
330
C
102
}
330
C
100
AcDbDictionary
1001
ACAD
1000
TREAT_AS_HARD
1070
     0
  0
DICTIONARY
  5
1A
102
{ACAD_REACTORS
330
C
102
}
330
C
100
AcDbDictionary
1001
ACAD
1000
TREAT_AS_HARD
1070
     0
  0
DICTIONARY
  5
17
102
{ACAD_REACTORS
330
C
102
}
330
C
100
AcDbDictionary
  3
STANDARD
350
18
1001
ACAD
1000
TREAT_AS_HARD
1070
     0
  0
DICTIONARY
  5
19
102
{ACAD_REACTORS
330
C
102
}
330
C
100
AcDbDictionary
1001
ACAD
1000
TREAT_AS_HARD
1070
     0
  0
DICTIONARY
  5
2A
102
{ACAD_REACTORS
330
C
102
}
330
C
100
AcDbDictionary
  3
STANDARD
350
2B
1001
ACAD
1000
TREAT_AS_HARD
1070
     0
  0
DICTIONARY
  5
2C
102
{ACAD_REACTORS
330
C
102
}
330
C
100
AcDbDictionary
  3
CTABLESTYLE
350
2D
1001
ACAD
1000
TREAT_AS_HARD
1070
     0
  0
XRECORD
  5
194
102
{ACAD_REACTORS
330
193
102
}
330
193
100
AcDbXrecord
102
UCS
 74
     0
 71
     1
 10
0.0
 20
0.0
 30
0.0
 10
1.0
 20
0.0
 30
0.0
 10
0.0
 20
1.0
 30
0.0
146
0.0
 79
     0
102
VIEW
281
     0
  0
MLINESTYLE
  5
18
102
{ACAD_REACTORS
330
17
102
}
330
17
100
AcDbMlineStyle
  2
Standard
 70
     0
  3

 62
   256
 51
90.0
 52
90.0
 71
     2
 49
0.5
 62
   256
  6
BYLAYER
 49
-0.5
 62
   256
  6
BYLAYER
  0
TABLESTYLE
  5
2B
102
{ACAD_REACTORS
330
2A
102
}
330
2A
100
AcDbTableStyle
  3
Standard
 70
     0
 71
     0
 40
0.06
 41
0.06
280
     0
281
     0
  7
STANDARD
140
0.18
170
     2
 62
     0
 63
     7
283
     0
274
    -2
284
     1
 64
     0
275
    -2
285
     1
 65
     0
276
    -2
286
     1
 66
     0
277
    -2
287
     1
 67
     0
278
    -2
288
     1
 68
     0
279
    -2
289
     1
 69
     0
  7
STANDARD
140
0.25
170
     5
 62
     0
 63
     7
283
     0
274
    -2
284
     1
 64
     0
275
    -2
285
     1
 65
     0
276
    -2
286
     1
 66
     0
277
    -2
287
     1
 67
     0
278
    -2
288
     1
 68
     0
279
    -2
289
     1
 69
     0
  7
STANDARD
140
0.18
170
     5
 62
     0
 63
     7
283
     0
274
    -2
284
     1
 64
     0
275
    -2
285
     1
 65
     0
276
    -2
286
     1
 66
     0
277
    -2
287
     1
 67
     0
278
    -2
288
     1
 68
     0
279
    -2
289
     1
 69
     0
  0
DICTIONARYVAR
  5
2D
102
{ACAD_REACTORS
330
2C
102
}
330
2C
100
DictionaryVariables
280
     0
  1
Standard
  0
ENDSEC
  0
EOF
