  0
SECTION
  2
HEADER
  9
$ACADVER
  1
AC1012
  9
$DWGCODEPAGE
  3
ansi_1252
  9
$INSBASE
 10
0.0
 20
0.0
 30
0.0
  9
$EXTMIN
 10
0.0
 20
0.0
 30
0.0
  9
$EXTMAX
 10
210.0
 20
297.0
 30
0.0
  9
$LIMMIN
 10
0.0
 20
0.0
  9
$LIMMAX
 10
210.0
 20
297.0
  9
$ORTHOMODE
 70
     0
  9
$REGENMODE
 70
     1
  9
$FILLMODE
 70
     1
  9
$QTEXTMODE
 70
     0
  9
$MIRRTEXT
 70
     1
  9
$DRAGMODE
 70
     2
  9
$LTSCALE
 40
1.0
  9
$OSMODE
 70
    37
  9
$ATTMODE
 70
     1
  9
$TEXTSIZE
 40
0.2
  9
$TRACEWID
 40
0.05
  9
$TEXTSTYLE
  7
STANDARD
  9
$CLAYER
  8
0
  9
$CELTYPE
  6
BYLAYER
  9
$CECOLOR
 62
   256
  9
$CELTSCALE
 40
25.4
  9
$DELOBJ
 70
     1
  9
$DISPSILH
 70
     0
  9
$DIMSCALE
 40
1.0
  9
$DIMASZ
 40
0.18
  9
$DIMEXO
 40
0.0625
  9
$DIMDLI
 40
0.38
  9
$DIMRND
 40
0.0
  9
$DIMDLE
 40
0.0
  9
$DIMEXE
 40
0.18
  9
$DIMTP
 40
0.0
  9
$DIMTM
 40
0.0
  9
$DIMTXT
 40
0.18
  9
$DIMCEN
 40
0.09
  9
$DIMTSZ
 40
0.0
  9
$DIMTOL
 70
     0
  9
$DIMLIM
 70
     0
  9
$DIMTIH
 70
     1
  9
$DIMTOH
 70
     1
  9
$DIMSE1
 70
     0
  9
$DIMSE2
 70
     0
  9
$DIMTAD
 70
     0
  9
$DIMZIN
 70
     0
  9
$DIMBLK
  1

  9
$DIMASO
 70
     1
  9
$DIMSHO
 70
     1
  9
$DIMPOST
  1

  9
$DIMAPOST
  1

  9
$DIMALT
 70
     0
  9
$DIMALTD
 70
     2
  9
$DIMALTF
 40
25.4
  9
$DIMLFAC
 40
1.0
  9
$DIMTOFL
 70
     0
  9
$DIMTVP
 40
0.0
  9
$DIMTIX
 70
     0
  9
$DIMSOXD
 70
     0
  9
$DIMSAH
 70
     0
  9
$DIMBLK1
  1

  9
$DIMBLK2
  1

  9
$DIMSTYLE
  2
STANDARD
  9
$DIMCLRD
 70
     0
  9
$DIMCLRE
 70
     0
  9
$DIMCLRT
 70
     0
  9
$DIMTFAC
 40
1.0
  9
$DIMGAP
 40
0.09
  9
$DIMJUST
 70
     0
  9
$DIMSD1
 70
     0
  9
$DIMSD2
 70
     0
  9
$DIMTOLJ
 70
     1
  9
$DIMTZIN
 70
     0
  9
$DIMALTZ
 70
     0
  9
$DIMALTTZ
 70
     0
  9
$DIMFIT
 70
     3
  9
$DIMUPT
 70
     0
  9
$DIMUNIT
 70
     2
  9
$DIMDEC
 70
     4
  9
$DIMTDEC
 70
     4
  9
$DIMALTU
 70
     2
  9
$DIMALTTD
 70
     2
  9
$DIMTXSTY
  7
STANDARD
  9
$DIMAUNIT
 70
     0
  9
$LUNITS
 70
     2
  9
$LUPREC
 70
     4
  9
$SKETCHINC
 40
0.1
  9
$FILLETRAD
 40
0.5
  9
$AUNITS
 70
     0
  9
$AUPREC
 70
     0
  9
$MENU
  1
.
  9
$ELEVATION
 40
0.0
  9
$PELEVATION
 40
0.0
  9
$THICKNESS
 40
0.0
  9
$LIMCHECK
 70
     0
  9
$CHAMFERA
 40
0.5
  9
$CHAMFERB
 40
0.5
  9
$CHAMFERC
 40
1.0
  9
$CHAMFERD
 40
0.0
  9
$SKPOLY
 70
     0
  9
$TDCREATE
 40
2453762.546231296
  9
$TDUPDATE
 40
2453762.546231308
  9
$TDINDWG
 40
0.0000000116
  9
$TDUSRTIMER
 40
0.0000000116
  9
$USRTIMER
 70
     1
  9
$ANGBASE
 50
0.0
  9
$ANGDIR
 70
     0
  9
$PDMODE
 70
     0
  9
$PDSIZE
 40
0.0
  9
$PLINEWID
 40
0.0
  9
$COORDS
 70
     1
  9
$SPLFRAME
 70
     0
  9
$SPLINETYPE
 70
     6
  9
$SPLINESEGS
 70
     8
  9
$ATTDIA
 70
     0
  9
$ATTREQ
 70
     1
  9
$HANDLING
 70
     1
  9
$HANDSEED
  5
256
  9
$SURFTAB1
 70
     6
  9
$SURFTAB2
 70
     6
  9
$SURFTYPE
 70
     6
  9
$SURFU
 70
     6
  9
$SURFV
 70
     6
  9
$UCSNAME
  2

  9
$UCSORG
 10
0.0
 20
0.0
 30
0.0
  9
$UCSXDIR
 10
1.0
 20
0.0
 30
0.0
  9
$UCSYDIR
 10
0.0
 20
1.0
 30
0.0
  9
$PUCSNAME
  2

  9
$PUCSORG
 10
0.0
 20
0.0
 30
0.0
  9
$PUCSXDIR
 10
1.0
 20
0.0
 30
0.0
  9
$PUCSYDIR
 10
0.0
 20
1.0
 30
0.0
  9
$USERI1
 70
     0
  9
$USERI2
 70
     0
  9
$USERI3
 70
     0
  9
$USERI4
 70
     0
  9
$USERI5
 70
     0
  9
$USERR1
 40
0.0
  9
$USERR2
 40
0.0
  9
$USERR3
 40
0.0
  9
$USERR4
 40
0.0
  9
$USERR5
 40
0.0
  9
$WORLDVIEW
 70
     1
  9
$SHADEDGE
 70
     3
  9
$SHADEDIF
 70
    70
  9
$TILEMODE
 70
     1
  9
$MAXACTVP
 70
    64
  9
$PINSBASE
 10
0.0
 20
0.0
 30
0.0
  9
$PLIMCHECK
 70
     0
  9
$PEXTMIN
 10
0.0
 20
0.0
 30
0.0
  9
$PEXTMAX
 10
210.0
 20
297.0
 30
0.0
  9
$PLIMMIN
 10
0.0
 20
0.0
  9
$PLIMMAX
 10
12.0
 20
9.0
  9
$UNITMODE
 70
     0
  9
$VISRETAIN
 70
     1
  9
$PLINEGEN
 70
     0
  9
$PSLTSCALE
 70
     1
  9
$TREEDEPTH
 70
  3020
  9
$PICKSTYLE
 70
     1
  9
$CMLSTYLE
  2
STANDARD
  9
$CMLJUST
 70
     0
  9
$CMLSCALE
 40
1.0
  9
$SAVEIMAGES
 70
     1
  0
ENDSEC
  0
SECTION
  2
CLASSES
  0
CLASS
  1
ACDBDICTIONARYWDFLT
  2
AcDbDictionaryWithDefault
  3
ObjectDBX Classes
 90
        0
280
     0
281
     0
  0
CLASS
  1
TABLESTYLE
  2
AcDbTableStyle
  3
ObjectDBX Classes
 90
     2047
280
     0
281
     0
  0
CLASS
  1
DICTIONARYVAR
  2
AcDbDictionaryVar
  3
ObjectDBX Classes
 90
        0
280
     0
281
     0
  0
CLASS
  1
XRECORD
  2
AcDbXrecord
  3
AutoCAD 2000
 90
    32768
280
     0
281
     0
  0
CLASS
  1
LWPOLYLINE
  2
AcDbPolyline
  3
AutoCAD 2000
 90
    32768
280
     0
281
     1
  0
CLASS
  1
HATCH
  2
AcDbHatch
  3
AutoCAD 2000
 90
    32768
280
     0
281
     1
  0
CLASS
  1
ACDBPLACEHOLDER
  2
AcDbPlaceHolder
  3
ObjectDBX Classes
 90
        0
280
     0
281
     0
  0
CLASS
  1
LAYOUT
  2
AcDbLayout
  3
ObjectDBX Classes
 90
        0
280
     0
281
     0
  0
ENDSEC
  0
SECTION
  2
TABLES
  0
TABLE
  2
VPORT
  5
8
330
0
100
AcDbSymbolTable
 70
     2
  0
VPORT
  5
29
102
{ACAD_XDICTIONARY
360
254
102
}
330
8
100
AcDbSymbolTableRecord
100
AcDbViewportTableRecord
  2
*ACTIVE
 70
     0
 10
0.0
 20
0.0
 11
1.0
 21
1.0
 12
10.4299065421
 22
4.5
 13
0.0
 23
0.0
 14
0.5
 24
0.5
 15
0.5
 25
0.5
 16
0.0
 26
0.0
 36
1.0
 17
0.0
 27
0.0
 37
0.0
 40
9.0
 41
1.9729729729
 42
50.0
 43
0.0
 44
0.0
 50
0.0
 51
0.0
 71
     0
 72
   100
 73
     1
 74
     3
 75
     0
 76
     0
 77
     0
 78
     0
  0
ENDTAB
  0
TABLE
  2
LTYPE
  5
5
330
0
100
AcDbSymbolTable
 70
     3
  0
LTYPE
  5
14
330
5
100
AcDbSymbolTableRecord
100
AcDbLinetypeTableRecord
  2
BYBLOCK
 70
     0
  3

 72
    65
 73
     0
 40
0.0
  0
LTYPE
  5
15
330
5
100
AcDbSymbolTableRecord
100
AcDbLinetypeTableRecord
  2
BYLAYER
 70
     0
  3

 72
    65
 73
     0
 40
0.0
  0
LTYPE
  5
16
330
5
100
AcDbSymbolTableRecord
100
AcDbLinetypeTableRecord
  2
CONTINUOUS
 70
     0
  3
Solid line
 72
    65
 73
     0
 40
0.0
  0
LTYPE
  5
44
330
5
100
AcDbSymbolTableRecord
100
AcDbLinetypeTableRecord
  2
CENTER2
 70
     0
  3
___ _ ___ _ ___ _ ___ _ ___ _ ___ _ ___ _ ___ _
 72
    65
 73
     4
 40
1.125
 49
0.75
 74
     4
 75
     0
340
0
 46
0.0
 50
0.0
 44
0.0
 45
0.0
 49
-0.125
 74
     4
 75
     0
340
0
 46
0.0
 50
0.0
 44
0.0
 45
0.0
 49
0.125
 74
     4
 75
     0
340
0
 46
0.0
 50
0.0
 44
0.0
 45
0.0
 49
-0.125
 74
     4
 75
     0
340
0
 46
0.0
 50
0.0
 44
0.0
 45
0.0
  0
LTYPE
  5
9B
330
5
100
AcDbSymbolTableRecord
100
AcDbLinetypeTableRecord
  2
HIDDEN2
 70
     0
  3
_ _ _ _ _ _ _ _ _ _ _ _ _ _ _ _ _ _ _ _ _ _ _ _
 72
    65
 73
     2
 40
0.1875
 49
0.125
 74
     4
 75
     0
340
0
 46
0.0
 50
0.0
 44
0.0
 45
0.0
 49
-0.0625
 74
     4
 75
     0
340
0
 46
0.0
 50
0.0
 44
0.0
 45
0.0
  0
ENDTAB
  0
TABLE
  2
LAYER
  5
2
330
0
100
AcDbSymbolTable
 70
     8
  0
LAYER
  5
10
330
2
100
AcDbSymbolTableRecord
100
AcDbLayerTableRecord
  2
0
 70
     0
 62
     7
  6
CONTINUOUS
  0
LAYER
  5
30
330
2
100
AcDbSymbolTableRecord
100
AcDbLayerTableRecord
  2
DEFAULT
 70
     0
 62
     7
  6
CONTINUOUS
  0
LAYER
  5
43
330
2
100
AcDbSymbolTableRecord
100
AcDbLayerTableRecord
  2
STANDARD
 70
     0
 62
     7
  6
CONTINUOUS
  0
LAYER
  5
90
330
2
100
AcDbSymbolTableRecord
100
AcDbLayerTableRecord
  2
MEGA_002227
 70
     0
 62
     7
  6
CONTINUOUS
  0
LAYER
  5
B5
330
2
100
AcDbSymbolTableRecord
100
AcDbLayerTableRecord
  2
MEGA_000724
 70
     0
 62
     7
  6
CONTINUOUS
  0
LAYER
  5
BA
330
2
100
AcDbSymbolTableRecord
100
AcDbLayerTableRecord
  2
MEGA_002205
 70
     0
 62
     7
  6
CONTINUOUS
  0
LAYER
  5
CF
330
2
100
AcDbSymbolTableRecord
100
AcDbLayerTableRecord
  2
MEGA_002229
 70
     0
 62
     7
  6
CONTINUOUS
  0
LAYER
  5
137
330
2
100
AcDbSymbolTableRecord
100
AcDbLayerTableRecord
  2
MEGA_002211
 70
     0
 62
     7
  6
CONTINUOUS
  0
ENDTAB
  0
TABLE
  2
STYLE
  5
3
330
0
100
AcDbSymbolTable
 70
     3
  0
STYLE
  5
11
330
3
100
AcDbSymbolTableRecord
100
AcDbTextStyleTableRecord
  2
STANDARD
 70
     0
 40
0.0
 41
1.0
 50
0.0
 71
     0
 42
0.2
  3
txt
  4

  0
STYLE
  5
2E
330
3
100
AcDbSymbolTableRecord
100
AcDbTextStyleTableRecord
  2
SEACAD_SEISO_TTF
 70
     0
 40
0.2
 41
1.0
 50
0.0
 71
     0
 42
0.2
  3
seiso.ttf
  4

  0
STYLE
  5
19F
330
3
100
AcDbSymbolTableRecord
100
AcDbTextStyleTableRecord
  2
SEACAD_SEMECI1_TTF
 70
     0
 40
0.2
 41
1.0
 50
0.0
 71
     0
 42
0.2
  3
semeci1.ttf
  4

  0
ENDTAB
  0
TABLE
  2
VIEW
  5
6
330
0
100
AcDbSymbolTable
 70
     0
  0
ENDTAB
  0
TABLE
  2
UCS
  5
7
330
0
100
AcDbSymbolTable
 70
     0
  0
ENDTAB
  0
TABLE
  2
APPID
  5
9
330
0
100
AcDbSymbolTable
 70
     1
  0
APPID
  5
12
330
9
100
AcDbSymbolTableRecord
100
AcDbRegAppTableRecord
  2
ACAD
 70
     0
  0
ENDTAB
  0
TABLE
  2
DIMSTYLE
  5
A
330
0
100
AcDbSymbolTable
 70
     1
  0
DIMSTYLE
105
27
330
A
100
AcDbSymbolTableRecord
100
AcDbDimStyleTableRecord
  2
STANDARD
 70
     0
  3

  4

  5

  6

  7

 40
1.0
 41
0.18
 42
0.0625
 43
0.38
 44
0.18
 45
0.0
 46
0.0
 47
0.0
 48
0.0
140
0.18
141
0.09
142
0.0
143
25.4
144
1.0
145
0.0
146
1.0
147
0.09
 71
     0
 72
     0
 73
     1
 74
     1
 75
     0
 76
     0
 77
     0
 78
     0
170
     0
171
     2
172
     0
173
     0
174
     0
175
     0
176
     0
177
     0
178
     0
270
     2
271
     4
272
     4
273
     2
274
     2
340
11
275
     0
280
     0
281
     0
282
     0
283
     1
284
     0
285
     0
286
     0
287
     3
288
     0
  0
ENDTAB
  0
TABLE
  2
BLOCK_RECORD
  5
1
330
0
100
AcDbSymbolTable
 70
    18
  0
BLOCK_RECORD
  5
1F
330
1
100
AcDbSymbolTableRecord
100
AcDbBlockTableRecord
  2
*MODEL_SPACE
  0
BLOCK_RECORD
  5
1B
330
1
100
AcDbSymbolTableRecord
100
AcDbBlockTableRecord
  2
*PAPER_SPACE
  0
BLOCK_RECORD
  5
31
330
1
100
AcDbSymbolTableRecord
100
AcDbBlockTableRecord
  2
SE
  0
BLOCK_RECORD
  5
37
330
1
100
AcDbSymbolTableRecord
100
AcDbBlockTableRecord
  2
SE1
  0
BLOCK_RECORD
  5
3C
330
1
100
AcDbSymbolTableRecord
100
AcDbBlockTableRecord
  2
SE2
  0
BLOCK_RECORD
  5
41
330
1
100
AcDbSymbolTableRecord
100
AcDbBlockTableRecord
  2
SE3
  0
BLOCK_RECORD
  5
103
330
1
100
AcDbSymbolTableRecord
100
AcDbBlockTableRecord
  2
SE4
  0
BLOCK_RECORD
  5
166
330
1
100
AcDbSymbolTableRecord
100
AcDbBlockTableRecord
  2
SE5
  0
BLOCK_RECORD
  5
16F
330
1
100
AcDbSymbolTableRecord
100
AcDbBlockTableRecord
  2
SE6
  0
BLOCK_RECORD
  5
179
330
1
100
AcDbSymbolTableRecord
100
AcDbBlockTableRecord
  2
SE7
  0
BLOCK_RECORD
  5
183
330
1
100
AcDbSymbolTableRecord
100
AcDbBlockTableRecord
  2
SE8
  0
BLOCK_RECORD
  5
18D
330
1
100
AcDbSymbolTableRecord
100
AcDbBlockTableRecord
  2
SE9
  0
BLOCK_RECORD
  5
197
330
1
100
AcDbSymbolTableRecord
100
AcDbBlockTableRecord
  2
SE10
  0
BLOCK_RECORD
  5
1A3
330
1
100
AcDbSymbolTableRecord
100
AcDbBlockTableRecord
  2
SE11
  0
BLOCK_RECORD
  5
1AE
330
1
100
AcDbSymbolTableRecord
100
AcDbBlockTableRecord
  2
SE12
  0
BLOCK_RECORD
  5
1B9
330
1
100
AcDbSymbolTableRecord
100
AcDbBlockTableRecord
  2
SE13
  0
BLOCK_RECORD
  5
1C3
330
1
100
AcDbSymbolTableRecord
100
AcDbBlockTableRecord
  2
SE14
  0
BLOCK_RECORD
  5
1CD
330
1
100
AcDbSymbolTableRecord
100
AcDbBlockTableRecord
  2
SE15
  0
BLOCK_RECORD
  5
1D7
330
1
100
AcDbSymbolTableRecord
100
AcDbBlockTableRecord
  2
SE16
  0
ENDTAB
  0
ENDSEC
  0
SECTION
  2
BLOCKS
  0
BLOCK
  5
20
330
1F
100
AcDbEntity
  8
0
100
AcDbBlockBegin
  2
*MODEL_SPACE
 70
     0
 71
     0
 10
0.0
 20
0.0
 30
0.0
  3
*MODEL_SPACE
  1

  0
ENDBLK
  5
21
330
1F
100
AcDbEntity
  8
0
100
AcDbBlockEnd
  0
BLOCK
  5
1C
330
1B
100
AcDbEntity
 67
     1
  8
0
100
AcDbBlockBegin
  2
*PAPER_SPACE
 70
     0
 71
     0
 10
0.0
 20
0.0
 30
0.0
  3
*PAPER_SPACE
  1

  0
ENDBLK
  5
1D
330
1B
100
AcDbEntity
 67
     1
  8
0
100
AcDbBlockEnd
  0
BLOCK
  5
35
330
31
100
AcDbEntity
  8
0
100
AcDbBlockBegin
  2
SE
 70
     0
 71
     0
 10
0.0
 20
0.0
 30
0.0
  3
SE
  1

  0
LINE
  5
33
330
31
100
AcDbEntity
  8
0
  6
CONTINUOUS
 62
     7
 48
25.4
100
AcDbLine
 10
41.2279634341
 20
224.7051872373
 30
0.0
 11
40.7339338399
 21
224.2245097943
 31
0.0
  0
LINE
  5
34
330
31
100
AcDbEntity
  8
0
  6
CONTINUOUS
 62
     7
 48
25.4
100
AcDbLine
 10
40.7339338399
 20
218.2279190952
 30
0.0
 11
42.4907754693
 21
219.9847607246
 31
0.0
  0
ENDBLK
  5
36
330
31
100
AcDbEntity
  8
0
100
AcDbBlockEnd
  0
BLOCK
  5
3A
330
37
100
AcDbEntity
  8
0
100
AcDbBlockBegin
  2
SE1
 70
     0
 71
     0
 10
0.0
 20
0.0
 30
0.0
  3
SE1
  1

  0
LINE
  5
39
330
37
100
AcDbEntity
  8
0
  6
CONTINUOUS
 62
     7
 48
25.4
100
AcDbLine
 10
39.668912575
 20
218.7834243611
 30
0.0
 11
40.7269339987
 21
219.8555527371
 31
0.0
  0
ENDBLK
  5
3B
330
37
100
AcDbEntity
  8
0
100
AcDbBlockEnd
  0
BLOCK
  5
3F
330
3C
100
AcDbEntity
  8
0
100
AcDbBlockBegin
  2
SE2
 70
     0
 71
     0
 10
0.0
 20
0.0
 30
0.0
  3
SE2
  1

  0
LINE
  5
3E
330
3C
100
AcDbEntity
  8
0
  6
CONTINUOUS
 62
     7
 48
25.4
100
AcDbLine
 10
40.3281960566
 20
215.5343633542
 30
0.0
 11
40.7339338399
 21
215.9401011374
 31
0.0
  0
ENDBLK
  5
40
330
3C
100
AcDbEntity
  8
0
100
AcDbBlockEnd
  0
BLOCK
  5
101
330
41
100
AcDbEntity
  8
0
100
AcDbBlockBegin
  2
SE3
 70
     0
 71
     0
 10
0.0
 20
0.0
 30
0.0
  3
SE3
  1

  0
LINE
  5
45
330
41
100
AcDbEntity
  8
STANDARD
  6
CENTER2
 62
     7
 48
25.4
100
AcDbLine
 10
24.2339338399
 20
175.1902782121
 30
0.0
 11
57.2339338399
 21
175.1902782121
 31
0.0
  0
POLYLINE
  5
46
330
41
100
AcDbEntity
  8
0
  6
CONTINUOUS
 62
     7
 48
25.4
100
AcDb2dPolyline
 66
     1
 10
0.0
 20
0.0
 30
0.0
 70
     1
 40
0.35
 41
0.35
  0
VERTEX
  5
47
330
46
100
AcDbEntity
  8
0
  6
CONTINUOUS
 62
     7
100
AcDbVertex
100
AcDb2dVertex
 10
41.9572892207
 20
220.4912161562
 30
0.0
 40
0.0
 41
0.0
  0
VERTEX
  5
48
330
46
100
AcDbEntity
  8
0
  6
CONTINUOUS
 62
     7
100
AcDbVertex
100
AcDb2dVertex
 10
42.5790308658
 20
219.900977075
 30
0.0
 40
0.0
 41
0.0
  0
VERTEX
  5
49
330
46
100
AcDbEntity
  8
0
  6
CONTINUOUS
 62
     7
100
AcDbVertex
100
AcDb2dVertex
 10
41.8489326591
 20
219.1319116664
 30
0.0
 40
0.0
 41
0.0
  0
VERTEX
  5
4A
330
46
100
AcDbEntity
  8
0
  6
CONTINUOUS
 62
     7
100
AcDbVertex
100
AcDb2dVertex
 10
41.8489326591
 20
218.3520993762
 30
0.0
 40
0.0
 41
0.0
 70
     8
  0
VERTEX
  5
4B
330
46
100
AcDbEntity
  8
0
  6
CONTINUOUS
 62
     7
100
AcDbVertex
100
AcDb2dVertex
 10
41.8628566732
 20
218.3394490431
 30
0.0
 40
0.0
 41
0.0
 70
     8
  0
VERTEX
  5
4C
330
46
100
AcDbEntity
  8
0
  6
CONTINUOUS
 62
     7
100
AcDbVertex
100
AcDb2dVertex
 10
41.8766360084
 20
218.3266412714
 30
0.0
 40
0.0
 41
0.0
 70
     8
  0
VERTEX
  5
4D
330
46
100
AcDbEntity
  8
0
  6
CONTINUOUS
 62
     7
100
AcDbVertex
100
AcDb2dVertex
 10
41.8902688847
 20
218.3136777154
 30
0.0
 40
0.0
 41
0.0
 70
     8
  0
VERTEX
  5
4E
330
46
100
AcDbEntity
  8
0
  6
CONTINUOUS
 62
     7
100
AcDbVertex
100
AcDb2dVertex
 10
41.9037535408
 20
218.30056005
 30
0.0
 40
0.0
 41
0.0
 70
     8
  0
VERTEX
  5
4F
330
46
100
AcDbEntity
  8
0
  6
CONTINUOUS
 62
     7
100
AcDbVertex
100
AcDb2dVertex
 10
41.9170882348
 20
218.2872899696
 30
0.0
 40
0.0
 41
0.0
 70
     8
  0
VERTEX
  5
50
330
46
100
AcDbEntity
  8
0
  6
CONTINUOUS
 62
     7
100
AcDbVertex
100
AcDb2dVertex
 10
41.9302712441
 20
218.2738691886
 30
0.0
 40
0.0
 41
0.0
 70
     8
  0
VERTEX
  5
51
330
46
100
AcDbEntity
  8
0
  6
CONTINUOUS
 62
     7
100
AcDbVertex
100
AcDb2dVertex
 10
41.9433008656
 20
218.2602994407
 30
0.0
 40
0.0
 41
0.0
 70
     8
  0
VERTEX
  5
52
330
46
100
AcDbEntity
  8
0
  6
CONTINUOUS
 62
     7
100
AcDbVertex
100
AcDb2dVertex
 10
41.9561754162
 20
218.2465824788
 30
0.0
 40
0.0
 41
0.0
 70
     8
  0
VERTEX
  5
53
330
46
100
AcDbEntity
  8
0
  6
CONTINUOUS
 62
     7
100
AcDbVertex
100
AcDb2dVertex
 10
41.9688932328
 20
218.2327200749
 30
0.0
 40
0.0
 41
0.0
 70
     8
  0
VERTEX
  5
54
330
46
100
AcDbEntity
  8
0
  6
CONTINUOUS
 62
     7
100
AcDbVertex
100
AcDb2dVertex
 10
41.9814526722
 20
218.2187140199
 30
0.0
 40
0.0
 41
0.0
 70
     8
  0
VERTEX
  5
55
330
46
100
AcDbEntity
  8
0
  6
CONTINUOUS
 62
     7
100
AcDbVertex
100
AcDb2dVertex
 10
41.9938521122
 20
218.2045661231
 30
0.0
 40
0.0
 41
0.0
 70
     8
  0
VERTEX
  5
56
330
46
100
AcDbEntity
  8
0
  6
CONTINUOUS
 62
     7
100
AcDbVertex
100
AcDb2dVertex
 10
42.0060899509
 20
218.1902782121
 30
0.0
 40
0.0
 41
0.0
  0
VERTEX
  5
57
330
46
100
AcDbEntity
  8
0
  6
CONTINUOUS
 62
     7
100
AcDbVertex
100
AcDb2dVertex
 10
40.7339338399
 20
218.1902782121
 30
0.0
 40
0.0
 41
0.0
  0
VERTEX
  5
58
330
46
100
AcDbEntity
  8
0
  6
CONTINUOUS
 62
     7
100
AcDbVertex
100
AcDb2dVertex
 10
40.7339338399
 20
224.7207149457
 30
0.0
 40
0.0
 41
0.0
 70
     8
  0
VERTEX
  5
59
330
46
100
AcDbEntity
  8
0
  6
CONTINUOUS
 62
     7
100
AcDbVertex
100
AcDb2dVertex
 10
40.8340269436
 20
224.7201739033
 30
0.0
 40
0.0
 41
0.0
 70
     8
  0
VERTEX
  5
5A
330
46
100
AcDbEntity
  8
0
  6
CONTINUOUS
 62
     7
100
AcDbVertex
100
AcDb2dVertex
 10
40.9341042408
 20
224.7183146765
 30
0.0
 40
0.0
 41
0.0
 70
     8
  0
VERTEX
  5
5B
330
46
100
AcDbEntity
  8
0
  6
CONTINUOUS
 62
     7
100
AcDbVertex
100
AcDb2dVertex
 10
41.0341483723
 20
224.7151375877
 30
0.0
 40
0.0
 41
0.0
 70
     8
  0
VERTEX
  5
5C
330
46
100
AcDbEntity
  8
0
  6
CONTINUOUS
 62
     7
100
AcDbVertex
100
AcDb2dVertex
 10
41.1341419847
 20
224.710643188
 30
0.0
 40
0.0
 41
0.0
 70
     8
  0
VERTEX
  5
5D
330
46
100
AcDbEntity
  8
0
  6
CONTINUOUS
 62
     7
100
AcDbVertex
100
AcDb2dVertex
 10
41.2340677333
 20
224.7048322571
 30
0.0
 40
0.0
 41
0.0
 70
     8
  0
VERTEX
  5
5E
330
46
100
AcDbEntity
  8
0
  6
CONTINUOUS
 62
     7
100
AcDbVertex
100
AcDb2dVertex
 10
41.3339082851
 20
224.6977058028
 30
0.0
 40
0.0
 41
0.0
 70
     8
  0
VERTEX
  5
5F
330
46
100
AcDbEntity
  8
0
  6
CONTINUOUS
 62
     7
100
AcDbVertex
100
AcDb2dVertex
 10
41.4336463221
 20
224.6892650613
 30
0.0
 40
0.0
 41
0.0
 70
     8
  0
VERTEX
  5
60
330
46
100
AcDbEntity
  8
0
  6
CONTINUOUS
 62
     7
100
AcDbVertex
100
AcDb2dVertex
 10
41.5332645439
 20
224.6795114967
 30
0.0
 40
0.0
 41
0.0
 70
     8
  0
VERTEX
  5
61
330
46
100
AcDbEntity
  8
0
  6
CONTINUOUS
 62
     7
100
AcDbVertex
100
AcDb2dVertex
 10
41.632745671
 20
224.6684468009
 30
0.0
 40
0.0
 41
0.0
 70
     8
  0
VERTEX
  5
62
330
46
100
AcDbEntity
  8
0
  6
CONTINUOUS
 62
     7
100
AcDbVertex
100
AcDb2dVertex
 10
41.7320724476
 20
224.6560728931
 30
0.0
 40
0.0
 41
0.0
 70
     8
  0
VERTEX
  5
63
330
46
100
AcDbEntity
  8
0
  6
CONTINUOUS
 62
     7
100
AcDbVertex
100
AcDb2dVertex
 10
41.8312276447
 20
224.6423919196
 30
0.0
 40
0.0
 41
0.0
 70
     8
  0
VERTEX
  5
64
330
46
100
AcDbEntity
  8
0
  6
CONTINUOUS
 62
     7
100
AcDbVertex
100
AcDb2dVertex
 10
41.930194063
 20
224.6274062536
 30
0.0
 40
0.0
 41
0.0
  0
VERTEX
  5
65
330
46
100
AcDbEntity
  8
0
  6
CONTINUOUS
 62
     7
100
AcDbVertex
100
AcDb2dVertex
 10
42.9649568849
 20
223.6450730579
 30
0.0
 40
0.0
 41
0.0
  0
VERTEX
  5
66
330
46
100
AcDbEntity
  8
0
  6
CONTINUOUS
 62
     7
100
AcDbVertex
100
AcDb2dVertex
 10
41.9486019421
 20
223.2732358837
 30
0.0
 40
0.0
 41
0.0
  0
VERTEX
  5
67
330
46
100
AcDbEntity
  8
0
  6
CONTINUOUS
 62
     7
100
AcDbVertex
100
AcDb2dVertex
 10
42.4579924264
 20
221.8809018934
 30
0.0
 40
0.0
 41
0.0
  0
VERTEX
  5
68
330
46
100
AcDbEntity
  8
0
  6
CONTINUOUS
 62
     7
100
AcDbVertex
100
AcDb2dVertex
 10
41.9572892207
 20
220.4912161562
 30
0.0
 40
0.0
 41
0.0
 70
     8
  0
SEQEND
  5
69
330
46
100
AcDbEntity
  8
0
  6
CONTINUOUS
 62
     7
 48
25.4
  0
LINE
  5
6A
330
41
100
AcDbEntity
  8
STANDARD
  6
CONTINUOUS
 62
     7
 48
25.4
100
AcDbLine
 10
41.9572892207
 20
220.4912161562
 30
0.0
 11
42.5790308658
 21
219.900977075
 31
0.0
  0
LINE
  5
6B
330
41
100
AcDbEntity
  8
STANDARD
  6
CONTINUOUS
 62
     7
 48
25.4
100
AcDbLine
 10
42.5790308658
 20
219.900977075
 30
0.0
 11
41.8489326591
 21
219.1319116664
 31
0.0
  0
LINE
  5
6C
330
41
100
AcDbEntity
  8
STANDARD
  6
CONTINUOUS
 62
     7
 48
25.4
100
AcDbLine
 10
41.8489326591
 20
219.1319116664
 30
0.0
 11
41.8489326591
 21
218.3520993762
 31
0.0
  0
LINE
  5
6D
330
41
100
AcDbEntity
  8
STANDARD
  6
CONTINUOUS
 62
     7
 48
25.4
100
AcDbLine
 10
41.930194063
 20
224.6274062536
 30
0.0
 11
42.9649568849
 21
223.6450730579
 31
0.0
  0
LINE
  5
6E
330
41
100
AcDbEntity
  8
STANDARD
  6
CONTINUOUS
 62
     7
 48
25.4
100
AcDbLine
 10
42.9649568849
 20
223.6450730579
 30
0.0
 11
41.9486019421
 21
223.2732358837
 31
0.0
  0
LINE
  5
6F
330
41
100
AcDbEntity
  8
STANDARD
  6
CONTINUOUS
 62
     7
 48
25.4
100
AcDbLine
 10
41.9486019421
 20
223.2732358837
 30
0.0
 11
42.4579924264
 21
221.8809018934
 31
0.0
  0
LINE
  5
70
330
41
100
AcDbEntity
  8
STANDARD
  6
CONTINUOUS
 62
     7
 48
25.4
100
AcDbLine
 10
42.4579924264
 20
221.8809018934
 30
0.0
 11
41.9572892207
 21
220.4912161562
 31
0.0
  0
POLYLINE
  5
71
330
41
100
AcDbEntity
  8
0
  6
CONTINUOUS
 62
     7
 48
25.4
100
AcDb2dPolyline
 66
     1
 10
0.0
 20
0.0
 30
0.0
 70
     1
 40
0.35
 41
0.35
  0
VERTEX
  5
72
330
71
100
AcDbEntity
  8
0
  6
CONTINUOUS
 62
     7
100
AcDbVertex
100
AcDb2dVertex
 10
40.7339338399
 20
224.7207149457
 30
0.0
 40
0.0
 41
0.0
 70
     8
  0
VERTEX
  5
73
330
71
100
AcDbEntity
  8
0
  6
CONTINUOUS
 62
     7
100
AcDbVertex
100
AcDb2dVertex
 10
40.6448841958
 20
224.7200881517
 30
0.0
 40
0.0
 41
0.0
 70
     8
  0
VERTEX
  5
74
330
71
100
AcDbEntity
  8
0
  6
CONTINUOUS
 62
     7
100
AcDbVertex
100
AcDb2dVertex
 10
40.555848009
 20
224.718417993
 30
0.0
 40
0.0
 41
0.0
 70
     8
  0
VERTEX
  5
75
330
71
100
AcDbEntity
  8
0
  6
CONTINUOUS
 62
     7
100
AcDbVertex
100
AcDb2dVertex
 10
40.466837504
 20
224.7157046988
 30
0.0
 40
0.0
 41
0.0
 70
     8
  0
VERTEX
  5
76
330
71
100
AcDbEntity
  8
0
  6
CONTINUOUS
 62
     7
100
AcDbVertex
100
AcDb2dVertex
 10
40.3778649013
 20
224.7119486416
 30
0.0
 40
0.0
 41
0.0
 70
     8
  0
VERTEX
  5
77
330
71
100
AcDbEntity
  8
0
  6
CONTINUOUS
 62
     7
100
AcDbVertex
100
AcDb2dVertex
 10
40.2889424168
 20
224.7071503372
 30
0.0
 40
0.0
 41
0.0
 70
     8
  0
VERTEX
  5
78
330
71
100
AcDbEntity
  8
0
  6
CONTINUOUS
 62
     7
100
AcDbVertex
100
AcDb2dVertex
 10
40.2000822591
 20
224.7013104443
 30
0.0
 40
0.0
 41
0.0
 70
     8
  0
VERTEX
  5
79
330
71
100
AcDbEntity
  8
0
  6
CONTINUOUS
 62
     7
100
AcDbVertex
100
AcDb2dVertex
 10
40.1112966283
 20
224.6944297647
 30
0.0
 40
0.0
 41
0.0
 70
     8
  0
VERTEX
  5
7A
330
71
100
AcDbEntity
  8
0
  6
CONTINUOUS
 62
     7
100
AcDbVertex
100
AcDb2dVertex
 10
40.0225977145
 20
224.6865092431
 30
0.0
 40
0.0
 41
0.0
 70
     8
  0
VERTEX
  5
7B
330
71
100
AcDbEntity
  8
0
  6
CONTINUOUS
 62
     7
100
AcDbVertex
100
AcDb2dVertex
 10
39.9339976955
 20
224.677549967
 30
0.0
 40
0.0
 41
0.0
 70
     8
  0
VERTEX
  5
7C
330
71
100
AcDbEntity
  8
0
  6
CONTINUOUS
 62
     7
100
AcDbVertex
100
AcDb2dVertex
 10
39.845508736
 20
224.6675531664
 30
0.0
 40
0.0
 41
0.0
 70
     8
  0
VERTEX
  5
7D
330
71
100
AcDbEntity
  8
0
  6
CONTINUOUS
 62
     7
100
AcDbVertex
100
AcDb2dVertex
 10
39.7571429851
 20
224.6565202138
 30
0.0
 40
0.0
 41
0.0
 70
     8
  0
VERTEX
  5
7E
330
71
100
AcDbEntity
  8
0
  6
CONTINUOUS
 62
     7
100
AcDbVertex
100
AcDb2dVertex
 10
39.668912575
 20
224.6444526242
 30
0.0
 40
0.0
 41
0.0
  0
VERTEX
  5
7F
330
71
100
AcDbEntity
  8
0
  6
CONTINUOUS
 62
     7
100
AcDbVertex
100
AcDb2dVertex
 10
39.668912575
 20
218.380144655
 30
0.0
 40
0.0
 41
0.0
 70
     8
  0
VERTEX
  5
80
330
71
100
AcDbEntity
  8
0
  6
CONTINUOUS
 62
     7
100
AcDbVertex
100
AcDb2dVertex
 10
39.6519963846
 20
218.3655206728
 30
0.0
 40
0.0
 41
0.0
 70
     8
  0
VERTEX
  5
81
330
71
100
AcDbEntity
  8
0
  6
CONTINUOUS
 62
     7
100
AcDbVertex
100
AcDb2dVertex
 10
39.6352793008
 20
218.3506694958
 30
0.0
 40
0.0
 41
0.0
 70
     8
  0
VERTEX
  5
82
330
71
100
AcDbEntity
  8
0
  6
CONTINUOUS
 62
     7
100
AcDbVertex
100
AcDb2dVertex
 10
39.6187643745
 20
218.3355938346
 30
0.0
 40
0.0
 41
0.0
 70
     8
  0
VERTEX
  5
83
330
71
100
AcDbEntity
  8
0
  6
CONTINUOUS
 62
     7
100
AcDbVertex
100
AcDb2dVertex
 10
39.6024546201
 20
218.3202964406
 30
0.0
 40
0.0
 41
0.0
 70
     8
  0
VERTEX
  5
84
330
71
100
AcDbEntity
  8
0
  6
CONTINUOUS
 62
     7
100
AcDbVertex
100
AcDb2dVertex
 10
39.5863530143
 20
218.304780106
 30
0.0
 40
0.0
 41
0.0
 70
     8
  0
VERTEX
  5
85
330
71
100
AcDbEntity
  8
0
  6
CONTINUOUS
 62
     7
100
AcDbVertex
100
AcDb2dVertex
 10
39.5704624958
 20
218.2890476626
 30
0.0
 40
0.0
 41
0.0
 70
     8
  0
VERTEX
  5
86
330
71
100
AcDbEntity
  8
0
  6
CONTINUOUS
 62
     7
100
AcDbVertex
100
AcDb2dVertex
 10
39.554785965
 20
218.2731019819
 30
0.0
 40
0.0
 41
0.0
 70
     8
  0
VERTEX
  5
87
330
71
100
AcDbEntity
  8
0
  6
CONTINUOUS
 62
     7
100
AcDbVertex
100
AcDb2dVertex
 10
39.539326283
 20
218.2569459742
 30
0.0
 40
0.0
 41
0.0
 70
     8
  0
VERTEX
  5
88
330
71
100
AcDbEntity
  8
0
  6
CONTINUOUS
 62
     7
100
AcDbVertex
100
AcDb2dVertex
 10
39.5240862715
 20
218.2405825882
 30
0.0
 40
0.0
 41
0.0
 70
     8
  0
VERTEX
  5
89
330
71
100
AcDbEntity
  8
0
  6
CONTINUOUS
 62
     7
100
AcDbVertex
100
AcDb2dVertex
 10
39.5090687121
 20
218.2240148105
 30
0.0
 40
0.0
 41
0.0
 70
     8
  0
VERTEX
  5
8A
330
71
100
AcDbEntity
  8
0
  6
CONTINUOUS
 62
     7
100
AcDbVertex
100
AcDb2dVertex
 10
39.4942763455
 20
218.2072456649
 30
0.0
 40
0.0
 41
0.0
 70
     8
  0
VERTEX
  5
8B
330
71
100
AcDbEntity
  8
0
  6
CONTINUOUS
 62
     7
100
AcDbVertex
100
AcDb2dVertex
 10
39.4797118717
 20
218.1902782121
 30
0.0
 40
0.0
 41
0.0
  0
VERTEX
  5
8C
330
71
100
AcDbEntity
  8
0
  6
CONTINUOUS
 62
     7
100
AcDbVertex
100
AcDb2dVertex
 10
40.7339338399
 20
218.1902782121
 30
0.0
 40
0.0
 41
0.0
  0
VERTEX
  5
8D
330
71
100
AcDbEntity
  8
0
  6
CONTINUOUS
 62
     7
100
AcDbVertex
100
AcDb2dVertex
 10
40.7339338399
 20
224.7207149457
 30
0.0
 40
0.0
 41
0.0
 70
     8
  0
SEQEND
  5
8E
330
71
100
AcDbEntity
  8
0
  6
CONTINUOUS
 62
     7
 48
25.4
  0
LINE
  5
8F
330
41
100
AcDbEntity
  8
STANDARD
  6
CONTINUOUS
 62
     7
 48
25.4
100
AcDbLine
 10
39.668912575
 20
218.380144655
 30
0.0
 11
39.668912575
 21
224.6444526242
 31
0.0
  0
LINE
  5
91
330
41
100
AcDbEntity
  8
MEGA_002227
  6
CONTINUOUS
 62
     7
 48
25.4
100
AcDbLine
 10
28.2429009113
 20
175.1207202357
 30
0.0
 11
28.2429009113
 21
218.1207202357
 31
0.0
  0
CIRCLE
  5
92
330
41
100
AcDbEntity
  8
MEGA_002227
  6
CONTINUOUS
 62
     7
 48
25.4
100
AcDbCircle
 10
40.7429009113
 20
217.1207202357
 30
0.0
 40
7.600000000000009
  0
ARC
  5
93
330
41
100
AcDbEntity
  8
MEGA_002227
  6
CONTINUOUS
 62
     7
 48
25.4
100
AcDbCircle
 10
40.6804194022
 20
217.8096639979
 30
0.0
 40
10.9814339991
100
AcDbArc
 50
270.325999873
 51
0.0038216949
  0
ARC
  5
94
330
41
100
AcDbEntity
  8
MEGA_002227
  6
CONTINUOUS
 62
     7
 48
25.4
100
AcDbCircle
 10
40.7429009113
 20
175.1207202357
 30
0.0
 40
12.5
100
AcDbArc
 50
180.0
 51
270.0
  0
LINE
  5
95
330
41
100
AcDbEntity
  8
MEGA_002227
  6
CONTINUOUS
 62
     7
 48
25.4
100
AcDbLine
 10
53.2429009113
 20
218.1207202357
 30
0.0
 11
53.2429009113
 21
175.1207202357
 31
0.0
  0
ARC
  5
96
330
41
100
AcDbEntity
  8
MEGA_002227
  6
CONTINUOUS
 62
     7
 48
25.4
100
AcDbCircle
 10
40.2757377797
 20
217.6565873247
 30
0.0
 40
10.4620970323
100
AcDbArc
 50
87.4407254525
 51
177.4573369479
  0
ARC
  5
97
330
41
100
AcDbEntity
  8
MEGA_002227
  6
CONTINUOUS
 62
     7
 48
25.4
100
AcDbCircle
 10
40.8053850967
 20
217.8096666588
 30
0.0
 40
10.9814366751
100
AcDbArc
 50
179.996192189
 51
269.673986243
  0
ARC
  5
98
330
41
100
AcDbEntity
  8
MEGA_002227
  6
CONTINUOUS
 62
     7
 48
25.4
100
AcDbCircle
 10
41.2100640634
 20
217.656587347
 30
0.0
 40
10.4620970109
100
AcDbArc
 50
2.5426629348
 51
92.5592746647
  0
CIRCLE
  5
99
330
41
100
AcDbEntity
  8
MEGA_002227
  6
CONTINUOUS
 62
     7
 48
25.4
100
AcDbCircle
 10
40.7429009113
 20
175.1207202357
 30
0.0
 40
7.5
  0
LINE
  5
9A
330
41
100
AcDbEntity
  8
MEGA_002227
  6
CONTINUOUS
 62
     7
 48
25.4
100
AcDbLine
 10
44.7429009113
 20
179.1207202357
 30
0.0
 11
44.6929009113
 21
179.1207202357
 31
0.0
  0
LINE
  5
9C
330
41
100
AcDbEntity
  8
MEGA_002227
  6
HIDDEN2
 62
     7
 48
25.4
100
AcDbLine
 10
44.6929009113
 20
179.1207202357
 30
0.0
 11
36.7429009113
 21
179.1207202357
 31
0.0
  0
LINE
  5
9D
330
41
100
AcDbEntity
  8
MEGA_002227
  6
CONTINUOUS
 62
     7
 48
25.4
100
AcDbLine
 10
44.7429009113
 20
171.1207202357
 30
0.0
 11
44.7429009113
 21
179.1207202357
 31
0.0
  0
LINE
  5
9E
330
41
100
AcDbEntity
  8
MEGA_002227
  6
CONTINUOUS
 62
     7
 48
25.4
100
AcDbLine
 10
36.7429009113
 20
171.1207202357
 30
0.0
 11
44.7429009113
 21
171.1207202357
 31
0.0
  0
ARC
  5
9F
330
41
100
AcDbEntity
  8
MEGA_002227
  6
CONTINUOUS
 62
     7
 48
25.4
100
AcDbCircle
 10
40.5140513097
 20
175.3483511399
 30
0.0
 40
11.4974437368
100
AcDbArc
 50
181.1344384538
 51
271.1405128455
  0
LINE
  5
A0
330
41
100
AcDbEntity
  8
MEGA_002227
  6
HIDDEN2
 62
     7
 48
25.4
100
AcDbLine
 10
36.7429009113
 20
179.1207202357
 30
0.0
 11
36.7429009113
 21
171.1707202357
 31
0.0
  0
LINE
  5
A1
330
41
100
AcDbEntity
  8
MEGA_002227
  6
CONTINUOUS
 62
     7
 48
25.4
100
AcDbLine
 10
36.7429009113
 20
171.1707202357
 30
0.0
 11
36.7429009113
 21
171.1207202357
 31
0.0
  0
ARC
  5
A2
330
41
100
AcDbEntity
  8
MEGA_002227
  6
CONTINUOUS
 62
     7
 48
25.4
100
AcDbCircle
 10
40.7429009113
 20
218.1207202357
 30
0.0
 40
12.5
100
AcDbArc
 50
90.0
 51
180.0
  0
ARC
  5
A3
330
41
100
AcDbEntity
  8
MEGA_002227
  6
CONTINUOUS
 62
     7
 48
25.4
100
AcDbCircle
 10
40.7429009113
 20
175.1207202357
 30
0.0
 40
12.5
100
AcDbArc
 50
270.0
 51
360.0
  0
ARC
  5
A4
330
41
100
AcDbEntity
  8
MEGA_002227
  6
CONTINUOUS
 62
     7
 48
25.4
100
AcDbCircle
 10
24.7992865783
 20
220.5913893334
 30
0.0
 40
5.742921571499998
100
AcDbArc
 50
320.0437851519
 51
331.0368466921
  0
ARC
  5
A5
330
41
100
AcDbEntity
  8
MEGA_002227
  6
CONTINUOUS
 62
     7
 48
25.4
100
AcDbCircle
 10
56.6864068134
 20
220.5913149231
 30
0.0
 40
5.7427906689
100
AcDbArc
 50
208.9630276329
 51
219.9563405232
  0
ARC
  5
A6
330
41
100
AcDbEntity
  8
MEGA_002227
  6
CONTINUOUS
 62
     7
 48
25.4
100
AcDbCircle
 10
41.2050962937
 20
217.6579081639
 30
0.0
 40
7.970799105700003
100
AcDbArc
 50
2.9046855472
 51
93.3242222302
  0
ARC
  5
A7
330
41
100
AcDbEntity
  8
MEGA_002227
  6
CONTINUOUS
 62
     7
 48
25.4
100
AcDbCircle
 10
40.2808475982
 20
217.6577497448
 30
0.0
 40
7.970949021599999
100
AcDbArc
 50
86.6768632857
 51
177.0942289369
  0
LINE
  5
A8
330
41
100
AcDbEntity
  8
MEGA_002227
  6
CONTINUOUS
 62
     7
 48
25.4
100
AcDbLine
 10
32.3201471749
 20
218.0618253271
 30
0.0
 11
32.3201471749
 21
217.8103964723
 31
0.0
  0
CIRCLE
  5
A9
330
41
100
AcDbEntity
  8
MEGA_002227
  6
CONTINUOUS
 62
     7
 48
25.4
100
AcDbCircle
 10
40.7429009113
 20
175.1207202357
 30
0.0
 40
7.999999999999993
  0
ARC
  5
AA
330
41
100
AcDbEntity
  8
MEGA_002227
  6
CONTINUOUS
 62
     7
 48
25.4
100
AcDbCircle
 10
40.7429009113
 20
218.1207202357
 30
0.0
 40
12.5
100
AcDbArc
 50
0.0
 51
90.0
  0
ARC
  5
AB
330
41
100
AcDbEntity
  8
MEGA_002227
  6
CONTINUOUS
 62
     7
 48
25.4
100
AcDbCircle
 10
40.9717539919
 20
175.34834752
 30
0.0
 40
11.4974401868
100
AcDbArc
 50
268.8594694617
 51
358.865579239
  0
ARC
  5
AC
330
41
100
AcDbEntity
  8
MEGA_002227
  6
CONTINUOUS
 62
     7
 48
25.4
100
AcDbCircle
 10
40.795395218
 20
217.7933901378
 30
0.0
 40
8.4752651055
100
AcDbArc
 50
179.8850311073
 51
269.6451177143
  0
ARC
  5
AD
330
41
100
AcDbEntity
  8
MEGA_002227
  6
CONTINUOUS
 62
     7
 48
25.4
100
AcDbCircle
 10
40.6937604401
 20
217.7900636932
 30
0.0
 40
8.471918607299998
100
AcDbArc
 50
270.3323399958
 51
0.1375111826
  0
LINE
  5
AE
330
41
100
AcDbEntity
  8
MEGA_002227
  6
CONTINUOUS
 62
     7
 48
25.4
100
AcDbLine
 10
49.1656546478
 20
217.8103964723
 30
0.0
 11
49.1656546478
 21
218.0618253271
 31
0.0
  0
LINE
  5
AF
330
41
100
AcDbEntity
  8
MEGA_002227
  6
CONTINUOUS
 62
     7
 48
25.4
100
AcDbLine
 10
29.0188617472
 20
175.1207202386
 30
0.0
 11
29.0188617472
 21
208.0467656236
 31
0.0
  0
ARC
  5
B0
330
41
100
AcDbEntity
  8
MEGA_002227
  6
CONTINUOUS
 62
     7
 48
25.4
100
AcDbCircle
 10
-219.8090192068
 20
206.8639079271
 30
0.0
 40
272.2785286345
100
AcDbArc
 50
0.2489104348
 51
2.1130703784
  0
LINE
  5
B1
330
41
100
AcDbEntity
  8
MEGA_002227
  6
CONTINUOUS
 62
     7
 48
25.4
100
AcDbLine
 10
52.4669400754
 20
208.0467656236
 30
0.0
 11
52.4669400754
 21
175.1207202386
 31
0.0
  0
ARC
  5
B2
330
41
100
AcDbEntity
  8
MEGA_002227
  6
CONTINUOUS
 62
     7
 48
25.4
100
AcDbCircle
 10
301.2948210291
 20
206.8639079271
 30
0.0
 40
272.2785286342
100
AcDbArc
 50
177.8869296216
 51
179.7510895652
  0
LINE
  5
B3
330
41
100
AcDbEntity
  8
MEGA_002227
  6
CONTINUOUS
 62
     7
 48
25.4
100
AcDbLine
 10
29.8239484458
 20
217.8103964723
 30
0.0
 11
29.8239484458
 21
218.1207202357
 31
0.0
  0
LINE
  5
B4
330
41
100
AcDbEntity
  8
MEGA_002227
  6
CONTINUOUS
 62
     7
 48
25.4
100
AcDbLine
 10
51.6618533768
 20
218.1207202357
 30
0.0
 11
51.6618533768
 21
217.8103964723
 31
0.0
  0
LINE
  5
B6
330
41
100
AcDbEntity
  8
MEGA_000724
  6
CONTINUOUS
 62
     7
 48
25.4
100
AcDbLine
 10
24.2339338399
 20
218.1902782121
 30
0.0
 11
24.2339338399
 21
175.1902782121
 31
0.0
  0
LINE
  5
B7
330
41
100
AcDbEntity
  8
MEGA_000724
  6
CONTINUOUS
 62
     7
 48
25.4
100
AcDbLine
 10
57.2339338399
 20
175.1902782121
 30
0.0
 11
57.2339338399
 21
218.1902782121
 31
0.0
  0
ARC
  5
B8
330
41
100
AcDbEntity
  8
MEGA_000724
  6
CONTINUOUS
 62
     7
 48
25.4
100
AcDbCircle
 10
40.7339338399
 20
175.1902782121
 30
0.0
 40
16.5
100
AcDbArc
 50
180.0
 51
360.0
  0
ARC
  5
B9
330
41
100
AcDbEntity
  8
MEGA_000724
  6
CONTINUOUS
 62
     7
 48
25.4
100
AcDbCircle
 10
40.7339338399
 20
218.1902782121
 30
0.0
 40
16.5
100
AcDbArc
 50
0.0
 51
180.0
  0
LINE
  5
BB
330
41
100
AcDbEntity
  8
MEGA_002205
  6
CONTINUOUS
 62
     7
 48
25.4
100
AcDbLine
 10
41.3227824902
 20
192.8736125552
 30
0.0
 11
40.7839338399
 21
192.8736125552
 31
0.0
  0
LINE
  5
BC
330
41
100
AcDbEntity
  8
MEGA_002205
  6
CONTINUOUS
 62
     7
 48
25.4
100
AcDbLine
 10
40.7839338399
 20
192.8736125552
 30
0.0
 11
40.7839338399
 21
200.8494569714
 31
0.0
  0
LINE
  5
BD
330
41
100
AcDbEntity
  8
MEGA_002205
  6
CONTINUOUS
 62
     7
 48
25.4
100
AcDbLine
 10
41.3227824902
 20
200.8636125552
 30
0.0
 11
41.3227824902
 21
192.8736125552
 31
0.0
  0
LINE
  5
BE
330
41
100
AcDbEntity
  8
MEGA_002205
  6
CONTINUOUS
 62
     7
 48
25.4
100
AcDbLine
 10
44.7839338399
 20
192.8736125552
 30
0.0
 11
41.3227824902
 21
192.8736125552
 31
0.0
  0
LINE
  5
BF
330
41
100
AcDbEntity
  8
MEGA_002205
  6
CONTINUOUS
 62
     7
 48
25.4
100
AcDbLine
 10
40.6839338399
 20
192.8736125552
 30
0.0
 11
40.6839338399
 21
200.8494569714
 31
0.0
  0
LINE
  5
C0
330
41
100
AcDbEntity
  8
MEGA_002205
  6
CONTINUOUS
 62
     7
 48
25.4
100
AcDbLine
 10
40.6839338399
 20
192.8736125552
 30
0.0
 11
40.1450851895
 21
192.8736125552
 31
0.0
  0
LINE
  5
C1
330
41
100
AcDbEntity
  8
MEGA_002205
  6
CONTINUOUS
 62
     7
 48
25.4
100
AcDbLine
 10
40.1450851895
 20
192.8736125552
 30
0.0
 11
40.1450851895
 21
200.8636125552
 31
0.0
  0
LINE
  5
C2
330
41
100
AcDbEntity
  8
MEGA_002205
  6
HIDDEN2
 62
     7
 48
25.4
100
AcDbLine
 10
40.6839338399
 20
200.8736125552
 30
0.0
 11
40.6839338399
 21
200.8494569714
 31
0.0
  0
LINE
  5
C3
330
41
100
AcDbEntity
  8
MEGA_002205
  6
CONTINUOUS
 62
     7
 48
25.4
100
AcDbLine
 10
43.2339338399
 20
200.8636125552
 30
0.0
 11
41.3227824902
 21
200.8636125552
 31
0.0
  0
LINE
  5
C4
330
41
100
AcDbEntity
  8
MEGA_002205
  6
CONTINUOUS
 62
     7
 48
25.4
100
AcDbLine
 10
43.2339338399
 20
200.8636125552
 30
0.0
 11
43.2339338399
 21
200.8736125552
 31
0.0
  0
LINE
  5
C5
330
41
100
AcDbEntity
  8
MEGA_002205
  6
CONTINUOUS
 62
     7
 48
25.4
100
AcDbLine
 10
38.2339338399
 20
200.8636125552
 30
0.0
 11
38.2339338399
 21
200.8736125552
 31
0.0
  0
LINE
  5
C6
330
41
100
AcDbEntity
  8
MEGA_002205
  6
HIDDEN2
 62
     7
 48
25.4
100
AcDbLine
 10
40.7839338399
 20
200.8736125552
 30
0.0
 11
40.7839338399
 21
200.8494569714
 31
0.0
  0
LINE
  5
C7
330
41
100
AcDbEntity
  8
MEGA_002205
  6
CONTINUOUS
 62
     7
 48
25.4
100
AcDbLine
 10
38.2339338399
 20
200.8636125552
 30
0.0
 11
40.1450851895
 21
200.8636125552
 31
0.0
  0
LINE
  5
C8
330
41
100
AcDbEntity
  8
MEGA_002205
  6
CONTINUOUS
 62
     7
 48
25.4
100
AcDbLine
 10
40.6839338399
 20
200.8494569714
 30
0.0
 11
40.1450851895
 21
200.8597914273
 31
0.0
  0
LINE
  5
C9
330
41
100
AcDbEntity
  8
MEGA_002205
  6
CONTINUOUS
 62
     7
 48
25.4
100
AcDbLine
 10
40.7839338399
 20
200.8494569714
 30
0.0
 11
41.3227824902
 21
200.8597914273
 31
0.0
  0
LINE
  5
CA
330
41
100
AcDbEntity
  8
MEGA_002205
  6
CONTINUOUS
 62
     7
 48
25.4
100
AcDbLine
 10
36.6839338399
 20
192.8736125552
 30
0.0
 11
40.1450851895
 21
192.8736125552
 31
0.0
  0
LINE
  5
CB
330
41
100
AcDbEntity
  8
MEGA_002205
  6
CONTINUOUS
 62
     7
 48
25.4
100
AcDbLine
 10
38.2339338399
 20
200.8736125552
 30
0.0
 11
36.6839338399
 21
200.8736125552
 31
0.0
  0
LINE
  5
CC
330
41
100
AcDbEntity
  8
MEGA_002205
  6
CONTINUOUS
 62
     7
 48
25.4
100
AcDbLine
 10
36.6839338399
 20
200.8736125552
 30
0.0
 11
36.6839338399
 21
192.8736125552
 31
0.0
  0
LINE
  5
CD
330
41
100
AcDbEntity
  8
MEGA_002205
  6
CONTINUOUS
 62
     7
 48
25.4
100
AcDbLine
 10
44.7839338399
 20
200.8736125552
 30
0.0
 11
44.7839338399
 21
192.8736125552
 31
0.0
  0
LINE
  5
CE
330
41
100
AcDbEntity
  8
MEGA_002205
  6
CONTINUOUS
 62
     7
 48
25.4
100
AcDbLine
 10
43.2339338399
 20
200.8736125552
 30
0.0
 11
44.7839338399
 21
200.8736125552
 31
0.0
  0
CIRCLE
  5
D0
330
41
100
AcDbEntity
  8
MEGA_002229
  6
CONTINUOUS
 62
     7
 48
25.4
100
AcDbCircle
 10
40.6929009113
 20
173.8707202357
 30
0.0
 40
2.049999999999976
  0
CIRCLE
  5
D1
330
41
100
AcDbEntity
  8
MEGA_002229
  6
CONTINUOUS
 62
     7
 48
25.4
100
AcDbCircle
 10
40.6929009113
 20
175.1707202357
 30
0.0
 40
3.395296047700015
  0
LINE
  5
D2
330
41
100
AcDbEntity
  8
MEGA_002229
  6
CONTINUOUS
 62
     7
 48
25.4
100
AcDbLine
 10
44.6929009113
 20
171.1707202357
 30
0.0
 11
36.6929009113
 21
171.1707202357
 31
0.0
  0
LINE
  5
D3
330
41
100
AcDbEntity
  8
MEGA_002229
  6
CONTINUOUS
 62
     7
 48
25.4
100
AcDbLine
 10
36.6929009113
 20
171.1707202357
 30
0.0
 11
36.6929009113
 21
179.1707202357
 31
0.0
  0
LINE
  5
D4
330
41
100
AcDbEntity
  8
MEGA_002229
  6
CONTINUOUS
 62
     7
 48
25.4
100
AcDbLine
 10
44.6929009113
 20
179.1707202357
 30
0.0
 11
44.6929009113
 21
171.1707202357
 31
0.0
  0
LINE
  5
D5
330
41
100
AcDbEntity
  8
MEGA_002229
  6
CONTINUOUS
 62
     7
 48
25.4
100
AcDbLine
 10
36.6929009113
 20
179.1707202357
 30
0.0
 11
44.6929009113
 21
179.1707202357
 31
0.0
  0
POLYLINE
  5
D6
330
41
100
AcDbEntity
  8
0
  6
CONTINUOUS
 62
     7
 48
25.4
100
AcDb2dPolyline
 66
     1
 10
0.0
 20
0.0
 30
0.0
 70
     1
 40
0.35
 41
0.35
  0
VERTEX
  5
D7
330
D6
100
AcDbEntity
  8
0
  6
CONTINUOUS
 62
     7
100
AcDbVertex
100
AcDb2dVertex
 10
40.7339338399
 20
215.4655705729
 30
0.0
 40
0.0
 41
0.0
 70
     8
  0
VERTEX
  5
D8
330
D6
100
AcDbEntity
  8
0
  6
CONTINUOUS
 62
     7
100
AcDbVertex
100
AcDb2dVertex
 10
41.0465217459
 20
215.4936322837
 30
0.0
 40
0.0
 41
0.0
 70
     8
  0
VERTEX
  5
D9
330
D6
100
AcDbEntity
  8
0
  6
CONTINUOUS
 62
     7
100
AcDbVertex
100
AcDb2dVertex
 10
41.3481933735
 20
215.580193751
 30
0.0
 40
0.0
 41
0.0
 70
     8
  0
VERTEX
  5
DA
330
D6
100
AcDbEntity
  8
0
  6
CONTINUOUS
 62
     7
100
AcDbVertex
100
AcDb2dVertex
 10
41.6281025257
 20
215.7221427739
 30
0.0
 40
0.0
 41
0.0
 70
     8
  0
VERTEX
  5
DB
330
D6
100
AcDbEntity
  8
0
  6
CONTINUOUS
 62
     7
100
AcDbVertex
100
AcDb2dVertex
 10
41.8761854457
 20
215.9143757663
 30
0.0
 40
0.0
 41
0.0
 70
     8
  0
VERTEX
  5
DC
330
D6
100
AcDbEntity
  8
0
  6
CONTINUOUS
 62
     7
100
AcDbVertex
100
AcDb2dVertex
 10
42.0835226462
 20
216.1499812498
 30
0.0
 40
0.0
 41
0.0
 70
     8
  0
VERTEX
  5
DD
330
D6
100
AcDbEntity
  8
0
  6
CONTINUOUS
 62
     7
100
AcDbVertex
100
AcDb2dVertex
 10
42.2426595973
 20
216.4204883466
 30
0.0
 40
0.0
 41
0.0
 70
     8
  0
VERTEX
  5
DE
330
D6
100
AcDbEntity
  8
0
  6
CONTINUOUS
 62
     7
100
AcDbVertex
100
AcDb2dVertex
 10
42.3478747442
 20
216.716171338
 30
0.0
 40
0.0
 41
0.0
 70
     8
  0
VERTEX
  5
DF
330
D6
100
AcDbEntity
  8
0
  6
CONTINUOUS
 62
     7
100
AcDbVertex
100
AcDb2dVertex
 10
42.3953852179
 20
217.0263993404
 30
0.0
 40
0.0
 41
0.0
 70
     8
  0
VERTEX
  5
E0
330
D6
100
AcDbEntity
  8
0
  6
CONTINUOUS
 62
     7
100
AcDbVertex
100
AcDb2dVertex
 10
42.3834828433
 20
217.3400185236
 30
0.0
 40
0.0
 41
0.0
 70
     8
  0
VERTEX
  5
E1
330
D6
100
AcDbEntity
  8
0
  6
CONTINUOUS
 62
     7
100
AcDbVertex
100
AcDb2dVertex
 10
42.3125955544
 20
217.6457531321
 30
0.0
 40
0.0
 41
0.0
 70
     8
  0
VERTEX
  5
E2
330
D6
100
AcDbEntity
  8
0
  6
CONTINUOUS
 62
     7
100
AcDbVertex
100
AcDb2dVertex
 10
42.185272008
 20
217.9326108897
 30
0.0
 40
0.0
 41
0.0
 70
     8
  0
VERTEX
  5
E3
330
D6
100
AcDbEntity
  8
0
  6
CONTINUOUS
 62
     7
100
AcDbVertex
100
AcDb2dVertex
 10
42.0060899509
 20
218.1902782121
 30
0.0
 40
0.0
 41
0.0
  0
VERTEX
  5
E4
330
D6
100
AcDbEntity
  8
0
  6
CONTINUOUS
 62
     7
100
AcDbVertex
100
AcDb2dVertex
 10
40.7339338399
 20
218.1902782121
 30
0.0
 40
0.0
 41
0.0
  0
VERTEX
  5
E5
330
D6
100
AcDbEntity
  8
0
  6
CONTINUOUS
 62
     7
100
AcDbVertex
100
AcDb2dVertex
 10
40.7339338399
 20
215.4655705729
 30
0.0
 40
0.0
 41
0.0
 70
     8
  0
SEQEND
  5
E6
330
D6
100
AcDbEntity
  8
0
  6
CONTINUOUS
 62
     7
 48
25.4
  0
POLYLINE
  5
E7
330
41
100
AcDbEntity
  8
0
  6
CONTINUOUS
 62
     7
 48
25.4
100
AcDb2dPolyline
 66
     1
 10
0.0
 20
0.0
 30
0.0
 70
     1
 40
0.35
 41
0.35
  0
VERTEX
  5
E8
330
E7
100
AcDbEntity
  8
0
  6
CONTINUOUS
 62
     7
100
AcDbVertex
100
AcDb2dVertex
 10
39.4797118717
 20
218.1902782121
 30
0.0
 40
0.0
 41
0.0
 70
     8
  0
VERTEX
  5
E9
330
E7
100
AcDbEntity
  8
0
  6
CONTINUOUS
 62
     7
100
AcDbVertex
100
AcDb2dVertex
 10
39.3012634893
 20
217.9339129301
 30
0.0
 40
0.0
 41
0.0
 70
     8
  0
VERTEX
  5
EA
330
E7
100
AcDbEntity
  8
0
  6
CONTINUOUS
 62
     7
100
AcDbVertex
100
AcDb2dVertex
 10
39.1741569715
 20
217.6485869479
 30
0.0
 40
0.0
 41
0.0
 70
     8
  0
VERTEX
  5
EB
330
E7
100
AcDbEntity
  8
0
  6
CONTINUOUS
 62
     7
100
AcDbVertex
100
AcDb2dVertex
 10
39.1029190358
 20
217.3444617442
 30
0.0
 40
0.0
 41
0.0
 70
     8
  0
VERTEX
  5
EC
330
E7
100
AcDbEntity
  8
0
  6
CONTINUOUS
 62
     7
100
AcDbVertex
100
AcDb2dVertex
 10
39.09008672
 20
217.0323683052
 30
0.0
 40
0.0
 41
0.0
 70
     8
  0
VERTEX
  5
ED
330
E7
100
AcDbEntity
  8
0
  6
CONTINUOUS
 62
     7
100
AcDbVertex
100
AcDb2dVertex
 10
39.1361170287
 20
216.7234213944
 30
0.0
 40
0.0
 41
0.0
 70
     8
  0
VERTEX
  5
EE
330
E7
100
AcDbEntity
  8
0
  6
CONTINUOUS
 62
     7
100
AcDbVertex
100
AcDb2dVertex
 10
39.2393706581
 20
216.4286237163
 30
0.0
 40
0.0
 41
0.0
 70
     8
  0
VERTEX
  5
EF
330
E7
100
AcDbEntity
  8
0
  6
CONTINUOUS
 62
     7
100
AcDbVertex
100
AcDb2dVertex
 10
39.396170377
 20
216.1584740705
 30
0.0
 40
0.0
 41
0.0
 70
     8
  0
VERTEX
  5
F0
330
E7
100
AcDbEntity
  8
0
  6
CONTINUOUS
 62
     7
100
AcDbVertex
100
AcDb2dVertex
 10
39.6009319867
 20
215.922593452
 30
0.0
 40
0.0
 41
0.0
 70
     8
  0
VERTEX
  5
F1
330
E7
100
AcDbEntity
  8
0
  6
CONTINUOUS
 62
     7
100
AcDbVertex
100
AcDb2dVertex
 10
39.846363194
 20
215.7293824133
 30
0.0
 40
0.0
 41
0.0
 70
     8
  0
VERTEX
  5
F2
330
E7
100
AcDbEntity
  8
0
  6
CONTINUOUS
 62
     7
100
AcDbVertex
100
AcDb2dVertex
 10
40.1237233158
 20
215.5857218904
 30
0.0
 40
0.0
 41
0.0
 70
     8
  0
VERTEX
  5
F3
330
E7
100
AcDbEntity
  8
0
  6
CONTINUOUS
 62
     7
100
AcDbVertex
100
AcDb2dVertex
 10
40.4231345663
 20
215.4967281485
 30
0.0
 40
0.0
 41
0.0
 70
     8
  0
VERTEX
  5
F4
330
E7
100
AcDbEntity
  8
0
  6
CONTINUOUS
 62
     7
100
AcDbVertex
100
AcDb2dVertex
 10
40.7339338399
 20
215.4655705729
 30
0.0
 40
0.0
 41
0.0
  0
VERTEX
  5
F5
330
E7
100
AcDbEntity
  8
0
  6
CONTINUOUS
 62
     7
100
AcDbVertex
100
AcDb2dVertex
 10
40.7339338399
 20
218.1902782121
 30
0.0
 40
0.0
 41
0.0
  0
VERTEX
  5
F6
330
E7
100
AcDbEntity
  8
0
  6
CONTINUOUS
 62
     7
100
AcDbVertex
100
AcDb2dVertex
 10
39.4797118717
 20
218.1902782121
 30
0.0
 40
0.0
 41
0.0
 70
     8
  0
SEQEND
  5
F7
330
E7
100
AcDbEntity
  8
0
  6
CONTINUOUS
 62
     7
 48
25.4
  0
ARC
  5
F8
330
41
100
AcDbEntity
  8
STANDARD
  6
CONTINUOUS
 62
     7
 48
25.4
100
AcDbCircle
 10
40.7429009113
 20
217.1207202357
 30
0.0
 40
1.655173953000002
100
AcDbArc
 50
130.45625924
 51
48.0696373906
  0
LINE
  5
F9
330
41
100
AcDbEntity
  8
STANDARD
  6
CENTER2
 62
     7
 48
25.4
100
AcDbLine
 10
24.2339338399
 20
218.1902782121
 30
0.0
 11
57.2339338399
 21
218.1902782121
 31
0.0
  0
LINE
  5
FA
330
41
100
AcDbEntity
  8
STANDARD
  6
CENTER2
 62
     7
 48
25.4
100
AcDbLine
 10
40.7339338399
 20
234.6902782121
 30
0.0
 11
40.7339338399
 21
158.6902782121
 31
0.0
  0
LINE
  5
FB
330
41
100
AcDbEntity
  8
STANDARD
  6
CENTER2
 62
     7
 48
25.4
100
AcDbLine
 10
24.2339338399
 20
218.1902782121
 30
0.0
 11
20.3463491388
 21
218.1902782121
 31
0.0
  0
LINE
  5
FC
330
41
100
AcDbEntity
  8
STANDARD
  6
CENTER2
 62
     7
 48
25.4
100
AcDbLine
 10
57.2339338399
 20
218.1902782121
 30
0.0
 11
61.1215185409
 21
218.1902782121
 31
0.0
  0
LINE
  5
FD
330
41
100
AcDbEntity
  8
STANDARD
  6
CENTER2
 62
     7
 48
25.4
100
AcDbLine
 10
40.7339338399
 20
234.6902782121
 30
0.0
 11
40.7339338399
 21
238.8583881839
 31
0.0
  0
LINE
  5
FE
330
41
100
AcDbEntity
  8
STANDARD
  6
CENTER2
 62
     7
 48
25.4
100
AcDbLine
 10
40.7339338399
 20
158.6902782121
 30
0.0
 11
40.7339338399
 21
153.8890134359
 31
0.0
  0
LINE
  5
FF
330
41
100
AcDbEntity
  8
STANDARD
  6
CENTER2
 62
     7
 48
25.4
100
AcDbLine
 10
57.2339338399
 20
175.1902782121
 30
0.0
 11
61.6280423845
 21
175.1902782121
 31
0.0
  0
LINE
  5
100
330
41
100
AcDbEntity
  8
STANDARD
  6
CENTER2
 62
     7
 48
25.4
100
AcDbLine
 10
24.2339338399
 20
175.1902782121
 30
0.0
 11
19.8398252953
 21
175.1902782121
 31
0.0
  0
ENDBLK
  5
102
330
41
100
AcDbEntity
  8
0
100
AcDbBlockEnd
  0
BLOCK
  5
164
330
103
100
AcDbEntity
  8
0
100
AcDbBlockBegin
  2
SE4
 70
     0
 71
     0
 10
0.0
 20
0.0
 30
0.0
  3
SE4
  1

  0
SPLINE
  5
105
330
103
100
AcDbEntity
  8
MEGA_002227
  6
CONTINUOUS
 62
     7
 48
25.4
100
AcDbSpline
210
0.0
220
0.0
230
1.0
 70
    27
 71
     3
 72
     8
 73
     4
 74
     0
 42
0.0000000001
 43
0.0000000001
 40
0.0
 40
0.0
 40
0.0
 40
0.0
 40
1.0
 40
1.0
 40
1.0
 40
1.0
 10
143.6168333341063
 20
163.8509460341498
 30
0.0
 10
143.6168330813109
 20
163.850946056311
 30
0.0
 10
143.6168328285093
 20
163.8509460828548
 30
0.0
 10
143.6168325757016
 20
163.8509461137815
 30
0.0
  0
LINE
  5
106
330
103
100
AcDbEntity
  8
MEGA_002227
  6
CONTINUOUS
 62
     7
 48
25.4
100
AcDbLine
 10
160.5300059619
 20
217.8103964723
 30
0.0
 11
160.5300059619
 21
209.3182876042
 31
0.0
  0
LINE
  5
107
330
103
100
AcDbEntity
  8
MEGA_002227
  6
CONTINUOUS
 62
     7
 48
25.4
100
AcDbLine
 10
129.5300059619
 20
218.1207202357
 30
0.0
 11
129.5300059619
 21
230.6207202357
 31
0.0
  0
LINE
  5
108
330
103
100
AcDbEntity
  8
MEGA_002227
  6
CONTINUOUS
 62
     7
 48
25.4
100
AcDbLine
 10
129.5300059619
 20
162.6207202357
 30
0.0
 11
129.8014013702
 21
162.6444642572
 31
0.0
  0
LINE
  5
109
330
103
100
AcDbEntity
  8
MEGA_002227
  6
CONTINUOUS
 62
     7
 48
25.4
100
AcDbLine
 10
144.5300059619
 20
175.1307934508
 30
0.0
 11
144.5300059619
 21
164.847512571
 31
0.0
  0
ARC
  5
10A
330
103
100
AcDbEntity
  8
MEGA_002227
  6
CONTINUOUS
 62
     7
 48
25.4
100
AcDbCircle
 10
143.5298874094
 20
164.8494899954
 30
0.0
 40
1.000118556199993
100
AcDbArc
 50
275.0052507399
 51
0.0049398569
  0
ARC
  5
10B
330
103
100
AcDbEntity
  8
MEGA_002227
  6
CONTINUOUS
 62
     7
 48
25.4
100
AcDbCircle
 10
158.0299888838
 20
209.318272372
 30
0.0
 40
2.500017078199988
100
AcDbArc
 50
275.1653389935
 51
0.000349094
  0
ARC
  5
10C
330
103
100
AcDbEntity
  8
MEGA_002227
  6
CENTER2
 62
     7
 48
25.4
100
AcDbCircle
 10
138.1118249511
 20
206.5578247958
 30
0.0
 40
8.73174580189999
100
AcDbArc
 50
355.1545226587
 51
0.6875688894
  0
ARC
  5
10D
330
103
100
AcDbEntity
  8
MEGA_002227
  6
CENTER2
 62
     7
 48
25.4
100
AcDbCircle
 10
138.1118288334
 20
206.5578246549
 30
0.0
 40
8.731741921599991
100
AcDbArc
 50
355.1545214281
 51
0.6875701196
  0
ARC
  5
10E
330
103
100
AcDbEntity
  8
MEGA_002227
  6
CONTINUOUS
 62
     7
 48
25.4
100
AcDbCircle
 10
147.0300226269
 20
203.32987703
 30
0.0
 40
2.500016665000004
100
AcDbArc
 50
95.0002918977
 51
180.0002050101
  0
LINE
  5
10F
330
103
100
AcDbEntity
  8
MEGA_002227
  6
CONTINUOUS
 62
     7
 48
25.4
100
AcDbLine
 10
129.7621065712
 20
230.6004140636
 30
0.0
 11
129.5300059619
 21
230.6207202357
 31
0.0
  0
LINE
  5
110
330
103
100
AcDbEntity
  8
MEGA_002227
  6
CONTINUOUS
 62
     7
 48
25.4
100
AcDbLine
 10
153.4575666949
 20
206.4017805927
 30
0.0
 11
153.457639734
 21
206.4017869828
 31
0.0
  0
LINE
  5
111
330
103
100
AcDbEntity
  8
MEGA_002227
  6
CONTINUOUS
 62
     7
 48
25.4
100
AcDbLine
 10
129.5300059619
 20
175.1207202357
 30
0.0
 11
129.5300059619
 21
218.1207202357
 31
0.0
  0
LINE
  5
112
330
103
100
AcDbEntity
  8
MEGA_002227
  6
CONTINUOUS
 62
     7
 48
25.4
100
AcDbLine
 10
153.457639734
 20
206.4017869828
 30
0.0
 11
158.255065683
 21
206.828407752
 31
0.0
  0
LINE
  5
113
330
103
100
AcDbEntity
  8
MEGA_002227
  6
CONTINUOUS
 62
     7
 48
25.4
100
AcDbLine
 10
160.5300059619
 20
225.6241983799
 30
0.0
 11
160.5300059619
 21
218.0618253271
 31
0.0
  0
LINE
  5
114
330
103
100
AcDbEntity
  8
MEGA_002227
  6
CONTINUOUS
 62
     7
 48
25.4
100
AcDbLine
 10
160.5300059619
 20
218.0618253271
 30
0.0
 11
160.5300059619
 21
217.8103964723
 31
0.0
  0
LINE
  5
115
330
103
100
AcDbEntity
  8
MEGA_002227
  6
CONTINUOUS
 62
     7
 48
25.4
100
AcDbLine
 10
129.5300059619
 20
162.6207202357
 30
0.0
 11
129.5300059619
 21
175.1207202357
 31
0.0
  0
LINE
  5
116
330
103
100
AcDbEntity
  8
MEGA_002227
  6
CONTINUOUS
 62
     7
 48
25.4
100
AcDbLine
 10
144.5300059619
 20
208.0467656236
 30
0.0
 11
144.5300059619
 21
175.1307934508
 31
0.0
  0
LINE
  5
117
330
103
100
AcDbEntity
  8
MEGA_002227
  6
CONTINUOUS
 62
     7
 48
25.4
100
AcDbLine
 10
129.8014051558
 20
162.6444209878
 30
0.0
 11
143.6174879362
 21
163.8509520316
 31
0.0
  0
ARC
  5
118
330
103
100
AcDbEntity
  8
MEGA_002227
  6
CONTINUOUS
 62
     7
 48
25.4
100
AcDbCircle
 10
128.2406349878
 20
515.4816157856
 30
0.0
 40
310.1122486068
100
AcDbArc
 50
274.6104166745
 51
275.3952156285
  0
LINE
  5
119
330
103
100
AcDbEntity
  8
MEGA_002227
  6
CONTINUOUS
 62
     7
 48
25.4
100
AcDbLine
 10
146.8124082532
 20
205.8202514948
 30
0.0
 11
153.1649813012
 21
206.3739297382
 31
0.0
  0
SPLINE
  5
11A
330
103
100
AcDbEntity
  8
MEGA_002227
  6
CONTINUOUS
 62
     7
 48
25.4
100
AcDbSpline
210
0.0
220
0.0
230
1.0
 70
     8
 71
     3
 72
     9
 73
     5
 74
     0
 42
0.0000000001
 43
0.0000000001
 40
0.0
 40
0.0
 40
0.0
 40
0.0
 40
0.5010388777804825
 40
1.0
 40
1.0
 40
1.0
 40
1.0
 10
158.2472825898354
 20
228.1185970368664
 30
0.0
 10
153.0150615729379
 20
228.5729283233491
 30
0.0
 10
143.9963289958239
 20
229.356195306549
 30
0.0
 10
134.9777787270692
 20
230.1444834462175
 30
0.0
 10
129.7673663449247
 20
230.5999927782764
 30
0.0
  0
SPLINE
  5
11B
330
103
100
AcDbEntity
  8
MEGA_002227
  6
CONTINUOUS
 62
     7
 48
25.4
100
AcDbSpline
210
0.0
220
0.0
230
1.0
 70
     8
 71
     3
 72
     9
 73
     5
 74
     0
 42
0.0000000001
 43
0.0000000001
 40
0.0
 40
0.0
 40
0.0
 40
0.0
 40
0.5009452491486452
 40
1.0
 40
1.0
 40
1.0
 40
1.0
 10
158.2472323545629
 20
228.1186014026874
 30
0.0
 10
153.0150339322516
 20
228.5729307680949
 30
0.0
 10
143.9946544728857
 20
229.3563408305112
 30
0.0
 10
134.974453713997
 20
230.1447734623116
 30
0.0
 10
129.7621098724524
 20
230.6004517973159
 30
0.0
  0
LINE
  5
11C
330
103
100
AcDbEntity
  8
MEGA_000724
  6
CONTINUOUS
 62
     7
 48
25.4
100
AcDbLine
 10
116.5300059619
 20
234.6902782121
 30
0.0
 11
116.5300059619
 21
218.1902782121
 31
0.0
  0
LINE
  5
11D
330
103
100
AcDbEntity
  8
MEGA_000724
  6
CONTINUOUS
 62
     7
 48
25.4
100
AcDbLine
 10
111.5125535555
 20
170.42312778
 30
0.0
 11
116.5300059619
 21
170.3355478225
 31
0.0
  0
LINE
  5
11E
330
103
100
AcDbEntity
  8
MEGA_000724
  6
CONTINUOUS
 62
     7
 48
25.4
100
AcDbLine
 10
116.5300059619
 20
180.0450086016
 30
0.0
 11
111.5125535555
 21
179.9574286441
 31
0.0
  0
LINE
  5
11F
330
103
100
AcDbEntity
  8
MEGA_000724
  6
CONTINUOUS
 62
     7
 48
25.4
100
AcDbLine
 10
110.5300059619
 20
178.957580949
 30
0.0
 11
110.5300059619
 21
171.4229754752
 31
0.0
  0
LINE
  5
120
330
103
100
AcDbEntity
  8
MEGA_000724
  6
CONTINUOUS
 62
     7
 48
25.4
100
AcDbLine
 10
128.5300059619
 20
162.4556385364
 30
0.0
 11
128.5300059619
 21
175.1902782121
 31
0.0
  0
LINE
  5
121
330
103
100
AcDbEntity
  8
MEGA_000724
  6
CONTINUOUS
 62
     7
 48
25.4
100
AcDbLine
 10
116.5300059619
 20
158.6902782121
 30
0.0
 11
116.5300059619
 21
175.1902782121
 31
0.0
  0
LINE
  5
122
330
103
100
AcDbEntity
  8
MEGA_000724
  6
CONTINUOUS
 62
     7
 48
25.4
100
AcDbLine
 10
128.5300059619
 20
218.1902782121
 30
0.0
 11
128.5300059619
 21
175.1902782121
 31
0.0
  0
LINE
  5
123
330
103
100
AcDbEntity
  8
MEGA_000724
  6
CONTINUOUS
 62
     7
 48
25.4
100
AcDbLine
 10
128.5300059619
 20
230.9249178878
 30
0.0
 11
128.5300059619
 21
218.1902782121
 31
0.0
  0
LINE
  5
124
330
103
100
AcDbEntity
  8
MEGA_000724
  6
CONTINUOUS
 62
     7
 48
25.4
100
AcDbLine
 10
116.5300059619
 20
218.1902782121
 30
0.0
 11
116.5300059619
 21
175.1902782121
 31
0.0
  0
LINE
  5
125
330
103
100
AcDbEntity
  8
MEGA_000724
  6
CONTINUOUS
 62
     7
 48
25.4
100
AcDbLine
 10
111.5125535555
 20
213.42312778
 30
0.0
 11
116.5300059619
 21
213.3355478225
 31
0.0
  0
ARC
  5
126
330
103
100
AcDbEntity
  8
MEGA_000724
  6
CONTINUOUS
 62
     7
 48
25.4
100
AcDbCircle
 10
111.5300059619
 20
171.4229754752
 30
0.0
 40
1.0
100
AcDbArc
 50
180.0
 51
269.0
  0
ARC
  5
127
330
103
100
AcDbEntity
  8
MEGA_000724
  6
CONTINUOUS
 62
     7
 48
25.4
100
AcDbCircle
 10
111.5300059619
 20
214.4229754752
 30
0.0
 40
1.0
100
AcDbArc
 50
180.0
 51
269.0
  0
LINE
  5
128
330
103
100
AcDbEntity
  8
MEGA_000724
  6
CONTINUOUS
 62
     7
 48
25.4
100
AcDbLine
 10
116.5300059619
 20
223.0450086016
 30
0.0
 11
111.5125535555
 21
222.9574286441
 31
0.0
  0
ARC
  5
129
330
103
100
AcDbEntity
  8
MEGA_000724
  6
CONTINUOUS
 62
     7
 48
25.4
100
AcDbCircle
 10
127.0300059619
 20
230.9249178878
 30
0.0
 40
1.5
100
AcDbArc
 50
0.0
 51
77.9999719388
  0
ARC
  5
12A
330
103
100
AcDbEntity
  8
MEGA_000724
  6
CONTINUOUS
 62
     7
 48
25.4
100
AcDbCircle
 10
127.0300059619
 20
162.4556385364
 30
0.0
 40
1.5
100
AcDbArc
 50
282.0000280612
 51
360.0
  0
LINE
  5
12B
330
103
100
AcDbEntity
  8
MEGA_000724
  6
CONTINUOUS
 62
     7
 48
25.4
100
AcDbLine
 10
127.3418742167
 20
232.3921391361
 30
0.0
 11
116.5300059619
 21
234.6902782121
 31
0.0
  0
LINE
  5
12C
330
103
100
AcDbEntity
  8
MEGA_000724
  6
CONTINUOUS
 62
     7
 48
25.4
100
AcDbLine
 10
116.5300059619
 20
158.6902782121
 30
0.0
 11
127.3418742167
 21
160.988417288
 31
0.0
  0
ARC
  5
12D
330
103
100
AcDbEntity
  8
MEGA_000724
  6
CONTINUOUS
 62
     7
 48
25.4
100
AcDbCircle
 10
111.5300059619
 20
178.957580949
 30
0.0
 40
1.0
100
AcDbArc
 50
91.0
 51
180.0
  0
ARC
  5
12E
330
103
100
AcDbEntity
  8
MEGA_000724
  6
CONTINUOUS
 62
     7
 48
25.4
100
AcDbCircle
 10
111.5300059619
 20
221.957580949
 30
0.0
 40
1.0
100
AcDbArc
 50
91.0
 51
180.0
  0
LINE
  5
12F
330
103
100
AcDbEntity
  8
MEGA_000724
  6
CONTINUOUS
 62
     7
 48
25.4
100
AcDbLine
 10
110.5300059619
 20
214.4229754752
 30
0.0
 11
110.5300059619
 21
221.957580949
 31
0.0
  0
LINE
  5
130
330
103
100
AcDbEntity
  8
MEGA_002205
  6
HIDDEN2
 62
     7
 48
25.4
100
AcDbLine
 10
130.0300059619
 20
200.8736125552
 30
0.0
 11
129.5300059619
 21
200.8736125552
 31
0.0
  0
LINE
  5
131
330
103
100
AcDbEntity
  8
MEGA_002205
  6
CONTINUOUS
 62
     7
 48
25.4
100
AcDbLine
 10
129.5300059619
 20
200.8736125552
 30
0.0
 11
129.0300059619
 21
200.8736125552
 31
0.0
  0
LINE
  5
132
330
103
100
AcDbEntity
  8
MEGA_002205
  6
HIDDEN2
 62
     7
 48
25.4
100
AcDbLine
 10
130.0300059619
 20
192.8736125552
 30
0.0
 11
129.5300059619
 21
192.8736125552
 31
0.0
  0
LINE
  5
133
330
103
100
AcDbEntity
  8
MEGA_002205
  6
CONTINUOUS
 62
     7
 48
25.4
100
AcDbLine
 10
129.5300059619
 20
192.8736125552
 30
0.0
 11
129.0300059619
 21
192.8736125552
 31
0.0
  0
LINE
  5
134
330
103
100
AcDbEntity
  8
MEGA_002205
  6
CONTINUOUS
 62
     7
 48
25.4
100
AcDbLine
 10
81.5300059619
 20
200.3736125552
 30
0.0
 11
82.5300059619
 21
200.3736125552
 31
0.0
  0
LINE
  5
135
330
103
100
AcDbEntity
  8
MEGA_002205
  6
CONTINUOUS
 62
     7
 48
25.4
100
AcDbLine
 10
81.5300059619
 20
193.3736125552
 30
0.0
 11
82.5300059619
 21
193.3736125552
 31
0.0
  0
LINE
  5
136
330
103
100
AcDbEntity
  8
MEGA_002205
  6
CONTINUOUS
 62
     7
 48
25.4
100
AcDbLine
 10
81.5300059619
 20
200.3736125552
 30
0.0
 11
81.5300059619
 21
193.3736125552
 31
0.0
  0
LINE
  5
138
330
103
100
AcDbEntity
  8
MEGA_002211
  6
CONTINUOUS
 62
     7
 48
25.4
100
AcDbLine
 10
89.7300059619
 20
223.9402782121
 30
0.0
 11
84.2300059619
 21
223.9402782121
 31
0.0
  0
LINE
  5
139
330
103
100
AcDbEntity
  8
MEGA_002211
  6
CONTINUOUS
 62
     7
 48
25.4
100
AcDbLine
 10
84.2300059619
 20
212.4402782121
 30
0.0
 11
89.7300059619
 21
212.4402782121
 31
0.0
  0
LINE
  5
13A
330
103
100
AcDbEntity
  8
MEGA_002211
  6
CONTINUOUS
 62
     7
 48
25.4
100
AcDbLine
 10
83.5300059619
 20
223.1088251816
 30
0.0
 11
83.5300059619
 21
222.3207325486
 31
0.0
  0
LINE
  5
13B
330
103
100
AcDbEntity
  8
MEGA_002211
  6
CONTINUOUS
 62
     7
 48
25.4
100
AcDbLine
 10
83.5300059619
 20
214.1293328777
 30
0.0
 11
83.5300059619
 21
222.2512235464
 31
0.0
  0
LINE
  5
13C
330
103
100
AcDbEntity
  8
MEGA_002211
  6
CONTINUOUS
 62
     7
 48
25.4
100
AcDbLine
 10
83.5300059619
 20
214.0598238755
 30
0.0
 11
83.5300059619
 21
213.2717312425
 31
0.0
  0
LINE
  5
13D
330
103
100
AcDbEntity
  8
MEGA_002211
  6
CONTINUOUS
 62
     7
 48
25.4
100
AcDbLine
 10
83.5701161959
 20
213.2717312425
 30
0.0
 11
83.5300059619
 21
213.2717312425
 31
0.0
  0
LINE
  5
13E
330
103
100
AcDbEntity
  8
MEGA_002211
  6
CONTINUOUS
 62
     7
 48
25.4
100
AcDbLine
 10
83.5300059619
 20
214.1293328777
 30
0.0
 11
83.5300059619
 21
214.0598238755
 31
0.0
  0
LINE
  5
13F
330
103
100
AcDbEntity
  8
MEGA_002211
  6
CONTINUOUS
 62
     7
 48
25.4
100
AcDbLine
 10
83.5701161959
 20
214.0598238755
 30
0.0
 11
83.5300059619
 21
214.0598238755
 31
0.0
  0
SPLINE
  5
140
330
103
100
AcDbEntity
  8
MEGA_002211
  6
CONTINUOUS
 62
     7
 48
25.4
100
AcDbSpline
210
0.0
220
0.0
230
1.0
 70
     8
 71
     3
 72
     8
 73
     4
 74
     0
 42
0.0000000001
 43
0.0000000001
 40
0.0
 40
0.0
 40
0.0
 40
0.0
 40
1.0
 40
1.0
 40
1.0
 40
1.0
 10
83.5300059619114
 20
214.1293328776725
 30
0.0
 10
83.5300059619114
 20
214.1209453430643
 30
0.0
 10
83.53981829853562
 20
214.0966502089049
 30
0.0
 10
83.57011619594455
 20
214.0598238754977
 30
0.0
  0
LINE
  5
141
330
103
100
AcDbEntity
  8
MEGA_002211
  6
CONTINUOUS
 62
     7
 48
25.4
100
AcDbLine
 10
83.5701161959
 20
214.0598238755
 30
0.0
 11
83.5701161959
 21
213.2717312425
 31
0.0
  0
LINE
  5
142
330
103
100
AcDbEntity
  8
MEGA_002211
  6
CONTINUOUS
 62
     7
 48
25.4
100
AcDbLine
 10
83.5300059619
 20
223.2402782121
 30
0.0
 11
83.5300059619
 21
223.1088251816
 31
0.0
  0
LINE
  5
143
330
103
100
AcDbEntity
  8
MEGA_002211
  6
CONTINUOUS
 62
     7
 48
25.4
100
AcDbLine
 10
83.5300059619
 20
213.2717312425
 30
0.0
 11
83.5300059619
 21
213.1402782121
 31
0.0
  0
ARC
  5
144
330
103
100
AcDbEntity
  8
MEGA_002211
  6
CONTINUOUS
 62
     7
 48
25.4
100
AcDbCircle
 10
84.2300059619
 20
223.2402782121
 30
0.0
 40
0.7000000000000028
100
AcDbArc
 50
90.0
 51
180.0
  0
LINE
  5
145
330
103
100
AcDbEntity
  8
MEGA_002211
  6
CONTINUOUS
 62
     7
 48
25.4
100
AcDbLine
 10
90.5300059619
 20
210.6902782121
 30
0.0
 11
90.5300059619
 21
225.6902782121
 31
0.0
  0
LINE
  5
146
330
103
100
AcDbEntity
  8
MEGA_002211
  6
CONTINUOUS
 62
     7
 48
25.4
100
AcDbLine
 10
89.7300059619
 20
210.6902782121
 30
0.0
 11
89.7300059619
 21
225.6902782121
 31
0.0
  0
LINE
  5
147
330
103
100
AcDbEntity
  8
MEGA_002211
  6
CONTINUOUS
 62
     7
 48
25.4
100
AcDbLine
 10
89.7300059619
 20
210.6902782121
 30
0.0
 11
90.5300059619
 21
210.6902782121
 31
0.0
  0
ARC
  5
148
330
103
100
AcDbEntity
  8
MEGA_002211
  6
CONTINUOUS
 62
     7
 48
25.4
100
AcDbCircle
 10
84.2300059619
 20
213.1402782121
 30
0.0
 40
0.7000000000000028
100
AcDbArc
 50
180.0
 51
270.0
  0
LINE
  5
149
330
103
100
AcDbEntity
  8
MEGA_002211
  6
CONTINUOUS
 62
     7
 48
25.4
100
AcDbLine
 10
90.5300059619
 20
225.6902782121
 30
0.0
 11
89.7300059619
 21
225.6902782121
 31
0.0
  0
LINE
  5
14A
330
103
100
AcDbEntity
  8
MEGA_002211
  6
CONTINUOUS
 62
     7
 48
25.4
100
AcDbLine
 10
83.5701161959
 20
223.1088251816
 30
0.0
 11
83.5701161959
 21
222.3207325486
 31
0.0
  0
LINE
  5
14B
330
103
100
AcDbEntity
  8
MEGA_002211
  6
CONTINUOUS
 62
     7
 48
25.4
100
AcDbLine
 10
83.5300059619
 20
222.3207325486
 30
0.0
 11
83.5300059619
 21
222.2512235464
 31
0.0
  0
LINE
  5
14C
330
103
100
AcDbEntity
  8
MEGA_002211
  6
CONTINUOUS
 62
     7
 48
25.4
100
AcDbLine
 10
83.5701161959
 20
223.1088251816
 30
0.0
 11
83.5300059619
 21
223.1088251816
 31
0.0
  0
LINE
  5
14D
330
103
100
AcDbEntity
  8
MEGA_002211
  6
CONTINUOUS
 62
     7
 48
25.4
100
AcDbLine
 10
83.5701161959
 20
222.3207325486
 30
0.0
 11
83.5300059619
 21
222.3207325486
 31
0.0
  0
SPLINE
  5
14E
330
103
100
AcDbEntity
  8
MEGA_002211
  6
CONTINUOUS
 62
     7
 48
25.4
100
AcDbSpline
210
0.0
220
0.0
230
1.0
 70
     8
 71
     3
 72
     8
 73
     4
 74
     0
 42
0.0000000001
 43
0.0000000001
 40
0.0
 40
0.0
 40
0.0
 40
0.0
 40
1.0
 40
1.0
 40
1.0
 40
1.0
 10
83.57011619594456
 20
222.320732548584
 30
0.0
 10
83.53972996246218
 20
222.2837988449001
 30
0.0
 10
83.53000596191095
 20
222.2595697573617
 30
0.0
 10
83.5300059619114
 20
222.2512235464159
 30
0.0
  0
LINE
  5
14F
330
103
100
AcDbEntity
  8
MEGA_002229
  6
CONTINUOUS
 62
     7
 48
25.4
100
AcDbLine
 10
177.3684477601
 20
171.1707202357
 30
0.0
 11
144.5300059619
 21
171.1707202357
 31
0.0
  0
LINE
  5
150
330
103
100
AcDbEntity
  8
MEGA_002229
  6
CONTINUOUS
 62
     7
 48
25.4
100
AcDbLine
 10
177.3684477601
 20
179.1707202357
 30
0.0
 11
167.3684477601
 21
179.1707202357
 31
0.0
  0
LINE
  5
151
330
103
100
AcDbEntity
  8
MEGA_002229
  6
CONTINUOUS
 62
     7
 48
25.4
100
AcDbLine
 10
179.6300059619
 20
178.5660162834
 30
0.0
 11
179.6300059619
 21
171.775424188
 31
0.0
  0
LINE
  5
152
330
103
100
AcDbEntity
  8
MEGA_002229
  6
CONTINUOUS
 62
     7
 48
25.4
100
AcDbLine
 10
179.6300059619
 20
178.5660162834
 30
0.0
 11
179.0253020096
 21
179.1707202357
 31
0.0
  0
LINE
  5
153
330
103
100
AcDbEntity
  8
MEGA_002229
  6
CONTINUOUS
 62
     7
 48
25.4
100
AcDbLine
 10
179.0253020096
 20
171.1707202357
 30
0.0
 11
179.6300059619
 21
171.775424188
 31
0.0
  0
LINE
  5
154
330
103
100
AcDbEntity
  8
MEGA_002229
  6
CONTINUOUS
 62
     7
 48
25.4
100
AcDbLine
 10
177.3684477601
 20
171.1707202357
 30
0.0
 11
179.0252995996
 21
171.1707202357
 31
0.0
  0
SPLINE
  5
155
330
103
100
AcDbEntity
  8
MEGA_002229
  6
CONTINUOUS
 62
     7
 48
25.4
100
AcDbSpline
210
0.0
220
0.0
230
1.0
 70
     8
 71
     3
 72
    14
 73
    10
 74
     0
 42
0.0000000001
 43
0.0000000001
 40
0.0
 40
0.0
 40
0.0
 40
0.0
 40
0.25
 40
0.25
 40
0.5
 40
0.5
 40
0.75
 40
0.75
 40
1.0
 40
1.0
 40
1.0
 40
1.0
 10
177.3684477601364
 20
171.1707202356777
 30
0.0
 10
177.7918439840527
 20
171.7694929177976
 30
0.0
 10
178.190079799374
 20
172.3918499607094
 30
0.0
 10
178.8096331527863
 20
173.716550337381
 30
0.0
 10
179.0261095014992
 20
174.4373176692136
 30
0.0
 10
179.0244896976637
 20
175.9129046891573
 30
0.0
 10
178.8051772321787
 20
176.6374501860352
 30
0.0
 10
178.1827721861763
 20
177.9621246673312
 30
0.0
 10
177.7897173643294
 20
178.5749550480124
 30
0.0
 10
177.3684477601364
 20
179.1707202356777
 30
0.0
  0
LINE
  5
156
330
103
100
AcDbEntity
  8
MEGA_002229
  6
CONTINUOUS
 62
     7
 48
25.4
100
AcDbLine
 10
179.0252995996
 20
179.1707202357
 30
0.0
 11
177.3684477601
 21
179.1707202357
 31
0.0
  0
LINE
  5
157
330
103
100
AcDbEntity
  8
STANDARD
  6
CENTER2
 62
     7
 48
25.4
100
AcDbLine
 10
84.5300059619
 20
218.190278212
 30
0.0
 11
117.5300059619
 21
218.1902782121
 31
0.0
  0
LINE
  5
158
330
103
100
AcDbEntity
  8
STANDARD
  6
CENTER2
 62
     7
 48
25.4
100
AcDbLine
 10
160.5300059619
 20
218.0618253271
 30
0.0
 11
129.5300059619
 21
218.1902782121
 31
0.0
  0
LINE
  5
159
330
103
100
AcDbEntity
  8
STANDARD
  6
CENTER2
 62
     7
 48
25.4
100
AcDbLine
 10
105.5723141435
 20
175.1902782121
 30
0.0
 11
174.9660807036
 21
175.1902782121
 31
0.0
  0
LINE
  5
15A
330
103
100
AcDbEntity
  8
STANDARD
  6
CONTINUOUS
 62
     7
 48
25.4
100
AcDbLine
 10
167.3684477601
 20
179.1707202357
 30
0.0
 11
144.5300059619
 21
179.1707202357
 31
0.0
  0
LINE
  5
15B
330
103
100
AcDbEntity
  8
STANDARD
  6
CONTINUOUS
 62
     7
 48
25.4
100
AcDbLine
 10
167.3684477601
 20
179.1707202357
 30
0.0
 11
144.2326799959
 21
171.1707202357
 31
0.0
  0
LINE
  5
15C
330
103
100
AcDbEntity
  8
STANDARD
  6
CONTINUOUS
 62
     7
 48
25.4
100
AcDbLine
 10
144.5300059619
 20
179.1707202357
 30
0.0
 11
167.3684477601
 21
171.1707202357
 31
0.0
  0
LINE
  5
15D
330
103
100
AcDbEntity
  8
STANDARD
  6
CONTINUOUS
 62
     7
 48
25.4
100
AcDbLine
 10
82.5834797811
 20
200.3736125552
 30
0.0
 11
116.5300059619
 21
200.3736125552
 31
0.0
  0
LINE
  5
15E
330
103
100
AcDbEntity
  8
STANDARD
  6
CONTINUOUS
 62
     7
 48
25.4
100
AcDbLine
 10
82.53573035
 20
193.3736125552
 30
0.0
 11
116.5300059619
 21
193.3736125552
 31
0.0
  0
LINE
  5
15F
330
103
100
AcDbEntity
  8
STANDARD
  6
CONTINUOUS
 62
     7
 48
25.4
100
AcDbLine
 10
81.5300059619
 20
193.3736125552
 30
0.0
 11
116.5300059619
 21
200.3736125552
 31
0.0
  0
LINE
  5
160
330
103
100
AcDbEntity
  8
STANDARD
  6
CONTINUOUS
 62
     7
 48
25.4
100
AcDbLine
 10
81.5300059619
 20
200.3736125552
 30
0.0
 11
116.5300059619
 21
193.3736125552
 31
0.0
  0
LINE
  5
161
330
103
100
AcDbEntity
  8
STANDARD
  6
CENTER2
 62
     7
 48
25.4
100
AcDbLine
 10
84.5300059619
 20
218.190278212
 30
0.0
 11
78.9798123595
 21
218.190278212
 31
0.0
  0
LINE
  5
162
330
103
100
AcDbEntity
  8
STANDARD
  6
CENTER2
 62
     7
 48
25.4
100
AcDbLine
 10
129.5300059619
 20
218.1902782121
 30
0.0
 11
123.0494838971
 21
218.2171311719
 31
0.0
  0
LINE
  5
163
330
103
100
AcDbEntity
  8
STANDARD
  6
CENTER2
 62
     7
 48
25.4
100
AcDbLine
 10
160.5300059619
 20
218.0618253271
 30
0.0
 11
165.2163451605
 21
218.0424068177
 31
0.0
  0
ENDBLK
  5
165
330
103
100
AcDbEntity
  8
0
100
AcDbBlockEnd
  0
BLOCK
  5
16D
330
166
100
AcDbEntity
  8
0
100
AcDbBlockBegin
  2
SE5
 70
     0
 71
     0
 10
0.0
 20
0.0
 30
0.0
  3
SE5
  1

  0
POLYLINE
  5
168
330
166
100
AcDbEntity
  8
DEFAULT
  6
CONTINUOUS
 62
     7
 48
25.4
100
AcDb2dPolyline
 66
     1
 10
0.0
 20
0.0
 30
0.0
 70
     1
  0
VERTEX
  5
1E2
330
168
100
AcDbEntity
  8
DEFAULT
  6
CONTINUOUS
 62
     7
100
AcDbVertex
100
AcDb2dVertex
 10
8.8033690148
 20
161.6902782382
 30
0.0
  0
VERTEX
  5
1E3
330
168
100
AcDbEntity
  8
DEFAULT
  6
CONTINUOUS
 62
     7
100
AcDbVertex
100
AcDb2dVertex
 10
9.3033690191
 20
158.6902782121
 30
0.0
  0
VERTEX
  5
1E4
330
168
100
AcDbEntity
  8
DEFAULT
  6
CONTINUOUS
 62
     7
100
AcDbVertex
100
AcDb2dVertex
 10
9.8033690235
 20
161.6902782382
 30
0.0
  0
VERTEX
  5
1E5
330
168
100
AcDbEntity
  8
DEFAULT
  6
CONTINUOUS
 62
     7
100
AcDbVertex
100
AcDb2dVertex
 10
8.8033690148
 20
161.6902782382
 30
0.0
  0
SEQEND
  5
1E1
330
168
100
AcDbEntity
  8
DEFAULT
  6
CONTINUOUS
 62
     7
 48
25.4
  0
LINE
  5
169
330
166
100
AcDbEntity
  8
DEFAULT
  6
CONTINUOUS
 62
     7
 48
25.4
100
AcDbLine
 10
40.7339338399
 20
234.6902782121
 30
0.0
 11
7.8033690061
 21
234.6902782121
 31
0.0
  0
LINE
  5
16A
330
166
100
AcDbEntity
  8
DEFAULT
  6
CONTINUOUS
 62
     7
 48
25.4
100
AcDbLine
 10
40.7339338399
 20
158.6902782121
 30
0.0
 11
7.8033690061
 21
158.6902782121
 31
0.0
  0
LINE
  5
16B
330
166
100
AcDbEntity
  8
DEFAULT
  6
CONTINUOUS
 62
     7
 48
25.4
100
AcDbLine
 10
9.3033690191
 20
234.6902782121
 30
0.0
 11
9.3033690191
 21
158.6902806559
 31
0.0
  0
TEXT
  5
16C
330
166
100
AcDbEntity
  8
DEFAULT
  6
CONTINUOUS
 62
     7
 48
25.4
100
AcDbText
 10
8.5533690191
 20
194.815279434
 30
0.0
 40
3.0
  1
76
 50
90.0
  7
SEACAD_SEISO_TTF
 11
5.5533690191
 21
194.815279434
 31
0.0
100
AcDbText
 73
     3
  0
ENDBLK
  5
16E
330
166
100
AcDbEntity
  8
0
100
AcDbBlockEnd
  0
BLOCK
  5
177
330
16F
100
AcDbEntity
  8
0
100
AcDbBlockBegin
  2
SE6
 70
     0
 71
     0
 10
0.0
 20
0.0
 30
0.0
  3
SE6
  1

  0
POLYLINE
  5
171
330
16F
100
AcDbEntity
  8
DEFAULT
  6
CONTINUOUS
 62
     7
 48
25.4
100
AcDb2dPolyline
 66
     1
 10
0.0
 20
0.0
 30
0.0
 70
     1
  0
VERTEX
  5
1E7
330
171
100
AcDbEntity
  8
DEFAULT
  6
CONTINUOUS
 62
     7
100
AcDbVertex
100
AcDb2dVertex
 10
27.233933866
 20
246.2932551346
 30
0.0
  0
VERTEX
  5
1E8
330
171
100
AcDbEntity
  8
DEFAULT
  6
CONTINUOUS
 62
     7
100
AcDbVertex
100
AcDb2dVertex
 10
24.2339338399
 20
245.7932551303
 30
0.0
  0
VERTEX
  5
1E9
330
171
100
AcDbEntity
  8
DEFAULT
  6
CONTINUOUS
 62
     7
100
AcDbVertex
100
AcDb2dVertex
 10
27.233933866
 20
245.293255126
 30
0.0
  0
VERTEX
  5
1EA
330
171
100
AcDbEntity
  8
DEFAULT
  6
CONTINUOUS
 62
     7
100
AcDbVertex
100
AcDb2dVertex
 10
27.233933866
 20
246.2932551346
 30
0.0
  0
SEQEND
  5
1E6
330
171
100
AcDbEntity
  8
DEFAULT
  6
CONTINUOUS
 62
     7
 48
25.4
  0
POLYLINE
  5
172
330
16F
100
AcDbEntity
  8
DEFAULT
  6
CONTINUOUS
 62
     7
 48
25.4
100
AcDb2dPolyline
 66
     1
 10
0.0
 20
0.0
 30
0.0
 70
     1
  0
VERTEX
  5
1EC
330
172
100
AcDbEntity
  8
DEFAULT
  6
CONTINUOUS
 62
     7
100
AcDbVertex
100
AcDb2dVertex
 10
54.2339338138
 20
246.2932551346
 30
0.0
  0
VERTEX
  5
1ED
330
172
100
AcDbEntity
  8
DEFAULT
  6
CONTINUOUS
 62
     7
100
AcDbVertex
100
AcDb2dVertex
 10
57.2339338399
 20
245.7932551303
 30
0.0
  0
VERTEX
  5
1EE
330
172
100
AcDbEntity
  8
DEFAULT
  6
CONTINUOUS
 62
     7
100
AcDbVertex
100
AcDb2dVertex
 10
54.2339338138
 20
245.293255126
 30
0.0
  0
VERTEX
  5
1EF
330
172
100
AcDbEntity
  8
DEFAULT
  6
CONTINUOUS
 62
     7
100
AcDbVertex
100
AcDb2dVertex
 10
54.2339338138
 20
246.2932551346
 30
0.0
  0
SEQEND
  5
1EB
330
172
100
AcDbEntity
  8
DEFAULT
  6
CONTINUOUS
 62
     7
 48
25.4
  0
LINE
  5
173
330
16F
100
AcDbEntity
  8
DEFAULT
  6
CONTINUOUS
 62
     7
 48
25.4
100
AcDbLine
 10
24.2339338399
 20
196.6902782121
 30
0.0
 11
24.2339338399
 21
247.2932551433
 31
0.0
  0
LINE
  5
174
330
16F
100
AcDbEntity
  8
DEFAULT
  6
CONTINUOUS
 62
     7
 48
25.4
100
AcDbLine
 10
57.2339338399
 20
218.1902796724
 30
0.0
 11
57.2339338399
 21
247.2932551433
 31
0.0
  0
LINE
  5
175
330
16F
100
AcDbEntity
  8
DEFAULT
  6
CONTINUOUS
 62
     7
 48
25.4
100
AcDbLine
 10
24.2339338399
 20
245.7932551303
 30
0.0
 11
57.2339336611
 21
245.7932551303
 31
0.0
  0
TEXT
  5
176
330
16F
100
AcDbEntity
  8
DEFAULT
  6
CONTINUOUS
 62
     7
 48
25.4
100
AcDbText
 10
39.1657519323
 20
246.5432551303
 30
0.0
 40
3.0
  1
33
  7
SEACAD_SEISO_TTF
 11
39.1657519323
 21
249.5432551303
 31
0.0
100
AcDbText
 73
     3
  0
ENDBLK
  5
178
330
16F
100
AcDbEntity
  8
0
100
AcDbBlockEnd
  0
BLOCK
  5
181
330
179
100
AcDbEntity
  8
0
100
AcDbBlockBegin
  2
SE7
 70
     0
 71
     0
 10
0.0
 20
0.0
 30
0.0
  3
SE7
  1

  0
POLYLINE
  5
17B
330
179
100
AcDbEntity
  8
DEFAULT
  6
CONTINUOUS
 62
     7
 48
25.4
100
AcDb2dPolyline
 66
     1
 10
0.0
 20
0.0
 30
0.0
 70
     1
  0
VERTEX
  5
1F1
330
17B
100
AcDbEntity
  8
DEFAULT
  6
CONTINUOUS
 62
     7
100
AcDbVertex
100
AcDb2dVertex
 10
31.2429009374
 20
133.5569868324
 30
0.0
  0
VERTEX
  5
1F2
330
17B
100
AcDbEntity
  8
DEFAULT
  6
CONTINUOUS
 62
     7
100
AcDbVertex
100
AcDb2dVertex
 10
28.2429009113
 20
134.0569868368
 30
0.0
  0
VERTEX
  5
1F3
330
17B
100
AcDbEntity
  8
DEFAULT
  6
CONTINUOUS
 62
     7
100
AcDbVertex
100
AcDb2dVertex
 10
31.2429009374
 20
134.5569868411
 30
0.0
  0
VERTEX
  5
1F4
330
17B
100
AcDbEntity
  8
DEFAULT
  6
CONTINUOUS
 62
     7
100
AcDbVertex
100
AcDb2dVertex
 10
31.2429009374
 20
133.5569868324
 30
0.0
  0
SEQEND
  5
1F0
330
17B
100
AcDbEntity
  8
DEFAULT
  6
CONTINUOUS
 62
     7
 48
25.4
  0
POLYLINE
  5
17C
330
179
100
AcDbEntity
  8
DEFAULT
  6
CONTINUOUS
 62
     7
 48
25.4
100
AcDb2dPolyline
 66
     1
 10
0.0
 20
0.0
 30
0.0
 70
     1
  0
VERTEX
  5
1F6
330
17C
100
AcDbEntity
  8
DEFAULT
  6
CONTINUOUS
 62
     7
100
AcDbVertex
100
AcDb2dVertex
 10
50.2429008853
 20
133.5569868324
 30
0.0
  0
VERTEX
  5
1F7
330
17C
100
AcDbEntity
  8
DEFAULT
  6
CONTINUOUS
 62
     7
100
AcDbVertex
100
AcDb2dVertex
 10
53.2429009113
 20
134.0569868368
 30
0.0
  0
VERTEX
  5
1F8
330
17C
100
AcDbEntity
  8
DEFAULT
  6
CONTINUOUS
 62
     7
100
AcDbVertex
100
AcDb2dVertex
 10
50.2429008853
 20
134.5569868411
 30
0.0
  0
VERTEX
  5
1F9
330
17C
100
AcDbEntity
  8
DEFAULT
  6
CONTINUOUS
 62
     7
100
AcDbVertex
100
AcDb2dVertex
 10
50.2429008853
 20
133.5569868324
 30
0.0
  0
SEQEND
  5
1F5
330
17C
100
AcDbEntity
  8
DEFAULT
  6
CONTINUOUS
 62
     7
 48
25.4
  0
LINE
  5
17D
330
179
100
AcDbEntity
  8
DEFAULT
  6
CONTINUOUS
 62
     7
 48
25.4
100
AcDbLine
 10
28.2429009113
 20
175.1207202357
 30
0.0
 11
28.2429009113
 21
132.5569868237
 31
0.0
  0
LINE
  5
17E
330
179
100
AcDbEntity
  8
DEFAULT
  6
CONTINUOUS
 62
     7
 48
25.4
100
AcDbLine
 10
53.2429009113
 20
175.1207202357
 30
0.0
 11
53.2429009113
 21
132.5569868237
 31
0.0
  0
LINE
  5
17F
330
179
100
AcDbEntity
  8
DEFAULT
  6
CONTINUOUS
 62
     7
 48
25.4
100
AcDbLine
 10
28.2429009113
 20
134.0569868368
 30
0.0
 11
53.2429012839
 21
134.0569868368
 31
0.0
  0
TEXT
  5
180
330
179
100
AcDbEntity
  8
DEFAULT
  6
CONTINUOUS
 62
     7
 48
25.4
100
AcDbText
 10
38.9701738249
 20
134.8069868368
 30
0.0
 40
3.0
  1
25
  7
SEACAD_SEISO_TTF
 11
38.9701738249
 21
137.8069868368
 31
0.0
100
AcDbText
 73
     3
  0
ENDBLK
  5
182
330
179
100
AcDbEntity
  8
0
100
AcDbBlockEnd
  0
BLOCK
  5
18B
330
183
100
AcDbEntity
  8
0
100
AcDbBlockBegin
  2
SE8
 70
     0
 71
     0
 10
0.0
 20
0.0
 30
0.0
  3
SE8
  1

  0
POLYLINE
  5
185
330
183
100
AcDbEntity
  8
DEFAULT
  6
CONTINUOUS
 62
     7
 48
25.4
100
AcDb2dPolyline
 66
     1
 10
0.0
 20
0.0
 30
0.0
 70
     1
  0
VERTEX
  5
1FB
330
185
100
AcDbEntity
  8
DEFAULT
  6
CONTINUOUS
 62
     7
100
AcDbVertex
100
AcDb2dVertex
 10
157.5300059358
 20
248.1849240867
 30
0.0
  0
VERTEX
  5
1FC
330
185
100
AcDbEntity
  8
DEFAULT
  6
CONTINUOUS
 62
     7
100
AcDbVertex
100
AcDb2dVertex
 10
160.5300059619
 20
247.6849240824
 30
0.0
  0
VERTEX
  5
1FD
330
185
100
AcDbEntity
  8
DEFAULT
  6
CONTINUOUS
 62
     7
100
AcDbVertex
100
AcDb2dVertex
 10
157.5300059358
 20
247.184924078
 30
0.0
  0
VERTEX
  5
1FE
330
185
100
AcDbEntity
  8
DEFAULT
  6
CONTINUOUS
 62
     7
100
AcDbVertex
100
AcDb2dVertex
 10
157.5300059358
 20
248.1849240867
 30
0.0
  0
SEQEND
  5
1FA
330
185
100
AcDbEntity
  8
DEFAULT
  6
CONTINUOUS
 62
     7
 48
25.4
  0
POLYLINE
  5
186
330
183
100
AcDbEntity
  8
DEFAULT
  6
CONTINUOUS
 62
     7
 48
25.4
100
AcDb2dPolyline
 66
     1
 10
0.0
 20
0.0
 30
0.0
 70
     1
  0
VERTEX
  5
200
330
186
100
AcDbEntity
  8
DEFAULT
  6
CONTINUOUS
 62
     7
100
AcDbVertex
100
AcDb2dVertex
 10
119.530005988
 20
248.1849240867
 30
0.0
  0
VERTEX
  5
201
330
186
100
AcDbEntity
  8
DEFAULT
  6
CONTINUOUS
 62
     7
100
AcDbVertex
100
AcDb2dVertex
 10
116.5300059619
 20
247.6849240824
 30
0.0
  0
VERTEX
  5
202
330
186
100
AcDbEntity
  8
DEFAULT
  6
CONTINUOUS
 62
     7
100
AcDbVertex
100
AcDb2dVertex
 10
119.530005988
 20
247.184924078
 30
0.0
  0
VERTEX
  5
203
330
186
100
AcDbEntity
  8
DEFAULT
  6
CONTINUOUS
 62
     7
100
AcDbVertex
100
AcDb2dVertex
 10
119.530005988
 20
248.1849240867
 30
0.0
  0
SEQEND
  5
1FF
330
186
100
AcDbEntity
  8
DEFAULT
  6
CONTINUOUS
 62
     7
 48
25.4
  0
LINE
  5
187
330
183
100
AcDbEntity
  8
DEFAULT
  6
CONTINUOUS
 62
     7
 48
25.4
100
AcDbLine
 10
160.5300059619
 20
213.5643420383
 30
0.0
 11
160.5300059619
 21
249.1849240954
 31
0.0
  0
LINE
  5
188
330
183
100
AcDbEntity
  8
DEFAULT
  6
CONTINUOUS
 62
     7
 48
25.4
100
AcDbLine
 10
116.5300059619
 20
226.4402782121
 30
0.0
 11
116.5300059619
 21
249.1849240954
 31
0.0
  0
LINE
  5
189
330
183
100
AcDbEntity
  8
DEFAULT
  6
CONTINUOUS
 62
     7
 48
25.4
100
AcDbLine
 10
160.5300059619
 20
247.6849240824
 30
0.0
 11
116.5300062003
 21
247.6849240824
 31
0.0
  0
TEXT
  5
18A
330
183
100
AcDbEntity
  8
DEFAULT
  6
CONTINUOUS
 62
     7
 48
25.4
100
AcDbText
 10
136.7572788084
 20
248.4349240824
 30
0.0
 40
3.0
  1
44
  7
SEACAD_SEISO_TTF
 11
136.7572788084
 21
251.4349240824
 31
0.0
100
AcDbText
 73
     3
  0
ENDBLK
  5
18C
330
183
100
AcDbEntity
  8
0
100
AcDbBlockEnd
  0
BLOCK
  5
195
330
18D
100
AcDbEntity
  8
0
100
AcDbBlockBegin
  2
SE9
 70
     0
 71
     0
 10
0.0
 20
0.0
 30
0.0
  3
SE9
  1

  0
POLYLINE
  5
18F
330
18D
100
AcDbEntity
  8
DEFAULT
  6
CONTINUOUS
 62
     7
 48
25.4
100
AcDb2dPolyline
 66
     1
 10
0.0
 20
0.0
 30
0.0
 70
     1
  0
VERTEX
  5
205
330
18F
100
AcDbEntity
  8
DEFAULT
  6
CONTINUOUS
 62
     7
100
AcDbVertex
100
AcDb2dVertex
 10
199.9861446963
 20
227.6207202096
 30
0.0
  0
VERTEX
  5
206
330
18F
100
AcDbEntity
  8
DEFAULT
  6
CONTINUOUS
 62
     7
100
AcDbVertex
100
AcDb2dVertex
 10
199.486144692
 20
230.6207202357
 30
0.0
  0
VERTEX
  5
207
330
18F
100
AcDbEntity
  8
DEFAULT
  6
CONTINUOUS
 62
     7
100
AcDbVertex
100
AcDb2dVertex
 10
198.9861446876
 20
227.6207202096
 30
0.0
  0
VERTEX
  5
208
330
18F
100
AcDbEntity
  8
DEFAULT
  6
CONTINUOUS
 62
     7
100
AcDbVertex
100
AcDb2dVertex
 10
199.9861446963
 20
227.6207202096
 30
0.0
  0
SEQEND
  5
204
330
18F
100
AcDbEntity
  8
DEFAULT
  6
CONTINUOUS
 62
     7
 48
25.4
  0
POLYLINE
  5
190
330
18D
100
AcDbEntity
  8
DEFAULT
  6
CONTINUOUS
 62
     7
 48
25.4
100
AcDb2dPolyline
 66
     1
 10
0.0
 20
0.0
 30
0.0
 70
     1
  0
VERTEX
  5
20A
330
190
100
AcDbEntity
  8
DEFAULT
  6
CONTINUOUS
 62
     7
100
AcDbVertex
100
AcDb2dVertex
 10
199.9861446963
 20
165.6207202618
 30
0.0
  0
VERTEX
  5
20B
330
190
100
AcDbEntity
  8
DEFAULT
  6
CONTINUOUS
 62
     7
100
AcDbVertex
100
AcDb2dVertex
 10
199.486144692
 20
162.6207202357
 30
0.0
  0
VERTEX
  5
20C
330
190
100
AcDbEntity
  8
DEFAULT
  6
CONTINUOUS
 62
     7
100
AcDbVertex
100
AcDb2dVertex
 10
198.9861446876
 20
165.6207202618
 30
0.0
  0
VERTEX
  5
20D
330
190
100
AcDbEntity
  8
DEFAULT
  6
CONTINUOUS
 62
     7
100
AcDbVertex
100
AcDb2dVertex
 10
199.9861446963
 20
165.6207202618
 30
0.0
  0
SEQEND
  5
209
330
190
100
AcDbEntity
  8
DEFAULT
  6
CONTINUOUS
 62
     7
 48
25.4
  0
LINE
  5
191
330
18D
100
AcDbEntity
  8
DEFAULT
  6
CONTINUOUS
 62
     7
 48
25.4
100
AcDbLine
 10
129.5300059619
 20
230.6207202357
 30
0.0
 11
200.986144705
 21
230.6207202357
 31
0.0
  0
LINE
  5
192
330
18D
100
AcDbEntity
  8
DEFAULT
  6
CONTINUOUS
 62
     7
 48
25.4
100
AcDbLine
 10
129.5300059619
 20
162.6207202357
 30
0.0
 11
200.986144705
 21
162.6207202357
 31
0.0
  0
LINE
  5
193
330
18D
100
AcDbEntity
  8
DEFAULT
  6
CONTINUOUS
 62
     7
 48
25.4
100
AcDbLine
 10
199.486144692
 20
230.6207202357
 30
0.0
 11
199.486144692
 21
162.6207165402
 31
0.0
  0
TEXT
  5
194
330
18D
100
AcDbEntity
  8
DEFAULT
  6
CONTINUOUS
 62
     7
 48
25.4
100
AcDbText
 10
198.736144692
 20
194.7457183879
 30
0.0
 40
3.0
  1
68
 50
90.0
  7
SEACAD_SEISO_TTF
 11
195.736144692
 21
194.7457183879
 31
0.0
100
AcDbText
 73
     3
  0
ENDBLK
  5
196
330
18D
100
AcDbEntity
  8
0
100
AcDbBlockEnd
  0
BLOCK
  5
1A1
330
197
100
AcDbEntity
  8
0
100
AcDbBlockBegin
  2
SE10
 70
     0
 71
     0
 10
0.0
 20
0.0
 30
0.0
  3
SE10
  1

  0
POLYLINE
  5
199
330
197
100
AcDbEntity
  8
DEFAULT
  6
CONTINUOUS
 62
     7
 48
25.4
100
AcDb2dPolyline
 66
     1
 10
0.0
 20
0.0
 30
0.0
 70
     1
  0
VERTEX
  5
20F
330
199
100
AcDbEntity
  8
DEFAULT
  6
CONTINUOUS
 62
     7
100
AcDbVertex
100
AcDb2dVertex
 10
190.6061612951
 20
182.1707202618
 30
0.0
  0
VERTEX
  5
210
330
199
100
AcDbEntity
  8
DEFAULT
  6
CONTINUOUS
 62
     7
100
AcDbVertex
100
AcDb2dVertex
 10
190.1061612908
 20
179.1707202357
 30
0.0
  0
VERTEX
  5
211
330
199
100
AcDbEntity
  8
DEFAULT
  6
CONTINUOUS
 62
     7
100
AcDbVertex
100
AcDb2dVertex
 10
189.6061612864
 20
182.1707202618
 30
0.0
  0
VERTEX
  5
212
330
199
100
AcDbEntity
  8
DEFAULT
  6
CONTINUOUS
 62
     7
100
AcDbVertex
100
AcDb2dVertex
 10
190.6061612951
 20
182.1707202618
 30
0.0
  0
SEQEND
  5
20E
330
199
100
AcDbEntity
  8
DEFAULT
  6
CONTINUOUS
 62
     7
 48
25.4
  0
POLYLINE
  5
19A
330
197
100
AcDbEntity
  8
DEFAULT
  6
CONTINUOUS
 62
     7
 48
25.4
100
AcDb2dPolyline
 66
     1
 10
0.0
 20
0.0
 30
0.0
 70
     1
  0
VERTEX
  5
214
330
19A
100
AcDbEntity
  8
DEFAULT
  6
CONTINUOUS
 62
     7
100
AcDbVertex
100
AcDb2dVertex
 10
190.6061612951
 20
168.1707202096
 30
0.0
  0
VERTEX
  5
215
330
19A
100
AcDbEntity
  8
DEFAULT
  6
CONTINUOUS
 62
     7
100
AcDbVertex
100
AcDb2dVertex
 10
190.1061612908
 20
171.1707202357
 30
0.0
  0
VERTEX
  5
216
330
19A
100
AcDbEntity
  8
DEFAULT
  6
CONTINUOUS
 62
     7
100
AcDbVertex
100
AcDb2dVertex
 10
189.6061612864
 20
168.1707202096
 30
0.0
  0
VERTEX
  5
217
330
19A
100
AcDbEntity
  8
DEFAULT
  6
CONTINUOUS
 62
     7
100
AcDbVertex
100
AcDb2dVertex
 10
190.6061612951
 20
168.1707202096
 30
0.0
  0
SEQEND
  5
213
330
19A
100
AcDbEntity
  8
DEFAULT
  6
CONTINUOUS
 62
     7
 48
25.4
  0
LINE
  5
19B
330
197
100
AcDbEntity
  8
DEFAULT
  6
CONTINUOUS
 62
     7
 48
25.4
100
AcDbLine
 10
167.3684477601
 20
179.1707202357
 30
0.0
 11
191.6061613038
 21
179.1707202357
 31
0.0
  0
LINE
  5
19C
330
197
100
AcDbEntity
  8
DEFAULT
  6
CONTINUOUS
 62
     7
 48
25.4
100
AcDbLine
 10
177.3684477601
 20
171.1707202357
 30
0.0
 11
191.6061613038
 21
171.1707202357
 31
0.0
  0
LINE
  5
19D
330
197
100
AcDbEntity
  8
DEFAULT
  6
CONTINUOUS
 62
     7
 48
25.4
100
AcDbLine
 10
190.1061612908
 20
185.1707202878
 30
0.0
 11
190.1061612908
 21
165.1707198035
 31
0.0
  0
TEXT
  5
19E
330
197
100
AcDbEntity
  8
DEFAULT
  6
CONTINUOUS
 62
     7
 48
25.4
100
AcDbText
 10
189.3561612908
 20
176.0692313597
 30
0.0
 40
3.0
  1
8
 50
90.0
  7
SEACAD_SEISO_TTF
 11
186.3561612908
 21
176.0692313597
 31
0.0
100
AcDbText
 73
     3
  0
TEXT
  5
1A0
330
197
100
AcDbEntity
  8
DEFAULT
  6
CONTINUOUS
 62
     7
 48
25.4
100
AcDbText
 10
189.3561612908
 20
172.3631178226
 30
0.0
 40
3.0
  1
q
 50
90.0
  7
SEACAD_SEMECI1_TTF
 11
186.3561612908
 21
172.3631178226
 31
0.0
100
AcDbText
 73
     3
  0
ENDBLK
  5
1A2
330
197
100
AcDbEntity
  8
0
100
AcDbBlockEnd
  0
BLOCK
  5
1AC
330
1A3
100
AcDbEntity
  8
0
100
AcDbBlockBegin
  2
SE11
 70
     0
 71
     0
 10
0.0
 20
0.0
 30
0.0
  3
SE11
  1

  0
POLYLINE
  5
1A5
330
1A3
100
AcDbEntity
  8
DEFAULT
  6
CONTINUOUS
 62
     7
 48
25.4
100
AcDb2dPolyline
 66
     1
 10
0.0
 20
0.0
 30
0.0
 70
     1
  0
VERTEX
  5
219
330
1A5
100
AcDbEntity
  8
DEFAULT
  6
CONTINUOUS
 62
     7
100
AcDbVertex
100
AcDb2dVertex
 10
100.4662017682
 20
176.957428618
 30
0.0
  0
VERTEX
  5
21A
330
1A5
100
AcDbEntity
  8
DEFAULT
  6
CONTINUOUS
 62
     7
100
AcDbVertex
100
AcDb2dVertex
 10
100.9662017725
 20
179.9574286441
 30
0.0
  0
VERTEX
  5
21B
330
1A5
100
AcDbEntity
  8
DEFAULT
  6
CONTINUOUS
 62
     7
100
AcDbVertex
100
AcDb2dVertex
 10
101.4662017768
 20
176.957428618
 30
0.0
  0
VERTEX
  5
21C
330
1A5
100
AcDbEntity
  8
DEFAULT
  6
CONTINUOUS
 62
     7
100
AcDbVertex
100
AcDb2dVertex
 10
100.4662017682
 20
176.957428618
 30
0.0
  0
SEQEND
  5
218
330
1A5
100
AcDbEntity
  8
DEFAULT
  6
CONTINUOUS
 62
     7
 48
25.4
  0
POLYLINE
  5
1A6
330
1A3
100
AcDbEntity
  8
DEFAULT
  6
CONTINUOUS
 62
     7
 48
25.4
100
AcDb2dPolyline
 66
     1
 10
0.0
 20
0.0
 30
0.0
 70
     1
  0
VERTEX
  5
21E
330
1A6
100
AcDbEntity
  8
DEFAULT
  6
CONTINUOUS
 62
     7
100
AcDbVertex
100
AcDb2dVertex
 10
100.4662017682
 20
173.4231278061
 30
0.0
  0
VERTEX
  5
21F
330
1A6
100
AcDbEntity
  8
DEFAULT
  6
CONTINUOUS
 62
     7
100
AcDbVertex
100
AcDb2dVertex
 10
100.9662017725
 20
170.42312778
 30
0.0
  0
VERTEX
  5
220
330
1A6
100
AcDbEntity
  8
DEFAULT
  6
CONTINUOUS
 62
     7
100
AcDbVertex
100
AcDb2dVertex
 10
101.4662017768
 20
173.4231278061
 30
0.0
  0
VERTEX
  5
221
330
1A6
100
AcDbEntity
  8
DEFAULT
  6
CONTINUOUS
 62
     7
100
AcDbVertex
100
AcDb2dVertex
 10
100.4662017682
 20
173.4231278061
 30
0.0
  0
SEQEND
  5
21D
330
1A6
100
AcDbEntity
  8
DEFAULT
  6
CONTINUOUS
 62
     7
 48
25.4
  0
LINE
  5
1A7
330
1A3
100
AcDbEntity
  8
DEFAULT
  6
CONTINUOUS
 62
     7
 48
25.4
100
AcDbLine
 10
111.5125535555
 20
179.9574286441
 30
0.0
 11
99.4662017595
 21
179.9574286441
 31
0.0
  0
LINE
  5
1A8
330
1A3
100
AcDbEntity
  8
DEFAULT
  6
CONTINUOUS
 62
     7
 48
25.4
100
AcDbLine
 10
111.5125535555
 20
170.42312778
 30
0.0
 11
99.4662017595
 21
170.42312778
 31
0.0
  0
LINE
  5
1A9
330
1A3
100
AcDbEntity
  8
DEFAULT
  6
CONTINUOUS
 62
     7
 48
25.4
100
AcDbLine
 10
100.9662017725
 20
179.9574286441
 30
0.0
 11
100.9662017725
 21
170.4231274078
 31
0.0
  0
TEXT
  5
1AA
330
1A3
100
AcDbEntity
  8
DEFAULT
  6
CONTINUOUS
 62
     7
 48
25.4
100
AcDbText
 10
100.2162017725
 20
174.9651291574
 30
0.0
 40
3.0
  1
9,5
 50
90.0
  7
SEACAD_SEISO_TTF
 11
97.2162017725
 21
174.9651291574
 31
0.0
100
AcDbText
 73
     3
  0
TEXT
  5
1AB
330
1A3
100
AcDbEntity
  8
DEFAULT
  6
CONTINUOUS
 62
     7
 48
25.4
100
AcDbText
 10
100.2162017725
 20
171.3245178037
 30
0.0
 40
3.0
  1
O
 50
90.0
  7
SEACAD_SEMECI1_TTF
 11
97.2162017725
 21
171.3245178037
 31
0.0
100
AcDbText
 73
     3
  0
ENDBLK
  5
1AD
330
1A3
100
AcDbEntity
  8
0
100
AcDbBlockEnd
  0
BLOCK
  5
1B7
330
1AE
100
AcDbEntity
  8
0
100
AcDbBlockBegin
  2
SE12
 70
     0
 71
     0
 10
0.0
 20
0.0
 30
0.0
  3
SE12
  1

  0
POLYLINE
  5
1B0
330
1AE
100
AcDbEntity
  8
DEFAULT
  6
CONTINUOUS
 62
     7
 48
25.4
100
AcDb2dPolyline
 66
     1
 10
0.0
 20
0.0
 30
0.0
 70
     1
  0
VERTEX
  5
223
330
1B0
100
AcDbEntity
  8
DEFAULT
  6
CONTINUOUS
 62
     7
100
AcDbVertex
100
AcDb2dVertex
 10
71.7056042854
 20
215.4402782382
 30
0.0
  0
VERTEX
  5
224
330
1B0
100
AcDbEntity
  8
DEFAULT
  6
CONTINUOUS
 62
     7
100
AcDbVertex
100
AcDb2dVertex
 10
72.2056042897
 20
212.4402782121
 30
0.0
  0
VERTEX
  5
225
330
1B0
100
AcDbEntity
  8
DEFAULT
  6
CONTINUOUS
 62
     7
100
AcDbVertex
100
AcDb2dVertex
 10
72.7056042941
 20
215.4402782382
 30
0.0
  0
VERTEX
  5
226
330
1B0
100
AcDbEntity
  8
DEFAULT
  6
CONTINUOUS
 62
     7
100
AcDbVertex
100
AcDb2dVertex
 10
71.7056042854
 20
215.4402782382
 30
0.0
  0
SEQEND
  5
222
330
1B0
100
AcDbEntity
  8
DEFAULT
  6
CONTINUOUS
 62
     7
 48
25.4
  0
POLYLINE
  5
1B1
330
1AE
100
AcDbEntity
  8
DEFAULT
  6
CONTINUOUS
 62
     7
 48
25.4
100
AcDb2dPolyline
 66
     1
 10
0.0
 20
0.0
 30
0.0
 70
     1
  0
VERTEX
  5
228
330
1B1
100
AcDbEntity
  8
DEFAULT
  6
CONTINUOUS
 62
     7
100
AcDbVertex
100
AcDb2dVertex
 10
71.7056042854
 20
220.940278186
 30
0.0
  0
VERTEX
  5
229
330
1B1
100
AcDbEntity
  8
DEFAULT
  6
CONTINUOUS
 62
     7
100
AcDbVertex
100
AcDb2dVertex
 10
72.2056042897
 20
223.9402782121
 30
0.0
  0
VERTEX
  5
22A
330
1B1
100
AcDbEntity
  8
DEFAULT
  6
CONTINUOUS
 62
     7
100
AcDbVertex
100
AcDb2dVertex
 10
72.7056042941
 20
220.940278186
 30
0.0
  0
VERTEX
  5
22B
330
1B1
100
AcDbEntity
  8
DEFAULT
  6
CONTINUOUS
 62
     7
100
AcDbVertex
100
AcDb2dVertex
 10
71.7056042854
 20
220.940278186
 30
0.0
  0
SEQEND
  5
227
330
1B1
100
AcDbEntity
  8
DEFAULT
  6
CONTINUOUS
 62
     7
 48
25.4
  0
LINE
  5
1B2
330
1AE
100
AcDbEntity
  8
DEFAULT
  6
CONTINUOUS
 62
     7
 48
25.4
100
AcDbLine
 10
86.9800059619
 20
212.4402782121
 30
0.0
 11
70.7056042767
 21
212.4402782121
 31
0.0
  0
LINE
  5
1B3
330
1AE
100
AcDbEntity
  8
DEFAULT
  6
CONTINUOUS
 62
     7
 48
25.4
100
AcDbLine
 10
86.9800059619
 20
223.9402782121
 30
0.0
 11
70.7056042767
 21
223.9402782121
 31
0.0
  0
LINE
  5
1B4
330
1AE
100
AcDbEntity
  8
DEFAULT
  6
CONTINUOUS
 62
     7
 48
25.4
100
AcDbLine
 10
72.2056042897
 20
212.4402782121
 30
0.0
 11
72.2056042897
 21
223.9402782344
 31
0.0
  0
TEXT
  5
1B5
330
1AE
100
AcDbEntity
  8
DEFAULT
  6
CONTINUOUS
 62
     7
 48
25.4
100
AcDbText
 10
71.4556042897
 20
217.6583111728
 30
0.0
 40
3.0
  1
11,5
 50
90.0
  7
SEACAD_SEISO_TTF
 11
68.4556042897
 21
217.6583111728
 31
0.0
100
AcDbText
 73
     3
  0
TEXT
  5
1B6
330
1AE
100
AcDbEntity
  8
DEFAULT
  6
CONTINUOUS
 62
     7
 48
25.4
100
AcDbText
 10
71.4556042897
 20
214.0176998191
 30
0.0
 40
3.0
  1
O
 50
90.0
  7
SEACAD_SEMECI1_TTF
 11
68.4556042897
 21
214.0176998191
 31
0.0
100
AcDbText
 73
     3
  0
ENDBLK
  5
1B8
330
1AE
100
AcDbEntity
  8
0
100
AcDbBlockEnd
  0
BLOCK
  5
1C1
330
1B9
100
AcDbEntity
  8
0
100
AcDbBlockBegin
  2
SE13
 70
     0
 71
     0
 10
0.0
 20
0.0
 30
0.0
  3
SE13
  1

  0
POLYLINE
  5
1BB
330
1B9
100
AcDbEntity
  8
DEFAULT
  6
CONTINUOUS
 62
     7
 48
25.4
100
AcDb2dPolyline
 66
     1
 10
0.0
 20
0.0
 30
0.0
 70
     1
  0
VERTEX
  5
22D
330
1BB
100
AcDbEntity
  8
DEFAULT
  6
CONTINUOUS
 62
     7
100
AcDbVertex
100
AcDb2dVertex
 10
125.5300059358
 20
132.614015345
 30
0.0
  0
VERTEX
  5
22E
330
1BB
100
AcDbEntity
  8
DEFAULT
  6
CONTINUOUS
 62
     7
100
AcDbVertex
100
AcDb2dVertex
 10
128.5300059619
 20
133.1140153493
 30
0.0
  0
VERTEX
  5
22F
330
1BB
100
AcDbEntity
  8
DEFAULT
  6
CONTINUOUS
 62
     7
100
AcDbVertex
100
AcDb2dVertex
 10
125.5300059358
 20
133.6140153537
 30
0.0
  0
VERTEX
  5
230
330
1BB
100
AcDbEntity
  8
DEFAULT
  6
CONTINUOUS
 62
     7
100
AcDbVertex
100
AcDb2dVertex
 10
125.5300059358
 20
132.614015345
 30
0.0
  0
SEQEND
  5
22C
330
1BB
100
AcDbEntity
  8
DEFAULT
  6
CONTINUOUS
 62
     7
 48
25.4
  0
POLYLINE
  5
1BC
330
1B9
100
AcDbEntity
  8
DEFAULT
  6
CONTINUOUS
 62
     7
 48
25.4
100
AcDb2dPolyline
 66
     1
 10
0.0
 20
0.0
 30
0.0
 70
     1
  0
VERTEX
  5
232
330
1BC
100
AcDbEntity
  8
DEFAULT
  6
CONTINUOUS
 62
     7
100
AcDbVertex
100
AcDb2dVertex
 10
113.530005988
 20
132.614015345
 30
0.0
  0
VERTEX
  5
233
330
1BC
100
AcDbEntity
  8
DEFAULT
  6
CONTINUOUS
 62
     7
100
AcDbVertex
100
AcDb2dVertex
 10
110.5300059619
 20
133.1140153493
 30
0.0
  0
VERTEX
  5
234
330
1BC
100
AcDbEntity
  8
DEFAULT
  6
CONTINUOUS
 62
     7
100
AcDbVertex
100
AcDb2dVertex
 10
113.530005988
 20
133.6140153537
 30
0.0
  0
VERTEX
  5
235
330
1BC
100
AcDbEntity
  8
DEFAULT
  6
CONTINUOUS
 62
     7
100
AcDbVertex
100
AcDb2dVertex
 10
113.530005988
 20
132.614015345
 30
0.0
  0
SEQEND
  5
231
330
1BC
100
AcDbEntity
  8
DEFAULT
  6
CONTINUOUS
 62
     7
 48
25.4
  0
LINE
  5
1BD
330
1B9
100
AcDbEntity
  8
DEFAULT
  6
CONTINUOUS
 62
     7
 48
25.4
100
AcDbLine
 10
128.5300059619
 20
162.4556385364
 30
0.0
 11
128.5300059619
 21
131.6140153363
 31
0.0
  0
LINE
  5
1BE
330
1B9
100
AcDbEntity
  8
DEFAULT
  6
CONTINUOUS
 62
     7
 48
25.4
100
AcDbLine
 10
110.5300059619
 20
171.4229754752
 30
0.0
 11
110.5300059619
 21
131.6140153363
 31
0.0
  0
LINE
  5
1BF
330
1B9
100
AcDbEntity
  8
DEFAULT
  6
CONTINUOUS
 62
     7
 48
25.4
100
AcDbLine
 10
128.5300059619
 20
133.1140153493
 30
0.0
 11
110.5300067368
 21
133.1140153493
 31
0.0
  0
TEXT
  5
1C0
330
1B9
100
AcDbEntity
  8
DEFAULT
  6
CONTINUOUS
 62
     7
 48
25.4
100
AcDbText
 10
117.9618245312
 20
133.8640153493
 30
0.0
 40
3.0
  1
18
  7
SEACAD_SEISO_TTF
 11
117.9618245312
 21
136.8640153493
 31
0.0
100
AcDbText
 73
     3
  0
ENDBLK
  5
1C2
330
1B9
100
AcDbEntity
  8
0
100
AcDbBlockEnd
  0
BLOCK
  5
1CB
330
1C3
100
AcDbEntity
  8
0
100
AcDbBlockBegin
  2
SE14
 70
     0
 71
     0
 10
0.0
 20
0.0
 30
0.0
  3
SE14
  1

  0
POLYLINE
  5
1C5
330
1C3
100
AcDbEntity
  8
DEFAULT
  6
CONTINUOUS
 62
     7
 48
25.4
100
AcDb2dPolyline
 66
     1
 10
0.0
 20
0.0
 30
0.0
 70
     1
  0
VERTEX
  5
237
330
1C5
100
AcDbEntity
  8
DEFAULT
  6
CONTINUOUS
 62
     7
100
AcDbVertex
100
AcDb2dVertex
 10
125.5300059358
 20
139.9220361758
 30
0.0
  0
VERTEX
  5
238
330
1C5
100
AcDbEntity
  8
DEFAULT
  6
CONTINUOUS
 62
     7
100
AcDbVertex
100
AcDb2dVertex
 10
128.5300059619
 20
140.4220361801
 30
0.0
  0
VERTEX
  5
239
330
1C5
100
AcDbEntity
  8
DEFAULT
  6
CONTINUOUS
 62
     7
100
AcDbVertex
100
AcDb2dVertex
 10
125.5300059358
 20
140.9220361845
 30
0.0
  0
VERTEX
  5
23A
330
1C5
100
AcDbEntity
  8
DEFAULT
  6
CONTINUOUS
 62
     7
100
AcDbVertex
100
AcDb2dVertex
 10
125.5300059358
 20
139.9220361758
 30
0.0
  0
SEQEND
  5
236
330
1C5
100
AcDbEntity
  8
DEFAULT
  6
CONTINUOUS
 62
     7
 48
25.4
  0
POLYLINE
  5
1C6
330
1C3
100
AcDbEntity
  8
DEFAULT
  6
CONTINUOUS
 62
     7
 48
25.4
100
AcDb2dPolyline
 66
     1
 10
0.0
 20
0.0
 30
0.0
 70
     1
  0
VERTEX
  5
23C
330
1C6
100
AcDbEntity
  8
DEFAULT
  6
CONTINUOUS
 62
     7
100
AcDbVertex
100
AcDb2dVertex
 10
119.530005988
 20
139.9220361758
 30
0.0
  0
VERTEX
  5
23D
330
1C6
100
AcDbEntity
  8
DEFAULT
  6
CONTINUOUS
 62
     7
100
AcDbVertex
100
AcDb2dVertex
 10
116.5300059619
 20
140.4220361801
 30
0.0
  0
VERTEX
  5
23E
330
1C6
100
AcDbEntity
  8
DEFAULT
  6
CONTINUOUS
 62
     7
100
AcDbVertex
100
AcDb2dVertex
 10
119.530005988
 20
140.9220361845
 30
0.0
  0
VERTEX
  5
23F
330
1C6
100
AcDbEntity
  8
DEFAULT
  6
CONTINUOUS
 62
     7
100
AcDbVertex
100
AcDb2dVertex
 10
119.530005988
 20
139.9220361758
 30
0.0
  0
SEQEND
  5
23B
330
1C6
100
AcDbEntity
  8
DEFAULT
  6
CONTINUOUS
 62
     7
 48
25.4
  0
LINE
  5
1C7
330
1C3
100
AcDbEntity
  8
DEFAULT
  6
CONTINUOUS
 62
     7
 48
25.4
100
AcDbLine
 10
128.5300059619
 20
168.8229583742
 30
0.0
 11
128.5300059619
 21
138.9220361671
 31
0.0
  0
LINE
  5
1C8
330
1C3
100
AcDbEntity
  8
DEFAULT
  6
CONTINUOUS
 62
     7
 48
25.4
100
AcDbLine
 10
116.5300059619
 20
158.6902782121
 30
0.0
 11
116.5300059619
 21
138.9220361671
 31
0.0
  0
LINE
  5
1C9
330
1C3
100
AcDbEntity
  8
DEFAULT
  6
CONTINUOUS
 62
     7
 48
25.4
100
AcDbLine
 10
128.5300059619
 20
140.4220361801
 30
0.0
 11
116.5300058576
 21
140.4220361801
 31
0.0
  0
TEXT
  5
1CA
330
1C3
100
AcDbEntity
  8
DEFAULT
  6
CONTINUOUS
 62
     7
 48
25.4
100
AcDbText
 10
120.9959150007
 20
141.1720361801
 30
0.0
 40
3.0
  1
12
  7
SEACAD_SEISO_TTF
 11
120.9959150007
 21
144.1720361801
 31
0.0
100
AcDbText
 73
     3
  0
ENDBLK
  5
1CC
330
1C3
100
AcDbEntity
  8
0
100
AcDbBlockEnd
  0
BLOCK
  5
1D5
330
1CD
100
AcDbEntity
  8
0
100
AcDbBlockBegin
  2
SE15
 70
     0
 71
     0
 10
0.0
 20
0.0
 30
0.0
  3
SE15
  1

  0
POLYLINE
  5
1CF
330
1CD
100
AcDbEntity
  8
DEFAULT
  6
CONTINUOUS
 62
     7
 48
25.4
100
AcDb2dPolyline
 66
     1
 10
0.0
 20
0.0
 30
0.0
 70
     1
  0
VERTEX
  5
241
330
1CF
100
AcDbEntity
  8
DEFAULT
  6
CONTINUOUS
 62
     7
100
AcDbVertex
100
AcDb2dVertex
 10
84.530005988
 20
139.9408919195
 30
0.0
  0
VERTEX
  5
242
330
1CF
100
AcDbEntity
  8
DEFAULT
  6
CONTINUOUS
 62
     7
100
AcDbVertex
100
AcDb2dVertex
 10
81.5300059619
 20
140.4408919238
 30
0.0
  0
VERTEX
  5
243
330
1CF
100
AcDbEntity
  8
DEFAULT
  6
CONTINUOUS
 62
     7
100
AcDbVertex
100
AcDb2dVertex
 10
84.530005988
 20
140.9408919281
 30
0.0
  0
VERTEX
  5
244
330
1CF
100
AcDbEntity
  8
DEFAULT
  6
CONTINUOUS
 62
     7
100
AcDbVertex
100
AcDb2dVertex
 10
84.530005988
 20
139.9408919195
 30
0.0
  0
SEQEND
  5
240
330
1CF
100
AcDbEntity
  8
DEFAULT
  6
CONTINUOUS
 62
     7
 48
25.4
  0
POLYLINE
  5
1D0
330
1CD
100
AcDbEntity
  8
DEFAULT
  6
CONTINUOUS
 62
     7
 48
25.4
100
AcDb2dPolyline
 66
     1
 10
0.0
 20
0.0
 30
0.0
 70
     1
  0
VERTEX
  5
246
330
1D0
100
AcDbEntity
  8
DEFAULT
  6
CONTINUOUS
 62
     7
100
AcDbVertex
100
AcDb2dVertex
 10
113.5300059358
 20
139.9408919195
 30
0.0
  0
VERTEX
  5
247
330
1D0
100
AcDbEntity
  8
DEFAULT
  6
CONTINUOUS
 62
     7
100
AcDbVertex
100
AcDb2dVertex
 10
116.5300059619
 20
140.4408919238
 30
0.0
  0
VERTEX
  5
248
330
1D0
100
AcDbEntity
  8
DEFAULT
  6
CONTINUOUS
 62
     7
100
AcDbVertex
100
AcDb2dVertex
 10
113.5300059358
 20
140.9408919281
 30
0.0
  0
VERTEX
  5
249
330
1D0
100
AcDbEntity
  8
DEFAULT
  6
CONTINUOUS
 62
     7
100
AcDbVertex
100
AcDb2dVertex
 10
113.5300059358
 20
139.9408919195
 30
0.0
  0
SEQEND
  5
245
330
1D0
100
AcDbEntity
  8
DEFAULT
  6
CONTINUOUS
 62
     7
 48
25.4
  0
LINE
  5
1D1
330
1CD
100
AcDbEntity
  8
DEFAULT
  6
CONTINUOUS
 62
     7
 48
25.4
100
AcDbLine
 10
81.5300059619
 20
193.3736125552
 30
0.0
 11
81.5300059619
 21
138.9408919108
 31
0.0
  0
LINE
  5
1D2
330
1CD
100
AcDbEntity
  8
DEFAULT
  6
CONTINUOUS
 62
     7
 48
25.4
100
AcDbLine
 10
116.5300059619
 20
166.9402782121
 30
0.0
 11
116.5300059619
 21
138.9408919108
 31
0.0
  0
LINE
  5
1D3
330
1CD
100
AcDbEntity
  8
DEFAULT
  6
CONTINUOUS
 62
     7
 48
25.4
100
AcDbLine
 10
81.5300059619
 20
140.4408919238
 30
0.0
 11
116.5300061109
 21
140.4408919238
 31
0.0
  0
TEXT
  5
1D4
330
1CD
100
AcDbEntity
  8
DEFAULT
  6
CONTINUOUS
 62
     7
 48
25.4
100
AcDbText
 10
97.3936424001
 20
141.1908919238
 30
0.0
 40
3.0
  1
35
  7
SEACAD_SEISO_TTF
 11
97.3936424001
 21
144.1908919238
 31
0.0
100
AcDbText
 73
     3
  0
ENDBLK
  5
1D6
330
1CD
100
AcDbEntity
  8
0
100
AcDbBlockEnd
  0
BLOCK
  5
1DF
330
1D7
100
AcDbEntity
  8
0
100
AcDbBlockBegin
  2
SE16
 70
     0
 71
     0
 10
0.0
 20
0.0
 30
0.0
  3
SE16
  1

  0
POLYLINE
  5
1D9
330
1D7
100
AcDbEntity
  8
DEFAULT
  6
CONTINUOUS
 62
     7
 48
25.4
100
AcDb2dPolyline
 66
     1
 10
0.0
 20
0.0
 30
0.0
 70
     1
  0
VERTEX
  5
24B
330
1D9
100
AcDbEntity
  8
DEFAULT
  6
CONTINUOUS
 62
     7
100
AcDbVertex
100
AcDb2dVertex
 10
147.530005988
 20
140.2720752294
 30
0.0
  0
VERTEX
  5
24C
330
1D9
100
AcDbEntity
  8
DEFAULT
  6
CONTINUOUS
 62
     7
100
AcDbVertex
100
AcDb2dVertex
 10
144.5300059619
 20
140.7720752338
 30
0.0
  0
VERTEX
  5
24D
330
1D9
100
AcDbEntity
  8
DEFAULT
  6
CONTINUOUS
 62
     7
100
AcDbVertex
100
AcDb2dVertex
 10
147.530005988
 20
141.2720752381
 30
0.0
  0
VERTEX
  5
24E
330
1D9
100
AcDbEntity
  8
DEFAULT
  6
CONTINUOUS
 62
     7
100
AcDbVertex
100
AcDb2dVertex
 10
147.530005988
 20
140.2720752294
 30
0.0
  0
SEQEND
  5
24A
330
1D9
100
AcDbEntity
  8
DEFAULT
  6
CONTINUOUS
 62
     7
 48
25.4
  0
POLYLINE
  5
1DA
330
1D7
100
AcDbEntity
  8
DEFAULT
  6
CONTINUOUS
 62
     7
 48
25.4
100
AcDb2dPolyline
 66
     1
 10
0.0
 20
0.0
 30
0.0
 70
     1
  0
VERTEX
  5
250
330
1DA
100
AcDbEntity
  8
DEFAULT
  6
CONTINUOUS
 62
     7
100
AcDbVertex
100
AcDb2dVertex
 10
176.6300059358
 20
140.2720752294
 30
0.0
  0
VERTEX
  5
251
330
1DA
100
AcDbEntity
  8
DEFAULT
  6
CONTINUOUS
 62
     7
100
AcDbVertex
100
AcDb2dVertex
 10
179.6300059619
 20
140.7720752338
 30
0.0
  0
VERTEX
  5
252
330
1DA
100
AcDbEntity
  8
DEFAULT
  6
CONTINUOUS
 62
     7
100
AcDbVertex
100
AcDb2dVertex
 10
176.6300059358
 20
141.2720752381
 30
0.0
  0
VERTEX
  5
253
330
1DA
100
AcDbEntity
  8
DEFAULT
  6
CONTINUOUS
 62
     7
100
AcDbVertex
100
AcDb2dVertex
 10
176.6300059358
 20
140.2720752294
 30
0.0
  0
SEQEND
  5
24F
330
1DA
100
AcDbEntity
  8
DEFAULT
  6
CONTINUOUS
 62
     7
 48
25.4
  0
LINE
  5
1DB
330
1D7
100
AcDbEntity
  8
DEFAULT
  6
CONTINUOUS
 62
     7
 48
25.4
100
AcDbLine
 10
144.5300059619
 20
164.847512571
 30
0.0
 11
144.5300059619
 21
139.2720752208
 31
0.0
  0
LINE
  5
1DC
330
1D7
100
AcDbEntity
  8
DEFAULT
  6
CONTINUOUS
 62
     7
 48
25.4
100
AcDbLine
 10
179.6300059619
 20
171.775424188
 30
0.0
 11
179.6300059619
 21
139.2720752208
 31
0.0
  0
LINE
  5
1DD
330
1D7
100
AcDbEntity
  8
DEFAULT
  6
CONTINUOUS
 62
     7
 48
25.4
100
AcDbLine
 10
144.5300059619
 20
140.7720752338
 30
0.0
 11
179.6300078037
 21
140.7720752338
 31
0.0
  0
TEXT
  5
1DE
330
1D7
100
AcDbEntity
  8
DEFAULT
  6
CONTINUOUS
 62
     7
 48
25.4
100
AcDbText
 10
160.4436432464
 20
141.5220752338
 30
0.0
 40
3.0
  1
35
  7
SEACAD_SEISO_TTF
 11
160.4436432464
 21
144.5220752338
 31
0.0
100
AcDbText
 73
     3
  0
ENDBLK
  5
1E0
330
1D7
100
AcDbEntity
  8
0
100
AcDbBlockEnd
  0
ENDSEC
  0
SECTION
  2
ENTITIES
  0
TEXT
  5
2F
330
1F
100
AcDbEntity
  8
DEFAULT
  6
CONTINUOUS
 62
     7
 48
25.4
100
AcDbText
 10
64.4180730438
 20
87.8344641933
 30
0.0
 40
5.0
  1
41.410
  7
SEACAD_SEISO_TTF
 11
64.4180730438
 21
92.8344641933
 31
0.0
100
AcDbText
 73
     3
  0
INSERT
  5
32
330
1F
100
AcDbEntity
  8
0
100
AcDbBlockReference
  2
SE
 10
0.0
 20
0.0
 30
0.0
  0
INSERT
  5
38
330
1F
100
AcDbEntity
  8
0
100
AcDbBlockReference
  2
SE1
 10
0.0
 20
0.0
 30
0.0
  0
INSERT
  5
3D
330
1F
100
AcDbEntity
  8
0
100
AcDbBlockReference
  2
SE2
 10
0.0
 20
0.0
 30
0.0
  0
INSERT
  5
42
330
1F
100
AcDbEntity
  8
0
100
AcDbBlockReference
  2
SE3
 10
0.0
 20
0.0
 30
0.0
  0
INSERT
  5
104
330
1F
100
AcDbEntity
  8
0
100
AcDbBlockReference
  2
SE4
 10
0.0
 20
0.0
 30
0.0
  0
INSERT
  5
167
330
1F
100
AcDbEntity
  8
0
100
AcDbBlockReference
  2
SE5
 10
0.0
 20
0.0
 30
0.0
  0
INSERT
  5
170
330
1F
100
AcDbEntity
  8
0
100
AcDbBlockReference
  2
SE6
 10
0.0
 20
0.0
 30
0.0
  0
INSERT
  5
17A
330
1F
100
AcDbEntity
  8
0
100
AcDbBlockReference
  2
SE7
 10
0.0
 20
0.0
 30
0.0
  0
INSERT
  5
184
330
1F
100
AcDbEntity
  8
0
100
AcDbBlockReference
  2
SE8
 10
0.0
 20
0.0
 30
0.0
  0
INSERT
  5
18E
330
1F
100
AcDbEntity
  8
0
100
AcDbBlockReference
  2
SE9
 10
0.0
 20
0.0
 30
0.0
  0
INSERT
  5
198
330
1F
100
AcDbEntity
  8
0
100
AcDbBlockReference
  2
SE10
 10
0.0
 20
0.0
 30
0.0
  0
INSERT
  5
1A4
330
1F
100
AcDbEntity
  8
0
100
AcDbBlockReference
  2
SE11
 10
0.0
 20
0.0
 30
0.0
  0
INSERT
  5
1AF
330
1F
100
AcDbEntity
  8
0
100
AcDbBlockReference
  2
SE12
 10
0.0
 20
0.0
 30
0.0
  0
INSERT
  5
1BA
330
1F
100
AcDbEntity
  8
0
100
AcDbBlockReference
  2
SE13
 10
0.0
 20
0.0
 30
0.0
  0
INSERT
  5
1C4
330
1F
100
AcDbEntity
  8
0
100
AcDbBlockReference
  2
SE14
 10
0.0
 20
0.0
 30
0.0
  0
INSERT
  5
1CE
330
1F
100
AcDbEntity
  8
0
100
AcDbBlockReference
  2
SE15
 10
0.0
 20
0.0
 30
0.0
  0
INSERT
  5
1D8
330
1F
100
AcDbEntity
  8
0
100
AcDbBlockReference
  2
SE16
 10
0.0
 20
0.0
 30
0.0
  0
ENDSEC
  0
SECTION
  2
OBJECTS
  0
DICTIONARY
  5
C
330
0
100
AcDbDictionary
  3
ACAD_GROUP
350
D
  3
ACAD_LAYOUT
350
1A
  3
ACAD_MLINESTYLE
350
17
  3
ACAD_PLOTSETTINGS
350
19
  3
ACAD_TABLESTYLE
350
2A
  3
ACDBVARIABLEDICTIONARY
350
2C
1001
ACAD
1000
TREAT_AS_HARD
1070
     0
  0
DICTIONARY
  5
254
330
29
100
AcDbDictionary
  3
ACAD_XREC_ROUNDTRIP
360
255
  0
DICTIONARY
  5
D
102
{ACAD_REACTORS
330
C
102
}
330
C
100
AcDbDictionary
1001
ACAD
1000
TREAT_AS_HARD
1070
     0
  0
DICTIONARY
  5
1A
102
{ACAD_REACTORS
330
C
102
}
330
C
100
AcDbDictionary
1001
ACAD
1000
TREAT_AS_HARD
1070
     0
  0
DICTIONARY
  5
17
102
{ACAD_REACTORS
330
C
102
}
330
C
100
AcDbDictionary
  3
STANDARD
350
18
1001
ACAD
1000
TREAT_AS_HARD
1070
     0
  0
DICTIONARY
  5
19
102
{ACAD_REACTORS
330
C
102
}
330
C
100
AcDbDictionary
1001
ACAD
1000
TREAT_AS_HARD
1070
     0
  0
DICTIONARY
  5
2A
102
{ACAD_REACTORS
330
C
102
}
330
C
100
AcDbDictionary
  3
STANDARD
350
2B
1001
ACAD
1000
TREAT_AS_HARD
1070
     0
  0
DICTIONARY
  5
2C
102
{ACAD_REACTORS
330
C
102
}
330
C
100
AcDbDictionary
  3
CTABLESTYLE
350
2D
1001
ACAD
1000
TREAT_AS_HARD
1070
     0
  0
XRECORD
  5
255
102
{ACAD_REACTORS
330
254
102
}
330
254
100
AcDbXrecord
102
UCS
 74
     0
 71
     1
 10
0.0
 20
0.0
 30
0.0
 10
1.0
 20
0.0
 30
0.0
 10
0.0
 20
1.0
 30
0.0
146
0.0
 79
     0
102
VIEW
281
     0
  0
MLINESTYLE
  5
18
102
{ACAD_REACTORS
330
17
102
}
330
17
100
AcDbMlineStyle
  2
Standard
 70
     0
  3

 62
   256
 51
90.0
 52
90.0
 71
     2
 49
0.5
 62
   256
  6
BYLAYER
 49
-0.5
 62
   256
  6
BYLAYER
  0
TABLESTYLE
  5
2B
102
{ACAD_REACTORS
330
2A
102
}
330
2A
100
AcDbTableStyle
  3
Standard
 70
     0
 71
     0
 40
0.06
 41
0.06
280
     0
281
     0
  7
STANDARD
140
0.18
170
     2
 62
     0
 63
     7
283
     0
274
    -2
284
     1
 64
     0
275
    -2
285
     1
 65
     0
276
    -2
286
     1
 66
     0
277
    -2
287
     1
 67
     0
278
    -2
288
     1
 68
     0
279
    -2
289
     1
 69
     0
  7
STANDARD
140
0.25
170
     5
 62
     0
 63
     7
283
     0
274
    -2
284
     1
 64
     0
275
    -2
285
     1
 65
     0
276
    -2
286
     1
 66
     0
277
    -2
287
     1
 67
     0
278
    -2
288
     1
 68
     0
279
    -2
289
     1
 69
     0
  7
STANDARD
140
0.18
170
     5
 62
     0
 63
     7
283
     0
274
    -2
284
     1
 64
     0
275
    -2
285
     1
 65
     0
276
    -2
286
     1
 66
     0
277
    -2
287
     1
 67
     0
278
    -2
288
     1
 68
     0
279
    -2
289
     1
 69
     0
  0
DICTIONARYVAR
  5
2D
102
{ACAD_REACTORS
330
2C
102
}
330
2C
100
DictionaryVariables
280
     0
  1
Standard
  0
ENDSEC
  0
EOF
