  0
SECTION
  2
HEADER
  9
$ACADVER
  1
AC1012
  9
$DWGCODEPAGE
  3
ansi_1252
  9
$INSBASE
 10
0.0
 20
0.0
 30
0.0
  9
$EXTMIN
 10
0.0
 20
0.0
 30
0.0
  9
$EXTMAX
 10
210.0
 20
297.0
 30
0.0
  9
$LIMMIN
 10
0.0
 20
0.0
  9
$LIMMAX
 10
210.0
 20
297.0
  9
$ORTHOMODE
 70
     0
  9
$REGENMODE
 70
     1
  9
$FILLMODE
 70
     1
  9
$QTEXTMODE
 70
     0
  9
$MIRRTEXT
 70
     1
  9
$DRAGMODE
 70
     2
  9
$LTSCALE
 40
1.0
  9
$OSMODE
 70
    37
  9
$ATTMODE
 70
     1
  9
$TEXTSIZE
 40
0.2
  9
$TRACEWID
 40
0.05
  9
$TEXTSTYLE
  7
STANDARD
  9
$CLAYER
  8
0
  9
$CELTYPE
  6
BYLAYER
  9
$CECOLOR
 62
   256
  9
$CELTSCALE
 40
25.4
  9
$DELOBJ
 70
     1
  9
$DISPSILH
 70
     0
  9
$DIMSCALE
 40
1.0
  9
$DIMASZ
 40
0.18
  9
$DIMEXO
 40
0.0625
  9
$DIMDLI
 40
0.38
  9
$DIMRND
 40
0.0
  9
$DIMDLE
 40
0.0
  9
$DIMEXE
 40
0.18
  9
$DIMTP
 40
0.0
  9
$DIMTM
 40
0.0
  9
$DIMTXT
 40
0.18
  9
$DIMCEN
 40
0.09
  9
$DIMTSZ
 40
0.0
  9
$DIMTOL
 70
     0
  9
$DIMLIM
 70
     0
  9
$DIMTIH
 70
     1
  9
$DIMTOH
 70
     1
  9
$DIMSE1
 70
     0
  9
$DIMSE2
 70
     0
  9
$DIMTAD
 70
     0
  9
$DIMZIN
 70
     0
  9
$DIMBLK
  1

  9
$DIMASO
 70
     1
  9
$DIMSHO
 70
     1
  9
$DIMPOST
  1

  9
$DIMAPOST
  1

  9
$DIMALT
 70
     0
  9
$DIMALTD
 70
     2
  9
$DIMALTF
 40
25.4
  9
$DIMLFAC
 40
1.0
  9
$DIMTOFL
 70
     0
  9
$DIMTVP
 40
0.0
  9
$DIMTIX
 70
     0
  9
$DIMSOXD
 70
     0
  9
$DIMSAH
 70
     0
  9
$DIMBLK1
  1

  9
$DIMBLK2
  1

  9
$DIMSTYLE
  2
STANDARD
  9
$DIMCLRD
 70
     0
  9
$DIMCLRE
 70
     0
  9
$DIMCLRT
 70
     0
  9
$DIMTFAC
 40
1.0
  9
$DIMGAP
 40
0.09
  9
$DIMJUST
 70
     0
  9
$DIMSD1
 70
     0
  9
$DIMSD2
 70
     0
  9
$DIMTOLJ
 70
     1
  9
$DIMTZIN
 70
     0
  9
$DIMALTZ
 70
     0
  9
$DIMALTTZ
 70
     0
  9
$DIMFIT
 70
     3
  9
$DIMUPT
 70
     0
  9
$DIMUNIT
 70
     2
  9
$DIMDEC
 70
     4
  9
$DIMTDEC
 70
     4
  9
$DIMALTU
 70
     2
  9
$DIMALTTD
 70
     2
  9
$DIMTXSTY
  7
STANDARD
  9
$DIMAUNIT
 70
     0
  9
$LUNITS
 70
     2
  9
$LUPREC
 70
     4
  9
$SKETCHINC
 40
0.1
  9
$FILLETRAD
 40
0.5
  9
$AUNITS
 70
     0
  9
$AUPREC
 70
     0
  9
$MENU
  1
.
  9
$ELEVATION
 40
0.0
  9
$PELEVATION
 40
0.0
  9
$THICKNESS
 40
0.0
  9
$LIMCHECK
 70
     0
  9
$CHAMFERA
 40
0.5
  9
$CHAMFERB
 40
0.5
  9
$CHAMFERC
 40
1.0
  9
$CHAMFERD
 40
0.0
  9
$SKPOLY
 70
     0
  9
$TDCREATE
 40
2453762.545445347
  9
$TDUPDATE
 40
2453762.545445359
  9
$TDINDWG
 40
0.0000000116
  9
$TDUSRTIMER
 40
0.0000000116
  9
$USRTIMER
 70
     1
  9
$ANGBASE
 50
0.0
  9
$ANGDIR
 70
     0
  9
$PDMODE
 70
     0
  9
$PDSIZE
 40
0.0
  9
$PLINEWID
 40
0.0
  9
$COORDS
 70
     1
  9
$SPLFRAME
 70
     0
  9
$SPLINETYPE
 70
     6
  9
$SPLINESEGS
 70
     8
  9
$ATTDIA
 70
     0
  9
$ATTREQ
 70
     1
  9
$HANDLING
 70
     1
  9
$HANDSEED
  5
1D0
  9
$SURFTAB1
 70
     6
  9
$SURFTAB2
 70
     6
  9
$SURFTYPE
 70
     6
  9
$SURFU
 70
     6
  9
$SURFV
 70
     6
  9
$UCSNAME
  2

  9
$UCSORG
 10
0.0
 20
0.0
 30
0.0
  9
$UCSXDIR
 10
1.0
 20
0.0
 30
0.0
  9
$UCSYDIR
 10
0.0
 20
1.0
 30
0.0
  9
$PUCSNAME
  2

  9
$PUCSORG
 10
0.0
 20
0.0
 30
0.0
  9
$PUCSXDIR
 10
1.0
 20
0.0
 30
0.0
  9
$PUCSYDIR
 10
0.0
 20
1.0
 30
0.0
  9
$USERI1
 70
     0
  9
$USERI2
 70
     0
  9
$USERI3
 70
     0
  9
$USERI4
 70
     0
  9
$USERI5
 70
     0
  9
$USERR1
 40
0.0
  9
$USERR2
 40
0.0
  9
$USERR3
 40
0.0
  9
$USERR4
 40
0.0
  9
$USERR5
 40
0.0
  9
$WORLDVIEW
 70
     1
  9
$SHADEDGE
 70
     3
  9
$SHADEDIF
 70
    70
  9
$TILEMODE
 70
     1
  9
$MAXACTVP
 70
    64
  9
$PINSBASE
 10
0.0
 20
0.0
 30
0.0
  9
$PLIMCHECK
 70
     0
  9
$PEXTMIN
 10
0.0
 20
0.0
 30
0.0
  9
$PEXTMAX
 10
210.0
 20
297.0
 30
0.0
  9
$PLIMMIN
 10
0.0
 20
0.0
  9
$PLIMMAX
 10
12.0
 20
9.0
  9
$UNITMODE
 70
     0
  9
$VISRETAIN
 70
     1
  9
$PLINEGEN
 70
     0
  9
$PSLTSCALE
 70
     1
  9
$TREEDEPTH
 70
  3020
  9
$PICKSTYLE
 70
     1
  9
$CMLSTYLE
  2
STANDARD
  9
$CMLJUST
 70
     0
  9
$CMLSCALE
 40
1.0
  9
$SAVEIMAGES
 70
     1
  0
ENDSEC
  0
SECTION
  2
CLASSES
  0
CLASS
  1
ACDBDICTIONARYWDFLT
  2
AcDbDictionaryWithDefault
  3
ObjectDBX Classes
 90
        0
280
     0
281
     0
  0
CLASS
  1
TABLESTYLE
  2
AcDbTableStyle
  3
ObjectDBX Classes
 90
     2047
280
     0
281
     0
  0
CLASS
  1
DICTIONARYVAR
  2
AcDbDictionaryVar
  3
ObjectDBX Classes
 90
        0
280
     0
281
     0
  0
CLASS
  1
XRECORD
  2
AcDbXrecord
  3
AutoCAD 2000
 90
    32768
280
     0
281
     0
  0
CLASS
  1
LWPOLYLINE
  2
AcDbPolyline
  3
AutoCAD 2000
 90
    32768
280
     0
281
     1
  0
CLASS
  1
HATCH
  2
AcDbHatch
  3
AutoCAD 2000
 90
    32768
280
     0
281
     1
  0
CLASS
  1
ACDBPLACEHOLDER
  2
AcDbPlaceHolder
  3
ObjectDBX Classes
 90
        0
280
     0
281
     0
  0
CLASS
  1
LAYOUT
  2
AcDbLayout
  3
ObjectDBX Classes
 90
        0
280
     0
281
     0
  0
ENDSEC
  0
SECTION
  2
TABLES
  0
TABLE
  2
VPORT
  5
8
330
0
100
AcDbSymbolTable
 70
     2
  0
VPORT
  5
29
102
{ACAD_XDICTIONARY
360
1CE
102
}
330
8
100
AcDbSymbolTableRecord
100
AcDbViewportTableRecord
  2
*ACTIVE
 70
     0
 10
0.0
 20
0.0
 11
1.0
 21
1.0
 12
10.4299065421
 22
4.5
 13
0.0
 23
0.0
 14
0.5
 24
0.5
 15
0.5
 25
0.5
 16
0.0
 26
0.0
 36
1.0
 17
0.0
 27
0.0
 37
0.0
 40
9.0
 41
1.9729729729
 42
50.0
 43
0.0
 44
0.0
 50
0.0
 51
0.0
 71
     0
 72
   100
 73
     1
 74
     3
 75
     0
 76
     0
 77
     0
 78
     0
  0
ENDTAB
  0
TABLE
  2
LTYPE
  5
5
330
0
100
AcDbSymbolTable
 70
     2
  0
LTYPE
  5
14
330
5
100
AcDbSymbolTableRecord
100
AcDbLinetypeTableRecord
  2
BYBLOCK
 70
     0
  3

 72
    65
 73
     0
 40
0.0
  0
LTYPE
  5
15
330
5
100
AcDbSymbolTableRecord
100
AcDbLinetypeTableRecord
  2
BYLAYER
 70
     0
  3

 72
    65
 73
     0
 40
0.0
  0
LTYPE
  5
16
330
5
100
AcDbSymbolTableRecord
100
AcDbLinetypeTableRecord
  2
CONTINUOUS
 70
     0
  3
Solid line
 72
    65
 73
     0
 40
0.0
  0
LTYPE
  5
31
330
5
100
AcDbSymbolTableRecord
100
AcDbLinetypeTableRecord
  2
CENTER2
 70
     0
  3
___ _ ___ _ ___ _ ___ _ ___ _ ___ _ ___ _ ___ _
 72
    65
 73
     4
 40
1.125
 49
0.75
 74
     4
 75
     0
340
0
 46
0.0
 50
0.0
 44
0.0
 45
0.0
 49
-0.125
 74
     4
 75
     0
340
0
 46
0.0
 50
0.0
 44
0.0
 45
0.0
 49
0.125
 74
     4
 75
     0
340
0
 46
0.0
 50
0.0
 44
0.0
 45
0.0
 49
-0.125
 74
     4
 75
     0
340
0
 46
0.0
 50
0.0
 44
0.0
 45
0.0
  0
ENDTAB
  0
TABLE
  2
LAYER
  5
2
330
0
100
AcDbSymbolTable
 70
     5
  0
LAYER
  5
10
330
2
100
AcDbSymbolTableRecord
100
AcDbLayerTableRecord
  2
0
 70
     0
 62
     7
  6
CONTINUOUS
  0
LAYER
  5
30
330
2
100
AcDbSymbolTableRecord
100
AcDbLayerTableRecord
  2
DEFAULT
 70
     0
 62
     7
  6
CONTINUOUS
  0
LAYER
  5
73
330
2
100
AcDbSymbolTableRecord
100
AcDbLayerTableRecord
  2
MEGA_002193
 70
     0
 62
     7
  6
CONTINUOUS
  0
LAYER
  5
90
330
2
100
AcDbSymbolTableRecord
100
AcDbLayerTableRecord
  2
MEGA_002304
 70
     0
 62
     7
  6
CONTINUOUS
  0
LAYER
  5
B6
330
2
100
AcDbSymbolTableRecord
100
AcDbLayerTableRecord
  2
MEGA_002634
 70
     0
 62
     7
  6
CONTINUOUS
  0
ENDTAB
  0
TABLE
  2
STYLE
  5
3
330
0
100
AcDbSymbolTable
 70
     3
  0
STYLE
  5
11
330
3
100
AcDbSymbolTableRecord
100
AcDbTextStyleTableRecord
  2
STANDARD
 70
     0
 40
0.0
 41
1.0
 50
0.0
 71
     0
 42
0.2
  3
txt
  4

  0
STYLE
  5
136
330
3
100
AcDbSymbolTableRecord
100
AcDbTextStyleTableRecord
  2
SEACAD_SEISO_TTF
 70
     0
 40
0.2
 41
1.0
 50
0.0
 71
     0
 42
0.2
  3
seiso.ttf
  4

  0
STYLE
  5
142
330
3
100
AcDbSymbolTableRecord
100
AcDbTextStyleTableRecord
  2
SEACAD_SEMECI1_TTF
 70
     0
 40
0.2
 41
1.0
 50
0.0
 71
     0
 42
0.2
  3
semeci1.ttf
  4

  0
ENDTAB
  0
TABLE
  2
VIEW
  5
6
330
0
100
AcDbSymbolTable
 70
     0
  0
ENDTAB
  0
TABLE
  2
UCS
  5
7
330
0
100
AcDbSymbolTable
 70
     0
  0
ENDTAB
  0
TABLE
  2
APPID
  5
9
330
0
100
AcDbSymbolTable
 70
     1
  0
APPID
  5
12
330
9
100
AcDbSymbolTableRecord
100
AcDbRegAppTableRecord
  2
ACAD
 70
     0
  0
ENDTAB
  0
TABLE
  2
DIMSTYLE
  5
A
330
0
100
AcDbSymbolTable
 70
     1
  0
DIMSTYLE
105
27
330
A
100
AcDbSymbolTableRecord
100
AcDbDimStyleTableRecord
  2
STANDARD
 70
     0
  3

  4

  5

  6

  7

 40
1.0
 41
0.18
 42
0.0625
 43
0.38
 44
0.18
 45
0.0
 46
0.0
 47
0.0
 48
0.0
140
0.18
141
0.09
142
0.0
143
25.4
144
1.0
145
0.0
146
1.0
147
0.09
 71
     0
 72
     0
 73
     1
 74
     1
 75
     0
 76
     0
 77
     0
 78
     0
170
     0
171
     2
172
     0
173
     0
174
     0
175
     0
176
     0
177
     0
178
     0
270
     2
271
     4
272
     4
273
     2
274
     2
340
11
275
     0
280
     0
281
     0
282
     0
283
     1
284
     0
285
     0
286
     0
287
     3
288
     0
  0
ENDTAB
  0
TABLE
  2
BLOCK_RECORD
  5
1
330
0
100
AcDbSymbolTable
 70
    22
  0
BLOCK_RECORD
  5
1F
330
1
100
AcDbSymbolTableRecord
100
AcDbBlockTableRecord
  2
*MODEL_SPACE
  0
BLOCK_RECORD
  5
1B
330
1
100
AcDbSymbolTableRecord
100
AcDbBlockTableRecord
  2
*PAPER_SPACE
  0
BLOCK_RECORD
  5
2E
330
1
100
AcDbSymbolTableRecord
100
AcDbBlockTableRecord
  2
SE
  0
BLOCK_RECORD
  5
35
330
1
100
AcDbSymbolTableRecord
100
AcDbBlockTableRecord
  2
SE1
  0
BLOCK_RECORD
  5
3F
330
1
100
AcDbSymbolTableRecord
100
AcDbBlockTableRecord
  2
SE2
  0
BLOCK_RECORD
  5
44
330
1
100
AcDbSymbolTableRecord
100
AcDbBlockTableRecord
  2
SE3
  0
BLOCK_RECORD
  5
49
330
1
100
AcDbSymbolTableRecord
100
AcDbBlockTableRecord
  2
SE4
  0
BLOCK_RECORD
  5
4E
330
1
100
AcDbSymbolTableRecord
100
AcDbBlockTableRecord
  2
SE5
  0
BLOCK_RECORD
  5
53
330
1
100
AcDbSymbolTableRecord
100
AcDbBlockTableRecord
  2
SE6
  0
BLOCK_RECORD
  5
58
330
1
100
AcDbSymbolTableRecord
100
AcDbBlockTableRecord
  2
SE7
  0
BLOCK_RECORD
  5
5D
330
1
100
AcDbSymbolTableRecord
100
AcDbBlockTableRecord
  2
SE8
  0
BLOCK_RECORD
  5
67
330
1
100
AcDbSymbolTableRecord
100
AcDbBlockTableRecord
  2
SE9
  0
BLOCK_RECORD
  5
71
330
1
100
AcDbSymbolTableRecord
100
AcDbBlockTableRecord
  2
SE10
  0
BLOCK_RECORD
  5
C1
330
1
100
AcDbSymbolTableRecord
100
AcDbBlockTableRecord
  2
SE11
  0
BLOCK_RECORD
  5
10C
330
1
100
AcDbSymbolTableRecord
100
AcDbBlockTableRecord
  2
SE12
  0
BLOCK_RECORD
  5
130
330
1
100
AcDbSymbolTableRecord
100
AcDbBlockTableRecord
  2
SE13
  0
BLOCK_RECORD
  5
13A
330
1
100
AcDbSymbolTableRecord
100
AcDbBlockTableRecord
  2
SE14
  0
BLOCK_RECORD
  5
146
330
1
100
AcDbSymbolTableRecord
100
AcDbBlockTableRecord
  2
SE15
  0
BLOCK_RECORD
  5
151
330
1
100
AcDbSymbolTableRecord
100
AcDbBlockTableRecord
  2
SE16
  0
BLOCK_RECORD
  5
15B
330
1
100
AcDbSymbolTableRecord
100
AcDbBlockTableRecord
  2
SE17
  0
BLOCK_RECORD
  5
165
330
1
100
AcDbSymbolTableRecord
100
AcDbBlockTableRecord
  2
SE18
  0
BLOCK_RECORD
  5
16F
330
1
100
AcDbSymbolTableRecord
100
AcDbBlockTableRecord
  2
SE19
  0
BLOCK_RECORD
  5
179
330
1
100
AcDbSymbolTableRecord
100
AcDbBlockTableRecord
  2
SE20
  0
ENDTAB
  0
ENDSEC
  0
SECTION
  2
BLOCKS
  0
BLOCK
  5
20
330
1F
100
AcDbEntity
  8
0
100
AcDbBlockBegin
  2
*MODEL_SPACE
 70
     0
 71
     0
 10
0.0
 20
0.0
 30
0.0
  3
*MODEL_SPACE
  1

  0
ENDBLK
  5
21
330
1F
100
AcDbEntity
  8
0
100
AcDbBlockEnd
  0
BLOCK
  5
1C
330
1B
100
AcDbEntity
 67
     1
  8
0
100
AcDbBlockBegin
  2
*PAPER_SPACE
 70
     0
 71
     0
 10
0.0
 20
0.0
 30
0.0
  3
*PAPER_SPACE
  1

  0
ENDBLK
  5
1D
330
1B
100
AcDbEntity
 67
     1
  8
0
100
AcDbBlockEnd
  0
BLOCK
  5
33
330
2E
100
AcDbEntity
  8
0
100
AcDbBlockBegin
  2
SE
 70
     0
 71
     0
 10
0.0
 20
0.0
 30
0.0
  3
SE
  1

  0
LINE
  5
32
330
2E
100
AcDbEntity
  8
DEFAULT
  6
CENTER2
 62
     7
 48
25.4
100
AcDbLine
 10
61.9839074424
 20
68.636894825
 30
0.0
 11
61.9839074424
 21
153.4995561598
 31
0.0
  0
ENDBLK
  5
34
330
2E
100
AcDbEntity
  8
0
100
AcDbBlockEnd
  0
BLOCK
  5
3D
330
35
100
AcDbEntity
  8
0
100
AcDbBlockBegin
  2
SE1
 70
     0
 71
     0
 10
0.0
 20
0.0
 30
0.0
  3
SE1
  1

  0
LINE
  5
37
330
35
100
AcDbEntity
  8
DEFAULT
  6
CENTER2
 62
     7
 48
25.4
100
AcDbLine
 10
61.9839074424
 20
70.1897736833
 30
0.0
 11
61.9839074424
 21
58.189773579
 31
0.0
  0
LINE
  5
38
330
35
100
AcDbEntity
  8
DEFAULT
  6
CENTER2
 62
     7
 48
25.4
100
AcDbLine
 10
55.9839073903
 20
64.1897736311
 30
0.0
 11
67.9839074946
 21
64.1897736311
 31
0.0
  0
LINE
  5
39
330
35
100
AcDbEntity
  8
DEFAULT
  6
CENTER2
 62
     7
 48
25.4
100
AcDbLine
 10
61.9839074424
 20
71.6897736311
 30
0.0
 11
61.9839074424
 21
73.4397736311
 31
0.0
  0
LINE
  5
3A
330
35
100
AcDbEntity
  8
DEFAULT
  6
CENTER2
 62
     7
 48
25.4
100
AcDbLine
 10
54.4839074424
 20
64.1897736311
 30
0.0
 11
52.7339074424
 21
64.1897736311
 31
0.0
  0
LINE
  5
3B
330
35
100
AcDbEntity
  8
DEFAULT
  6
CENTER2
 62
     7
 48
25.4
100
AcDbLine
 10
61.9839074424
 20
56.6897736311
 30
0.0
 11
61.9839074424
 21
54.9397736311
 31
0.0
  0
LINE
  5
3C
330
35
100
AcDbEntity
  8
DEFAULT
  6
CENTER2
 62
     7
 48
25.4
100
AcDbLine
 10
69.4839074424
 20
64.1897736311
 30
0.0
 11
71.2339074424
 21
64.1897736311
 31
0.0
  0
ENDBLK
  5
3E
330
35
100
AcDbEntity
  8
0
100
AcDbBlockEnd
  0
BLOCK
  5
42
330
3F
100
AcDbEntity
  8
0
100
AcDbBlockBegin
  2
SE2
 70
     0
 71
     0
 10
0.0
 20
0.0
 30
0.0
  3
SE2
  1

  0
LINE
  5
41
330
3F
100
AcDbEntity
  8
DEFAULT
  6
CENTER2
 62
     7
 48
25.4
100
AcDbLine
 10
99.1210684395
 20
206.6662661856
 30
0.0
 11
24.6582430526
 21
206.6662661856
 31
0.0
  0
ENDBLK
  5
43
330
3F
100
AcDbEntity
  8
0
100
AcDbBlockEnd
  0
BLOCK
  5
47
330
44
100
AcDbEntity
  8
0
100
AcDbBlockBegin
  2
SE3
 70
     0
 71
     0
 10
0.0
 20
0.0
 30
0.0
  3
SE3
  1

  0
LINE
  5
46
330
44
100
AcDbEntity
  8
DEFAULT
  6
CENTER2
 62
     7
 48
25.4
100
AcDbLine
 10
196.2338724162
 20
64.1897736311
 30
0.0
 11
106.4407552869
 21
64.1897736311
 31
0.0
  0
ENDBLK
  5
48
330
44
100
AcDbEntity
  8
0
100
AcDbBlockEnd
  0
BLOCK
  5
4C
330
49
100
AcDbEntity
  8
0
100
AcDbBlockBegin
  2
SE4
 70
     0
 71
     0
 10
0.0
 20
0.0
 30
0.0
  3
SE4
  1

  0
LINE
  5
4B
330
49
100
AcDbEntity
  8
DEFAULT
  6
CENTER2
 62
     7
 48
25.4
100
AcDbLine
 10
151.4199203004
 20
64.3844259379
 30
0.0
 11
151.4199203004
 21
154.1235463167
 31
0.0
  0
ENDBLK
  5
4D
330
49
100
AcDbEntity
  8
0
100
AcDbBlockEnd
  0
BLOCK
  5
51
330
4E
100
AcDbEntity
  8
0
100
AcDbBlockBegin
  2
SE5
 70
     0
 71
     0
 10
0.0
 20
0.0
 30
0.0
  3
SE5
  1

  0
LINE
  5
50
330
4E
100
AcDbEntity
  8
DEFAULT
  6
CENTER2
 62
     7
 48
25.4
100
AcDbLine
 10
40.4839074424
 20
118.8349952597
 30
0.0
 11
40.4839074424
 21
105.4971105245
 31
0.0
  0
ENDBLK
  5
52
330
4E
100
AcDbEntity
  8
0
100
AcDbBlockEnd
  0
BLOCK
  5
56
330
53
100
AcDbEntity
  8
0
100
AcDbBlockBegin
  2
SE6
 70
     0
 71
     0
 10
0.0
 20
0.0
 30
0.0
  3
SE6
  1

  0
LINE
  5
55
330
53
100
AcDbEntity
  8
DEFAULT
  6
CENTER2
 62
     7
 48
25.4
100
AcDbLine
 10
83.4839074424
 20
119.4950580771
 30
0.0
 11
83.4839074424
 21
104.6321051261
 31
0.0
  0
ENDBLK
  5
57
330
53
100
AcDbEntity
  8
0
100
AcDbBlockEnd
  0
BLOCK
  5
5B
330
58
100
AcDbEntity
  8
0
100
AcDbBlockBegin
  2
SE7
 70
     0
 71
     0
 10
0.0
 20
0.0
 30
0.0
  3
SE7
  1

  0
LINE
  5
5A
330
58
100
AcDbEntity
  8
DEFAULT
  6
CENTER2
 62
     7
 48
25.4
100
AcDbLine
 10
61.9839074424
 20
250.0564065221
 30
0.0
 11
61.9839074424
 21
164.0082174184
 31
0.0
  0
ENDBLK
  5
5C
330
58
100
AcDbEntity
  8
0
100
AcDbBlockEnd
  0
BLOCK
  5
65
330
5D
100
AcDbEntity
  8
0
100
AcDbBlockBegin
  2
SE8
 70
     0
 71
     0
 10
0.0
 20
0.0
 30
0.0
  3
SE8
  1

  0
LINE
  5
5F
330
5D
100
AcDbEntity
  8
DEFAULT
  6
CENTER2
 62
     7
 48
25.4
100
AcDbLine
 10
40.4839074424
 20
212.6662662377
 30
0.0
 11
40.4839074424
 21
200.6662661334
 31
0.0
  0
LINE
  5
60
330
5D
100
AcDbEntity
  8
DEFAULT
  6
CENTER2
 62
     7
 48
25.4
100
AcDbLine
 10
34.4839073903
 20
206.6662661856
 30
0.0
 11
46.4839074946
 21
206.6662661856
 31
0.0
  0
LINE
  5
61
330
5D
100
AcDbEntity
  8
DEFAULT
  6
CENTER2
 62
     7
 48
25.4
100
AcDbLine
 10
40.4839074424
 20
214.1662661856
 30
0.0
 11
40.4839074424
 21
212.9662661856
 31
0.0
  0
LINE
  5
62
330
5D
100
AcDbEntity
  8
DEFAULT
  6
CENTER2
 62
     7
 48
25.4
100
AcDbLine
 10
32.9839074424
 20
206.6662661856
 30
0.0
 11
34.1839074424
 21
206.6662661856
 31
0.0
  0
LINE
  5
63
330
5D
100
AcDbEntity
  8
DEFAULT
  6
CENTER2
 62
     7
 48
25.4
100
AcDbLine
 10
40.4839074424
 20
199.1662661856
 30
0.0
 11
40.4839074424
 21
200.3662661856
 31
0.0
  0
LINE
  5
64
330
5D
100
AcDbEntity
  8
DEFAULT
  6
CENTER2
 62
     7
 48
25.4
100
AcDbLine
 10
47.9839074424
 20
206.6662661856
 30
0.0
 11
46.7839074424
 21
206.6662661856
 31
0.0
  0
ENDBLK
  5
66
330
5D
100
AcDbEntity
  8
0
100
AcDbBlockEnd
  0
BLOCK
  5
6F
330
67
100
AcDbEntity
  8
0
100
AcDbBlockBegin
  2
SE9
 70
     0
 71
     0
 10
0.0
 20
0.0
 30
0.0
  3
SE9
  1

  0
LINE
  5
69
330
67
100
AcDbEntity
  8
DEFAULT
  6
CENTER2
 62
     7
 48
25.4
100
AcDbLine
 10
83.4839074424
 20
212.6662662377
 30
0.0
 11
83.4839074424
 21
200.6662661334
 31
0.0
  0
LINE
  5
6A
330
67
100
AcDbEntity
  8
DEFAULT
  6
CENTER2
 62
     7
 48
25.4
100
AcDbLine
 10
77.4839073903
 20
206.6662661856
 30
0.0
 11
89.4839074946
 21
206.6662661856
 31
0.0
  0
LINE
  5
6B
330
67
100
AcDbEntity
  8
DEFAULT
  6
CENTER2
 62
     7
 48
25.4
100
AcDbLine
 10
83.4839074424
 20
214.1662661856
 30
0.0
 11
83.4839074424
 21
212.9662661856
 31
0.0
  0
LINE
  5
6C
330
67
100
AcDbEntity
  8
DEFAULT
  6
CENTER2
 62
     7
 48
25.4
100
AcDbLine
 10
75.9839074424
 20
206.6662661856
 30
0.0
 11
77.1839074424
 21
206.6662661856
 31
0.0
  0
LINE
  5
6D
330
67
100
AcDbEntity
  8
DEFAULT
  6
CENTER2
 62
     7
 48
25.4
100
AcDbLine
 10
83.4839074424
 20
199.1662661856
 30
0.0
 11
83.4839074424
 21
200.3662661856
 31
0.0
  0
LINE
  5
6E
330
67
100
AcDbEntity
  8
DEFAULT
  6
CENTER2
 62
     7
 48
25.4
100
AcDbLine
 10
90.9839074424
 20
206.6662661856
 30
0.0
 11
89.7839074424
 21
206.6662661856
 31
0.0
  0
ENDBLK
  5
70
330
67
100
AcDbEntity
  8
0
100
AcDbBlockEnd
  0
BLOCK
  5
BF
330
71
100
AcDbEntity
  8
0
100
AcDbBlockBegin
  2
SE10
 70
     0
 71
     0
 10
0.0
 20
0.0
 30
0.0
  3
SE10
  1

  0
CIRCLE
  5
74
330
71
100
AcDbEntity
  8
MEGA_002193
  6
CONTINUOUS
 62
     7
 48
25.4
100
AcDbCircle
 10
61.9839074424
 20
64.1897736311
 30
0.0
 40
7.5
  0
ARC
  5
75
330
71
100
AcDbEntity
  8
MEGA_002193
  6
CONTINUOUS
 62
     7
 48
25.4
100
AcDbCircle
 10
50.5128453288
 20
99.9700994173
 30
0.0
 40
4.0
100
AcDbArc
 50
0.4476141709
 51
68.4221225229
  0
LINE
  5
76
330
71
100
AcDbEntity
  8
MEGA_002193
  6
CONTINUOUS
 62
     7
 48
25.4
100
AcDbLine
 10
54.7339074424
 20
71.6897736311
 30
0.0
 11
54.7339074424
 21
66.482523107
 31
0.0
  0
LINE
  5
77
330
71
100
AcDbEntity
  8
MEGA_002193
  6
CONTINUOUS
 62
     7
 48
25.4
100
AcDbLine
 10
54.512723264
 20
100.0013484637
 30
0.0
 11
54.7339074424
 21
71.6897736311
 31
0.0
  0
LINE
  5
78
330
71
100
AcDbEntity
  8
MEGA_002193
  6
CONTINUOUS
 62
     7
 48
25.4
100
AcDbLine
 10
51.9839074424
 20
107.6897736311
 30
0.0
 11
51.9839074424
 21
103.6897736311
 31
0.0
  0
ARC
  5
79
330
71
100
AcDbEntity
  8
MEGA_002193
  6
CONTINUOUS
 62
     7
 48
25.4
100
AcDbCircle
 10
71.9435048054
 20
66.4282957654
 30
0.0
 40
2.707588777500007
100
AcDbArc
 50
178.8527565006
 51
191.6490852036
  0
LINE
  5
7A
330
71
100
AcDbEntity
  8
MEGA_002193
  6
CONTINUOUS
 62
     7
 48
25.4
100
AcDbLine
 10
69.4839074424
 20
115.4897736311
 30
0.0
 11
69.2839074424
 21
115.6897736311
 31
0.0
  0
LINE
  5
7B
330
71
100
AcDbEntity
  8
MEGA_002193
  6
CONTINUOUS
 62
     7
 48
25.4
100
AcDbLine
 10
54.4839074424
 20
115.4897736311
 30
0.0
 11
54.4839074424
 21
114.6897736311
 31
0.0
  0
ARC
  5
7C
330
71
100
AcDbEntity
  8
MEGA_002193
  6
CONTINUOUS
 62
     7
 48
25.4
100
AcDbCircle
 10
51.859693395
 20
66.4505572116
 30
0.0
 40
2.873265064599991
100
AcDbArc
 50
348.5802619733
 51
0.6381938027
  0
LINE
  5
7D
330
71
100
AcDbEntity
  8
MEGA_002193
  6
CONTINUOUS
 62
     7
 48
25.4
100
AcDbLine
 10
69.2339074424
 20
66.482523107
 30
0.0
 11
69.2339074424
 21
71.6897736311
 31
0.0
  0
ARC
  5
7E
330
71
100
AcDbEntity
  8
MEGA_002193
  6
CONTINUOUS
 62
     7
 48
25.4
100
AcDbCircle
 10
73.4549695561
 20
99.9700994173
 30
0.0
 40
4.0
100
AcDbArc
 50
111.5778774771
 51
179.5523858291
  0
LINE
  5
7F
330
71
100
AcDbEntity
  8
MEGA_002193
  6
CONTINUOUS
 62
     7
 48
25.4
100
AcDbLine
 10
69.2339074424
 20
71.6897736311
 30
0.0
 11
69.4550916208
 21
100.0013484637
 31
0.0
  0
LINE
  5
80
330
71
100
AcDbEntity
  8
MEGA_002193
  6
CONTINUOUS
 62
     7
 48
25.4
100
AcDbLine
 10
71.9839074424
 20
103.6897736311
 30
0.0
 11
71.9839074424
 21
107.6897736311
 31
0.0
  0
LINE
  5
81
330
71
100
AcDbEntity
  8
MEGA_002193
  6
CONTINUOUS
 62
     7
 48
25.4
100
AcDbLine
 10
54.4839074424
 20
115.4897736311
 30
0.0
 11
69.4839074424
 21
115.4897736311
 31
0.0
  0
LINE
  5
82
330
71
100
AcDbEntity
  8
MEGA_002193
  6
CONTINUOUS
 62
     7
 48
25.4
100
AcDbLine
 10
54.6839074424
 20
115.6897736311
 30
0.0
 11
54.4839074424
 21
115.4897736311
 31
0.0
  0
ARC
  5
83
330
71
100
AcDbEntity
  8
MEGA_002193
  6
CONTINUOUS
 62
     7
 48
25.4
100
AcDbCircle
 10
67.016250887
 20
64.6551004762
 30
0.0
 40
12.41532799300001
100
AcDbArc
 50
145.4856972443
 51
171.606183727
  0
LINE
  5
84
330
71
100
AcDbEntity
  8
MEGA_002193
  6
CONTINUOUS
 62
     7
 48
25.4
100
AcDbLine
 10
69.4839074424
 20
114.6897736311
 30
0.0
 11
69.4839074424
 21
115.4897736311
 31
0.0
  0
LINE
  5
85
330
71
100
AcDbEntity
  8
MEGA_002193
  6
CONTINUOUS
 62
     7
 48
25.4
100
AcDbLine
 10
69.2839074424
 20
115.6897736311
 30
0.0
 11
54.6839074424
 21
115.6897736311
 31
0.0
  0
SPLINE
  5
86
330
71
100
AcDbEntity
  8
MEGA_002193
  6
CONTINUOUS
 62
     7
 48
25.4
100
AcDbSpline
210
0.0
220
0.0
230
1.0
 70
    24
 71
     3
 72
     8
 73
     4
 74
     0
 42
0.0000000001
 43
0.0000000001
 40
0.0
 40
0.0
 40
0.0
 40
0.0
 40
1.0
 40
1.0
 40
1.0
 40
1.0
 10
67.18484424870724
 20
71.68977363109968
 30
0.0
 10
67.18658414456743
 20
71.68977363109968
 30
0.0
 10
67.18832305383695
 20
71.68977363109968
 30
0.0
 10
67.19006097603975
 20
71.68977363109968
 30
0.0
  0
SPLINE
  5
87
330
71
100
AcDbEntity
  8
MEGA_002193
  6
CONTINUOUS
 62
     7
 48
25.4
100
AcDbSpline
210
0.0
220
0.0
230
1.0
 70
    24
 71
     3
 72
     8
 73
     4
 74
     0
 42
0.0000000001
 43
0.0000000001
 40
0.0
 40
0.0
 40
0.0
 40
0.0
 40
1.0
 40
1.0
 40
1.0
 40
1.0
 10
67.19006097603975
 20
71.68977363109968
 30
0.0
 10
68.48667908767655
 20
71.68977363109968
 30
0.0
 10
69.23387015204541
 20
71.68977363109968
 30
0.0
 10
69.23390741054206
 20
71.68977363109968
 30
0.0
  0
LINE
  5
88
330
71
100
AcDbEntity
  8
MEGA_002193
  6
CONTINUOUS
 62
     7
 48
25.4
100
AcDbLine
 10
71.9839074424
 20
103.6897736311
 30
0.0
 11
51.9839074424
 21
103.6897736311
 31
0.0
  0
SPLINE
  5
89
330
71
100
AcDbEntity
  8
MEGA_002193
  6
CONTINUOUS
 62
     7
 48
25.4
100
AcDbSpline
210
0.0
220
0.0
230
1.0
 70
     8
 71
     3
 72
    17
 73
    13
 74
     0
 42
0.0000000001
 43
0.0000000001
 40
0.0
 40
0.0
 40
0.0
 40
0.0
 40
0.2500000000000001
 40
0.2500000000000001
 40
0.2500000000000001
 40
0.5
 40
0.5
 40
0.5
 40
0.75
 40
0.75
 40
0.75
 40
1.0
 40
1.0
 40
1.0
 40
1.0
 10
56.78620969555468
 20
71.68977363109968
 30
0.0
 10
57.33768724071398
 20
72.48136062731054
 30
0.0
 10
58.02595960775667
 20
73.20324615058904
 30
0.0
 10
58.90138106682663
 20
73.76739932346222
 30
0.0
 10
59.77680252589662
 20
74.33155249633543
 30
0.0
 10
60.86894690428732
 20
74.71409057689677
 30
0.0
 10
61.98805456539261
 20
74.71320878202519
 30
0.0
 10
63.10716222649793
 20
74.71232698715363
 30
0.0
 10
64.20292302176262
 20
74.32537958939773
 30
0.0
 10
65.07327832806762
 20
73.76298254346658
 30
0.0
 10
65.94363363437265
 20
73.20058549753533
 30
0.0
 10
66.63934842060395
 20
72.47108363745919
 30
0.0
 10
67.18484424870724
 20
71.68977363109968
 30
0.0
  0
LINE
  5
8A
330
71
100
AcDbEntity
  8
MEGA_002193
  6
CONTINUOUS
 62
     7
 48
25.4
100
AcDbLine
 10
54.7339081287
 20
71.6897736311
 30
0.0
 11
56.782142915
 21
71.6897736311
 31
0.0
  0
LINE
  5
8B
330
71
100
AcDbEntity
  8
MEGA_002193
  6
CONTINUOUS
 62
     7
 48
25.4
100
AcDbLine
 10
56.782142915
 20
71.6897736311
 30
0.0
 11
56.7862096955
 21
71.6897736311
 31
0.0
  0
SPLINE
  5
8C
330
71
100
AcDbEntity
  8
MEGA_002193
  6
CONTINUOUS
 62
     7
 48
25.4
100
AcDbSpline
210
0.0
220
0.0
230
1.0
 70
     8
 71
     3
 72
    11
 73
     7
 74
     0
 42
0.0000000001
 43
0.0000000001
 40
0.0
 40
0.0
 40
0.0
 40
0.0
 40
0.5
 40
0.5
 40
0.5
 40
1.0
 40
1.0
 40
1.0
 40
1.0
 10
67.18484424870724
 20
71.68977363109968
 30
0.0
 10
66.9761106821779
 20
71.25824436162765
 30
0.0
 10
66.87093289893394
 20
70.82724458324979
 30
0.0
 10
66.87986893075781
 20
70.45331231239955
 30
0.0
 10
66.88880496258162
 20
70.07938004154929
 30
0.0
 10
67.0118328802573
 20
69.76343291613097
 30
0.0
 10
67.23281403411427
 20
69.54691648824257
 30
0.0
  0
SPLINE
  5
8D
330
71
100
AcDbEntity
  8
MEGA_002193
  6
CONTINUOUS
 62
     7
 48
25.4
100
AcDbSpline
210
0.0
220
0.0
230
1.0
 70
     8
 71
     3
 72
    11
 73
     7
 74
     0
 42
0.0000000001
 43
0.0000000001
 40
0.0
 40
0.0
 40
0.0
 40
0.0
 40
0.5
 40
0.5
 40
0.5
 40
1.0
 40
1.0
 40
1.0
 40
1.0
 10
56.73500085075781
 20
69.54691648824257
 30
0.0
 10
56.9559820046148
 20
69.76343291613097
 30
0.0
 10
57.07900992229045
 20
70.07938004154929
 30
0.0
 10
57.08794595411429
 20
70.45331231239955
 30
0.0
 10
57.09688198593813
 20
70.82724458324985
 30
0.0
 10
56.99170420269417
 20
71.25824436162765
 30
0.0
 10
56.78620969555468
 20
71.68977363109968
 30
0.0
  0
LINE
  5
8E
330
71
100
AcDbEntity
  8
MEGA_002193
  6
CONTINUOUS
 62
     7
 48
25.4
100
AcDbLine
 10
69.4550916208
 20
100.0013484637
 30
0.0
 11
54.512723264
 21
100.0013484637
 31
0.0
  0
CIRCLE
  5
8F
330
71
100
AcDbEntity
  8
MEGA_002193
  6
CONTINUOUS
 62
     7
 48
25.4
100
AcDbCircle
 10
61.9839074424
 20
64.1897736311
 30
0.0
 40
6.0
  0
LINE
  5
91
330
71
100
AcDbEntity
  8
MEGA_002304
  6
CONTINUOUS
 62
     7
 48
25.4
100
AcDbLine
 10
27.4839074424
 20
114.6897736311
 30
0.0
 11
40.4839074424
 21
114.6897736311
 31
0.0
  0
LINE
  5
92
330
71
100
AcDbEntity
  8
MEGA_002304
  6
CONTINUOUS
 62
     7
 48
25.4
100
AcDbLine
 10
83.4839074424
 20
111.6897736311
 30
0.0
 11
83.4839074424
 21
110.6897736311
 31
0.0
  0
LINE
  5
93
330
71
100
AcDbEntity
  8
MEGA_002304
  6
CONTINUOUS
 62
     7
 48
25.4
100
AcDbLine
 10
66.7803558326
 20
111.5420764082
 30
0.0
 11
66.8802818407
 21
110.5790007139
 31
0.0
  0
LINE
  5
94
330
71
100
AcDbEntity
  8
MEGA_002304
  6
CONTINUOUS
 62
     7
 48
25.4
100
AcDbLine
 10
57.1874590522
 20
111.5420764082
 30
0.0
 11
57.0875330441
 21
110.5790007139
 31
0.0
  0
ARC
  5
95
330
71
100
AcDbEntity
  8
MEGA_002304
  6
CONTINUOUS
 62
     7
 48
25.4
100
AcDbCircle
 10
95.4839074424
 20
111.6897736311
 30
0.0
 40
1.0
100
AcDbArc
 50
270.0
 51
360.0
  0
LINE
  5
96
330
71
100
AcDbEntity
  8
MEGA_002304
  6
CONTINUOUS
 62
     7
 48
25.4
100
AcDbLine
 10
54.7728048915
 20
111.6897736311
 30
0.0
 11
54.7728048915
 21
110.6897736311
 31
0.0
  0
ARC
  5
97
330
71
100
AcDbEntity
  8
MEGA_002304
  6
CONTINUOUS
 62
     7
 48
25.4
100
AcDbCircle
 10
75.9839074424
 20
107.6897736311
 30
0.0
 40
3.0
100
AcDbArc
 50
90.0
 51
180.0
  0
LINE
  5
98
330
71
100
AcDbEntity
  8
MEGA_002304
  6
CONTINUOUS
 62
     7
 48
25.4
100
AcDbLine
 10
40.4839074424
 20
111.6897736311
 30
0.0
 11
40.4839074424
 21
110.6897736311
 31
0.0
  0
ARC
  5
99
330
71
100
AcDbEntity
  8
MEGA_002304
  6
CONTINUOUS
 62
     7
 48
25.4
100
AcDbCircle
 10
47.9839074424
 20
107.6897736311
 30
0.0
 40
3.0
100
AcDbArc
 50
0.0
 51
90.0
  0
ARC
  5
9A
330
71
100
AcDbEntity
  8
MEGA_002304
  6
CONTINUOUS
 62
     7
 48
25.4
100
AcDbCircle
 10
28.4839074424
 20
111.6897736311
 30
0.0
 40
1.0
100
AcDbArc
 50
180.0
 51
270.0
  0
LINE
  5
9B
330
71
100
AcDbEntity
  8
MEGA_002304
  6
CONTINUOUS
 62
     7
 48
25.4
100
AcDbLine
 10
96.4839074424
 20
111.6897736311
 30
0.0
 11
96.4839074424
 21
114.6897736311
 31
0.0
  0
ELLIPSE
  5
9C
330
71
100
AcDbEntity
  8
MEGA_002304
  6
CONTINUOUS
 62
     7
 48
25.4
100
AcDbEllipse
 10
56.7877550197
 20
107.6897736311
 30
0.0
 11
1.083690953073357E-15
 21
2.999999999999999
 31
0.0
210
0.0
220
0.0
230
1.0
 40
0.3711537445
 41
4.712388980384671
 42
6.010591088052512
  0
ELLIPSE
  5
9D
330
71
100
AcDbEntity
  8
MEGA_002304
  6
CONTINUOUS
 62
     7
 48
25.4
100
AcDbEllipse
 10
67.1800598651
 20
107.6897736311
 30
0.0
 11
1.083690953073357E-15
 21
2.999999999999999
 31
0.0
210
0.0
220
0.0
230
1.0
 40
0.3711537445
 41
0.2725942191270745
 42
1.570796326794897
  0
LINE
  5
9E
330
71
100
AcDbEntity
  8
MEGA_002304
  6
CONTINUOUS
 62
     7
 48
25.4
100
AcDbLine
 10
69.1950099933
 20
111.6897736311
 30
0.0
 11
69.1950099933
 21
110.6897736311
 31
0.0
  0
LINE
  5
9F
330
71
100
AcDbEntity
  8
MEGA_002304
  6
CONTINUOUS
 62
     7
 48
25.4
100
AcDbLine
 10
27.4839074424
 20
114.6897736311
 30
0.0
 11
27.4839074424
 21
111.6897736311
 31
0.0
  0
LINE
  5
A0
330
71
100
AcDbEntity
  8
MEGA_002304
  6
CONTINUOUS
 62
     7
 48
25.4
100
AcDbLine
 10
57.9012162531
 20
107.6897736311
 30
0.0
 11
66.0665986317
 21
107.6897736311
 31
0.0
  0
LINE
  5
A1
330
71
100
AcDbEntity
  8
MEGA_002304
  6
CONTINUOUS
 62
     7
 48
25.4
100
AcDbLine
 10
50.9839074424
 20
107.6897736311
 30
0.0
 11
57.9012162531
 21
107.6897736311
 31
0.0
  0
LINE
  5
A2
330
71
100
AcDbEntity
  8
MEGA_002304
  6
CONTINUOUS
 62
     7
 48
25.4
100
AcDbLine
 10
66.0665986317
 20
107.6897736311
 30
0.0
 11
72.9839074424
 21
107.6897736311
 31
0.0
  0
LINE
  5
A3
330
71
100
AcDbEntity
  8
MEGA_002304
  6
CONTINUOUS
 62
     7
 48
25.4
100
AcDbLine
 10
96.4839074424
 20
114.6897736311
 30
0.0
 11
83.4839074424
 21
114.6897736311
 31
0.0
  0
LINE
  5
A4
330
71
100
AcDbEntity
  8
MEGA_002304
  6
CONTINUOUS
 62
     7
 48
25.4
100
AcDbLine
 10
83.4839074424
 20
114.6897736311
 30
0.0
 11
40.4839074424
 21
114.6897736311
 31
0.0
  0
LINE
  5
A5
330
71
100
AcDbEntity
  8
MEGA_002304
  6
CONTINUOUS
 62
     7
 48
25.4
100
AcDbLine
 10
83.4839074424
 20
111.6897736311
 30
0.0
 11
83.4839074424
 21
114.6897736311
 31
0.0
  0
LINE
  5
A6
330
71
100
AcDbEntity
  8
MEGA_002304
  6
CONTINUOUS
 62
     7
 48
25.4
100
AcDbLine
 10
40.4839074424
 20
111.6897736311
 30
0.0
 11
40.4839074424
 21
114.6897736311
 31
0.0
  0
ARC
  5
A7
330
71
100
AcDbEntity
  8
MEGA_002304
  6
CONTINUOUS
 62
     7
 48
25.4
100
AcDbCircle
 10
61.9839074424
 20
55.8616167215
 30
0.0
 40
51.98871239030001
100
AcDbArc
 50
85.4959054484
 51
94.5040945516
  0
ARC
  5
A8
330
71
100
AcDbEntity
  8
MEGA_002304
  6
CONTINUOUS
 62
     7
 48
25.4
100
AcDbCircle
 10
69.4200107073
 20
81.7482769328
 30
0.0
 40
28.9423712999
100
AcDbArc
 50
90.4454272604
 51
95.0342505021
  0
LINE
  5
A9
330
71
100
AcDbEntity
  8
MEGA_002304
  6
CONTINUOUS
 62
     7
 48
25.4
100
AcDbLine
 10
40.4839074424
 20
111.6897736311
 30
0.0
 11
54.7728048915
 21
111.6897736311
 31
0.0
  0
ARC
  5
AA
330
71
100
AcDbEntity
  8
MEGA_002304
  6
CONTINUOUS
 62
     7
 48
25.4
100
AcDbCircle
 10
54.5475978361
 20
81.7439651902
 30
0.0
 40
28.94668451680002
100
AcDbArc
 50
84.9660915608
 51
89.5542306767
  0
ARC
  5
AB
330
71
100
AcDbEntity
  8
MEGA_002304
  6
CONTINUOUS
 62
     7
 48
25.4
100
AcDbCircle
 10
69.3990660165
 20
88.5416788272
 30
0.0
 40
23.14899418790003
100
AcDbArc
 50
90.5050629946
 51
96.495440426
  0
LINE
  5
AC
330
71
100
AcDbEntity
  8
MEGA_002304
  6
CONTINUOUS
 62
     7
 48
25.4
100
AcDbLine
 10
69.1950099933
 20
111.6897736311
 30
0.0
 11
83.4839074424
 21
111.6897736311
 31
0.0
  0
ARC
  5
AD
330
71
100
AcDbEntity
  8
MEGA_002304
  6
CONTINUOUS
 62
     7
 48
25.4
100
AcDbCircle
 10
54.5687488683
 20
88.5416788272
 30
0.0
 40
23.14899418790003
100
AcDbArc
 50
83.504559574
 51
89.4949370054
  0
ARC
  5
AE
330
71
100
AcDbEntity
  8
MEGA_002304
  6
CONTINUOUS
 62
     7
 48
25.4
100
AcDbCircle
 10
61.9839074424
 20
163.8965178206
 30
0.0
 40
52.57369544519998
100
AcDbArc
 50
264.765463642
 51
275.234536358
  0
ARC
  5
AF
330
71
100
AcDbEntity
  8
MEGA_002304
  6
CONTINUOUS
 62
     7
 48
25.4
100
AcDbCircle
 10
61.9839074424
 20
205.2919259292
 30
0.0
 40
94.83940470649999
100
AcDbArc
 50
267.040614425
 51
272.959385575
  0
LINE
  5
B0
330
71
100
AcDbEntity
  8
MEGA_002304
  6
CONTINUOUS
 62
     7
 48
25.4
100
AcDbLine
 10
40.4839074424
 20
111.6897736311
 30
0.0
 11
27.4839074424
 21
111.6897736311
 31
0.0
  0
LINE
  5
B1
330
71
100
AcDbEntity
  8
MEGA_002304
  6
CONTINUOUS
 62
     7
 48
25.4
100
AcDbLine
 10
28.4839074424
 20
110.6897736311
 30
0.0
 11
40.4839074424
 21
110.6897736311
 31
0.0
  0
LINE
  5
B2
330
71
100
AcDbEntity
  8
MEGA_002304
  6
CONTINUOUS
 62
     7
 48
25.4
100
AcDbLine
 10
54.7728048915
 20
110.6897736311
 30
0.0
 11
40.4839074424
 21
110.6897736311
 31
0.0
  0
LINE
  5
B3
330
71
100
AcDbEntity
  8
MEGA_002304
  6
CONTINUOUS
 62
     7
 48
25.4
100
AcDbLine
 10
95.4839074424
 20
110.6897736311
 30
0.0
 11
83.4839074424
 21
110.6897736311
 31
0.0
  0
LINE
  5
B4
330
71
100
AcDbEntity
  8
MEGA_002304
  6
CONTINUOUS
 62
     7
 48
25.4
100
AcDbLine
 10
83.4839074424
 20
110.6897736311
 30
0.0
 11
69.1950099933
 21
110.6897736311
 31
0.0
  0
LINE
  5
B5
330
71
100
AcDbEntity
  8
MEGA_002304
  6
CONTINUOUS
 62
     7
 48
25.4
100
AcDbLine
 10
96.4839074424
 20
111.6897736311
 30
0.0
 11
83.4839074424
 21
111.6897736311
 31
0.0
  0
LINE
  5
B7
330
71
100
AcDbEntity
  8
MEGA_002634
  6
CONTINUOUS
 62
     7
 48
25.4
100
AcDbLine
 10
58.4839074424
 20
148.4000261628
 30
0.0
 11
58.4839074424
 21
115.6897736311
 31
0.0
  0
LINE
  5
B8
330
71
100
AcDbEntity
  8
MEGA_002634
  6
CONTINUOUS
 62
     7
 48
25.4
100
AcDbLine
 10
65.4839074424
 20
148.4000261628
 30
0.0
 11
65.4839074424
 21
115.6897736311
 31
0.0
  0
LINE
  5
B9
330
71
100
AcDbEntity
  8
MEGA_002634
  6
CONTINUOUS
 62
     7
 48
25.4
100
AcDbLine
 10
58.8239074424
 20
150.1897736311
 30
0.0
 11
58.4839074424
 21
149.8497736311
 31
0.0
  0
LINE
  5
BA
330
71
100
AcDbEntity
  8
MEGA_002634
  6
CONTINUOUS
 62
     7
 48
25.4
100
AcDbLine
 10
65.4839074424
 20
148.4000261628
 30
0.0
 11
65.4839074424
 21
149.8497728693
 31
0.0
  0
LINE
  5
BB
330
71
100
AcDbEntity
  8
MEGA_002634
  6
CONTINUOUS
 62
     7
 48
25.4
100
AcDbLine
 10
65.1439074424
 20
150.1897736311
 30
0.0
 11
58.8239074424
 21
150.1897736311
 31
0.0
  0
SPLINE
  5
BC
330
71
100
AcDbEntity
  8
MEGA_002634
  6
CONTINUOUS
 62
     7
 48
25.4
100
AcDbSpline
210
0.0
220
0.0
230
1.0
 70
     8
 71
     3
 72
    17
 73
    13
 74
     0
 42
0.0000000001
 43
0.0000000001
 40
0.0
 40
0.0
 40
0.0
 40
0.0
 40
0.25
 40
0.25
 40
0.25
 40
0.5
 40
0.5
 40
0.5
 40
0.75
 40
0.75
 40
0.75
 40
1.0
 40
1.0
 40
1.0
 40
1.0
 10
65.48390744243606
 20
148.4000261627939
 30
0.0
 10
64.96717411201705
 20
148.7654118047985
 30
0.0
 10
64.42293353355879
 20
149.1147407466887
 30
0.0
 10
63.8419344803412
 20
149.3871653393824
 30
0.0
 10
63.26093542712361
 20
149.6595899320761
 30
0.0
 10
62.62688410830558
 20
149.8493501635141
 30
0.0
 10
61.98621670698995
 20
149.8497728692851
 30
0.0
 10
61.34554930567429
 20
149.8501955750561
 30
0.0
 10
60.71262927773208
 20
149.6619427523228
 30
0.0
 10
60.12885749394359
 20
149.3885603937945
 30
0.0
 10
59.54508571015507
 20
149.1151780352661
 30
0.0
 10
59.00423298281096
 20
148.7679518808175
 30
0.0
 10
58.48390744243606
 20
148.4000261627939
 30
0.0
  0
LINE
  5
BD
330
71
100
AcDbEntity
  8
MEGA_002634
  6
CONTINUOUS
 62
     7
 48
25.4
100
AcDbLine
 10
58.4839074424
 20
149.8497728693
 30
0.0
 11
58.4839074424
 21
148.4000261628
 31
0.0
  0
LINE
  5
BE
330
71
100
AcDbEntity
  8
MEGA_002634
  6
CONTINUOUS
 62
     7
 48
25.4
100
AcDbLine
 10
65.4839074424
 20
149.8497736311
 30
0.0
 11
65.1439074424
 21
150.1897736311
 31
0.0
  0
ENDBLK
  5
C0
330
71
100
AcDbEntity
  8
0
100
AcDbBlockEnd
  0
BLOCK
  5
10A
330
C1
100
AcDbEntity
  8
0
100
AcDbBlockBegin
  2
SE11
 70
     0
 71
     0
 10
0.0
 20
0.0
 30
0.0
  3
SE11
  1

  0
LINE
  5
C3
330
C1
100
AcDbEntity
  8
MEGA_002193
  6
CONTINUOUS
 62
     7
 48
25.4
100
AcDbLine
 10
111.4199203004
 20
70.1897736311
 30
0.0
 11
111.4199203004
 21
58.1897736311
 31
0.0
  0
LINE
  5
C4
330
C1
100
AcDbEntity
  8
MEGA_002193
  6
CONTINUOUS
 62
     7
 48
25.4
100
AcDbLine
 10
191.4199203004
 20
70.1897736311
 30
0.0
 11
191.4199203004
 21
58.1897736311
 31
0.0
  0
LINE
  5
C5
330
C1
100
AcDbEntity
  8
MEGA_002193
  6
CONTINUOUS
 62
     7
 48
25.4
100
AcDbLine
 10
112.9199203004
 20
56.6897736311
 30
0.0
 11
189.9199203004
 21
56.6897736311
 31
0.0
  0
LINE
  5
C6
330
C1
100
AcDbEntity
  8
MEGA_002193
  6
CONTINUOUS
 62
     7
 48
25.4
100
AcDbLine
 10
189.9199203004
 20
71.6897736311
 30
0.0
 11
161.6791393352
 21
71.6897736311
 31
0.0
  0
LINE
  5
C7
330
C1
100
AcDbEntity
  8
MEGA_002193
  6
CONTINUOUS
 62
     7
 48
25.4
100
AcDbLine
 10
141.1607012656
 20
71.6897736311
 30
0.0
 11
112.9199203004
 21
71.6897736311
 31
0.0
  0
ARC
  5
C8
330
C1
100
AcDbEntity
  8
MEGA_002193
  6
CONTINUOUS
 62
     7
 48
25.4
100
AcDbCircle
 10
161.6877508795
 20
74.6836342622
 30
0.0
 40
2.990126676399996
100
AcDbArc
 50
179.7123975094
 51
269.8465268769
  0
ARC
  5
C9
330
C1
100
AcDbEntity
  8
MEGA_002193
  6
CONTINUOUS
 62
     7
 48
25.4
100
AcDbCircle
 10
139.9488581868
 20
99.9700994173
 30
0.0
 40
4.0
100
AcDbArc
 50
0.4476141709
 51
68.4221225229
  0
ARC
  5
CA
330
C1
100
AcDbEntity
  8
MEGA_002193
  6
CONTINUOUS
 62
     7
 48
25.4
100
AcDbCircle
 10
189.9199203004
 20
70.1897736311
 30
0.0
 40
1.5
100
AcDbArc
 50
0.0
 51
90.0
  0
ARC
  5
CB
330
C1
100
AcDbEntity
  8
MEGA_002193
  6
CONTINUOUS
 62
     7
 48
25.4
100
AcDbCircle
 10
112.9199203004
 20
70.1897736311
 30
0.0
 40
1.5
100
AcDbArc
 50
90.0
 51
180.0
  0
LINE
  5
CC
330
C1
100
AcDbEntity
  8
MEGA_002193
  6
CONTINUOUS
 62
     7
 48
25.4
100
AcDbLine
 10
143.948736122
 20
100.0013484637
 30
0.0
 11
144.1464115199
 21
74.6988975328
 31
0.0
  0
LINE
  5
CD
330
C1
100
AcDbEntity
  8
MEGA_002193
  6
CONTINUOUS
 62
     7
 48
25.4
100
AcDbLine
 10
141.4199203004
 20
107.6897736311
 30
0.0
 11
141.4199203004
 21
103.6897736311
 31
0.0
  0
ARC
  5
CE
330
C1
100
AcDbEntity
  8
MEGA_002193
  6
CONTINUOUS
 62
     7
 48
25.4
100
AcDbCircle
 10
141.1495515249
 20
74.6890391733
 30
0.0
 40
2.996271242700004
100
AcDbArc
 50
270.2197121761
 51
0.2015744204
  0
LINE
  5
CF
330
C1
100
AcDbEntity
  8
MEGA_002193
  6
CONTINUOUS
 62
     7
 48
25.4
100
AcDbLine
 10
158.9199203004
 20
115.4897736311
 30
0.0
 11
158.7199203004
 21
115.6897736311
 31
0.0
  0
LINE
  5
D0
330
C1
100
AcDbEntity
  8
MEGA_002193
  6
CONTINUOUS
 62
     7
 48
25.4
100
AcDbLine
 10
143.9199203004
 20
115.4897736311
 30
0.0
 11
143.9199203004
 21
114.6897736311
 31
0.0
  0
ARC
  5
D1
330
C1
100
AcDbEntity
  8
MEGA_002193
  6
CONTINUOUS
 62
     7
 48
25.4
100
AcDbCircle
 10
162.8909824141
 20
99.9700994173
 30
0.0
 40
4.0
100
AcDbArc
 50
111.5778774771
 51
179.5523858291
  0
ARC
  5
D2
330
C1
100
AcDbEntity
  8
MEGA_002193
  6
CONTINUOUS
 62
     7
 48
25.4
100
AcDbCircle
 10
189.9199203004
 20
58.1897736311
 30
0.0
 40
1.5
100
AcDbArc
 50
270.0
 51
360.0
  0
ARC
  5
D3
330
C1
100
AcDbEntity
  8
MEGA_002193
  6
CONTINUOUS
 62
     7
 48
25.4
100
AcDbCircle
 10
112.9199203004
 20
58.1897736311
 30
0.0
 40
1.5
100
AcDbArc
 50
180.0
 51
270.0
  0
LINE
  5
D4
330
C1
100
AcDbEntity
  8
MEGA_002193
  6
CONTINUOUS
 62
     7
 48
25.4
100
AcDbLine
 10
158.6934290809
 20
74.6988975328
 30
0.0
 11
158.8911044788
 21
100.0013484637
 31
0.0
  0
LINE
  5
D5
330
C1
100
AcDbEntity
  8
MEGA_002193
  6
CONTINUOUS
 62
     7
 48
25.4
100
AcDbLine
 10
161.4199203004
 20
103.6897736311
 30
0.0
 11
161.4199203004
 21
107.6897736311
 31
0.0
  0
LINE
  5
D6
330
C1
100
AcDbEntity
  8
MEGA_002193
  6
CONTINUOUS
 62
     7
 48
25.4
100
AcDbLine
 10
144.1199203004
 20
115.6897736311
 30
0.0
 11
143.9199203004
 21
115.4897736311
 31
0.0
  0
LINE
  5
D7
330
C1
100
AcDbEntity
  8
MEGA_002193
  6
CONTINUOUS
 62
     7
 48
25.4
100
AcDbLine
 10
143.9199203004
 20
115.4897736311
 30
0.0
 11
158.9199203004
 21
115.4897736311
 31
0.0
  0
LINE
  5
D8
330
C1
100
AcDbEntity
  8
MEGA_002193
  6
CONTINUOUS
 62
     7
 48
25.4
100
AcDbLine
 10
144.1199203004
 20
115.6897736311
 30
0.0
 11
158.7199203004
 21
115.6897736311
 31
0.0
  0
LINE
  5
D9
330
C1
100
AcDbEntity
  8
MEGA_002193
  6
CONTINUOUS
 62
     7
 48
25.4
100
AcDbLine
 10
158.9199203004
 20
114.6897736311
 30
0.0
 11
158.9199203004
 21
115.4897736311
 31
0.0
  0
SPLINE
  5
DA
330
C1
100
AcDbEntity
  8
MEGA_002193
  6
CONTINUOUS
 62
     7
 48
25.4
100
AcDbSpline
210
0.0
220
0.0
230
1.0
 70
     8
 71
     3
 72
    29
 73
    25
 74
     0
 42
0.0000000001
 43
0.0000000001
 40
0.0
 40
0.0
 40
0.0
 40
0.0
 40
0.2499999999999988
 40
0.2499999999999988
 40
0.2499999999999988
 40
0.3749999999999982
 40
0.3749999999999982
 40
0.3749999999999982
 40
0.4374999999999983
 40
0.4374999999999983
 40
0.4374999999999983
 40
0.4999999999999985
 40
0.4999999999999985
 40
0.4999999999999985
 40
0.5624999999999986
 40
0.5624999999999986
 40
0.5624999999999986
 40
0.6249999999999987
 40
0.6249999999999987
 40
0.6249999999999987
 40
0.7499999999999991
 40
0.7499999999999991
 40
0.7499999999999991
 40
1.0
 40
1.0
 40
1.0
 40
1.0
 10
146.379679781411
 20
71.68977363109968
 30
0.0
 10
147.0338945307177
 20
70.78952633803515
 30
0.0
 10
147.7467998996086
 20
69.83505932165079
 30
0.0
 10
148.5245625570828
 20
68.87418660541283
 30
0.0
 10
148.9134438858199
 20
68.39375024729388
 30
0.0
 10
149.3197770725118
 20
67.90605832290424
 30
0.0
 10
149.764908210601
 20
67.45510257633363
 30
0.0
 10
149.9874737796456
 20
67.22962470304833
 30
0.0
 10
150.21921891166
 20
67.01230511821655
 30
0.0
 10
150.4812667832631
 20
66.82579206890155
 30
0.0
 10
150.7433146548663
 20
66.6392790195865
 30
0.0
 10
151.0522039044875
 20
66.47996182303029
 30
0.0
 10
151.3786044340419
 20
66.46813092790465
 30
0.0
 10
151.7050049635963
 20
66.45630003277891
 30
0.0
 10
152.0231993486759
 20
66.59869730392215
 30
0.0
 10
152.2924571225589
 20
66.77999287967224
 30
0.0
 10
152.5617148964418
 20
66.96128845542226
 30
0.0
 10
152.8028332851675
 20
67.18288481095463
 30
0.0
 10
153.0295375458273
 20
67.40942495609559
 30
0.0
 10
153.4829460671468
 20
67.86250524637765
 30
0.0
 10
153.8894407161592
 20
68.34936705028561
 30
0.0
 10
154.2848998239816
 20
68.83670330593988
 30
0.0
 10
155.0758180396264
 20
69.81137581724839
 30
0.0
 10
155.8012271502667
 20
70.7831698353239
 30
0.0
 10
156.4742687383705
 20
71.68977363109968
 30
0.0
  0
ARC
  5
DB
330
C1
100
AcDbEntity
  8
MEGA_002193
  6
CONTINUOUS
 62
     7
 48
25.4
100
AcDbCircle
 10
141.9481973815
 20
73.9382170918
 30
0.0
 40
4.969258924200005
100
AcDbArc
 50
297.9077292878
 51
333.0976954636
  0
LINE
  5
DC
330
C1
100
AcDbEntity
  8
MEGA_002193
  6
CONTINUOUS
 62
     7
 48
25.4
100
AcDbLine
 10
141.4199203004
 20
103.6897736311
 30
0.0
 11
161.4199203004
 21
103.6897736311
 31
0.0
  0
ARC
  5
DD
330
C1
100
AcDbEntity
  8
MEGA_002193
  6
CONTINUOUS
 62
     7
 48
25.4
100
AcDbCircle
 10
429.9429220536
 20
283.4914815569
 30
0.0
 40
353.9323040473
100
AcDbArc
 50
216.1486304797
 51
216.7571329634
  0
LINE
  5
DE
330
C1
100
AcDbEntity
  8
MEGA_002193
  6
CONTINUOUS
 62
     7
 48
25.4
100
AcDbLine
 10
112.9199203004
 20
71.6897736311
 30
0.0
 11
112.9199203004
 21
56.6897736311
 31
0.0
  0
ARC
  5
DF
330
C1
100
AcDbEntity
  8
MEGA_002193
  6
CONTINUOUS
 62
     7
 48
25.4
100
AcDbCircle
 10
313.0729321992
 20
319.2703236811
 30
0.0
 40
301.4214064153
100
AcDbArc
 50
235.2228554699
 51
235.9435390957
  0
LINE
  5
E0
330
C1
100
AcDbEntity
  8
MEGA_002193
  6
CONTINUOUS
 62
     7
 48
25.4
100
AcDbLine
 10
146.3796797814
 20
71.6897736311
 30
0.0
 11
156.4742687383
 21
71.6897736311
 31
0.0
  0
ARC
  5
E1
330
C1
100
AcDbEntity
  8
MEGA_002193
  6
CONTINUOUS
 62
     7
 48
25.4
100
AcDbCircle
 10
160.9164544679
 20
73.9333296614
 30
0.0
 40
4.976601020500027
100
AcDbArc
 50
206.7963678511
 51
241.812611096
  0
SPLINE
  5
E2
330
C1
100
AcDbEntity
  8
MEGA_002193
  6
CONTINUOUS
 62
     7
 48
25.4
100
AcDbSpline
210
0.0
220
0.0
230
1.0
 70
     8
 71
     3
 72
    23
 73
    19
 74
     0
 42
0.0000000001
 43
0.0000000001
 40
0.0
 40
0.0
 40
0.0
 40
0.0
 40
0.25
 40
0.25
 40
0.25
 40
0.375
 40
0.375
 40
0.375
 40
0.5
 40
0.5
 40
0.5
 40
0.625
 40
0.625
 40
0.625
 40
0.75
 40
0.75
 40
0.75
 40
1.0
 40
1.0
 40
1.0
 40
1.0
 10
158.5657232644129
 20
69.54691648824257
 30
0.0
 10
157.5398787468855
 20
68.84877526977317
 30
0.0
 10
156.4434342291307
 20
68.10641726147281
 30
0.0
 10
155.2704761853447
 20
67.38529669700021
 30
0.0
 10
154.6839971634517
 20
67.02473641476375
 30
0.0
 10
154.0776261885188
 20
66.66660808747982
 30
0.0
 10
153.4408469236181
 20
66.36472899262752
 30
0.0
 10
152.8040676587174
 20
66.06284989777528
 30
0.0
 10
152.114241582968
 20
65.81233803004405
 30
0.0
 10
151.4004507012797
 20
65.81669620889136
 30
0.0
 10
150.6866598195915
 20
65.82105438773861
 30
0.0
 10
150.0034046621477
 20
66.07608902273599
 30
0.0
 10
149.3727870103807
 20
66.37719764811794
 30
0.0
 10
148.7421693586136
 20
66.67830627349986
 30
0.0
 10
148.1433493460066
 20
67.03213684901921
 30
0.0
 10
147.5576233692088
 20
67.39251779765537
 30
0.0
 10
146.3861714156133
 20
68.11327969492764
 30
0.0
 10
145.2936042828355
 20
68.85310193175037
 30
0.0
 10
144.2740542074677
 20
69.54687056918013
 30
0.0
  0
ARC
  5
E3
330
C1
100
AcDbEntity
  8
MEGA_002193
  6
CONTINUOUS
 62
     7
 48
25.4
100
AcDbCircle
 10
-9.4680639705
 20
318.1640092845
 30
0.0
 40
300.0763444241
100
AcDbArc
 50
304.053731514
 51
304.7776505628
  0
LINE
  5
E4
330
C1
100
AcDbEntity
  8
MEGA_002193
  6
CONTINUOUS
 62
     7
 48
25.4
100
AcDbLine
 10
143.948736122
 20
100.0013484637
 30
0.0
 11
158.8911044788
 21
100.0013484637
 31
0.0
  0
LINE
  5
E5
330
C1
100
AcDbEntity
  8
MEGA_002193
  6
CONTINUOUS
 62
     7
 48
25.4
100
AcDbLine
 10
189.9199203004
 20
71.6897736311
 30
0.0
 11
189.9199203004
 21
56.6897736311
 31
0.0
  0
ELLIPSE
  5
E6
330
C1
100
AcDbEntity
  8
MEGA_002304
  6
CONTINUOUS
 62
     7
 48
25.4
100
AcDbEllipse
 10
163.4199203004
 20
111.5420764082
 30
0.0
 11
0.9999999999999905
 21
-6.596123031769113E-14
 31
0.0
210
0.0
220
0.0
230
0.9999999999999999
 40
0.9946603
 41
4.965069235526807
 42
6.283185307179581
  0
ELLIPSE
  5
E7
330
C1
100
AcDbEntity
  8
MEGA_002304
  6
CONTINUOUS
 62
     7
 48
25.4
100
AcDbEllipse
 10
139.4199203004
 20
111.5420764082
 30
0.0
 11
1.000000000000004
 21
1.170387696823089E-13
 31
0.0
210
0.0
220
0.0
230
0.9999999999999999
 40
0.9946603
 41
3.141592653589793
 42
4.459708725242525
  0
ARC
  5
E8
330
C1
100
AcDbEntity
  8
MEGA_002304
  6
CONTINUOUS
 62
     7
 48
25.4
100
AcDbCircle
 10
163.4199203008
 20
111.3254481463
 30
0.0
 40
0.999999999599993
100
AcDbArc
 50
299.6068934586
 51
359.9999973668
  0
ARC
  5
E9
330
C1
100
AcDbEntity
  8
MEGA_002304
  6
CONTINUOUS
 62
     7
 48
25.4
100
AcDbCircle
 10
163.4199203004
 20
111.6897736311
 30
0.0
 40
1.0
100
AcDbArc
 50
270.0
 51
360.0
  0
ARC
  5
EA
330
C1
100
AcDbEntity
  8
MEGA_002304
  6
CONTINUOUS
 62
     7
 48
25.4
100
AcDbCircle
 10
139.4199203
 20
111.3254481463
 30
0.0
 40
0.9999999995000052
100
AcDbArc
 50
180.0000026332
 51
240.3811631309
  0
ARC
  5
EB
330
C1
100
AcDbEntity
  8
MEGA_002304
  6
CONTINUOUS
 62
     7
 48
25.4
100
AcDbCircle
 10
165.4173095353
 20
107.8645733983
 30
0.0
 40
2.995861985200008
100
AcDbArc
 50
120.1184098295
 51
180.1262519283
  0
ARC
  5
EC
330
C1
100
AcDbEntity
  8
MEGA_002304
  6
CONTINUOUS
 62
     7
 48
25.4
100
AcDbCircle
 10
137.4247722975
 20
107.8670729835
 30
0.0
 40
2.992586297999992
100
AcDbArc
 50
359.8260377389
 51
59.8946553577
  0
LINE
  5
ED
330
C1
100
AcDbEntity
  8
MEGA_002304
  6
CONTINUOUS
 62
     7
 48
25.4
100
AcDbLine
 10
140.4199203004
 20
107.8574398708
 30
0.0
 11
140.4199203004
 21
107.6897736311
 31
0.0
  0
LINE
  5
EE
330
C1
100
AcDbEntity
  8
MEGA_002304
  6
CONTINUOUS
 62
     7
 48
25.4
100
AcDbLine
 10
162.4199203004
 20
107.6897736311
 30
0.0
 11
162.4199203004
 21
107.8574398708
 31
0.0
  0
ELLIPSE
  5
EF
330
C1
100
AcDbEntity
  8
MEGA_002304
  6
CONTINUOUS
 62
     7
 48
25.4
100
AcDbEllipse
 10
164.4199203004
 20
107.6897736311
 30
0.0
 11
7.083690953073358E-15
 21
2.999999999999997
 31
0.0
210
0.0
220
0.0
230
1.0
 40
0.9285714286
 41
0.272594219127145
 42
1.570796326794899
  0
ELLIPSE
  5
F0
330
C1
100
AcDbEntity
  8
MEGA_002304
  6
CONTINUOUS
 62
     7
 48
25.4
100
AcDbEllipse
 10
138.4199203004
 20
107.6897736311
 30
0.0
 11
1.371630904692664E-14
 21
-2.999999999999997
 31
0.0
210
0.0
220
0.0
230
1.0
 40
0.9285714286
 41
1.570796326794892
 42
2.868998434462646
  0
ARC
  5
F1
330
C1
100
AcDbEntity
  8
MEGA_002304
  6
CONTINUOUS
 62
     7
 48
25.4
100
AcDbCircle
 10
139.4199203004
 20
111.6897736311
 30
0.0
 40
1.0
100
AcDbArc
 50
180.0
 51
270.0
  0
LINE
  5
F2
330
C1
100
AcDbEntity
  8
MEGA_002304
  6
CONTINUOUS
 62
     7
 48
25.4
100
AcDbLine
 10
162.4199203004
 20
107.6897736311
 30
0.0
 11
161.6342060147
 21
107.6897736311
 31
0.0
  0
LINE
  5
F3
330
C1
100
AcDbEntity
  8
MEGA_002304
  6
CONTINUOUS
 62
     7
 48
25.4
100
AcDbLine
 10
141.2056345861
 20
107.6897736311
 30
0.0
 11
161.6342060147
 21
107.6897736311
 31
0.0
  0
LINE
  5
F4
330
C1
100
AcDbEntity
  8
MEGA_002304
  6
CONTINUOUS
 62
     7
 48
25.4
100
AcDbLine
 10
164.4199203004
 20
114.6897736311
 30
0.0
 11
138.4199203004
 21
114.6897736311
 31
0.0
  0
LINE
  5
F5
330
C1
100
AcDbEntity
  8
MEGA_002304
  6
CONTINUOUS
 62
     7
 48
25.4
100
AcDbLine
 10
138.4199203004
 20
111.6897736311
 30
0.0
 11
138.4199203004
 21
114.6897736311
 31
0.0
  0
LINE
  5
F6
330
C1
100
AcDbEntity
  8
MEGA_002304
  6
CONTINUOUS
 62
     7
 48
25.4
100
AcDbLine
 10
164.4199203004
 20
111.6897736311
 30
0.0
 11
164.4199203004
 21
114.6897736311
 31
0.0
  0
ARC
  5
F7
330
C1
100
AcDbEntity
  8
MEGA_002304
  6
CONTINUOUS
 62
     7
 48
25.4
100
AcDbCircle
 10
141.2146959251
 20
109.6161370933
 30
0.0
 40
1.926384773700022
100
AcDbArc
 50
245.6333928116
 51
269.7304908128
  0
ARC
  5
F8
330
C1
100
AcDbEntity
  8
MEGA_002304
  6
CONTINUOUS
 62
     7
 48
25.4
100
AcDbCircle
 10
161.6251446757
 20
109.6161370933
 30
0.0
 40
1.926384773700022
100
AcDbArc
 50
270.2695091872
 51
294.3666071884
  0
LINE
  5
F9
330
C1
100
AcDbEntity
  8
MEGA_002304
  6
CONTINUOUS
 62
     7
 48
25.4
100
AcDbLine
 10
138.4199203004
 20
111.3254481501
 30
0.0
 11
138.4199203004
 21
111.5420764082
 31
0.0
  0
ARC
  5
FA
330
C1
100
AcDbEntity
  8
MEGA_002304
  6
CONTINUOUS
 62
     7
 48
25.4
100
AcDbCircle
 10
138.6883879995
 20
111.2646086749
 30
0.0
 40
0.8378136027000097
100
AcDbArc
 50
286.0426664529
 51
305.0820372332
  0
LINE
  5
FB
330
C1
100
AcDbEntity
  8
MEGA_002304
  6
CONTINUOUS
 62
     7
 48
25.4
100
AcDbLine
 10
164.4199203004
 20
111.5420764082
 30
0.0
 11
164.4199203004
 21
111.3254481501
 31
0.0
  0
ARC
  5
FC
330
C1
100
AcDbEntity
  8
MEGA_002304
  6
CONTINUOUS
 62
     7
 48
25.4
100
AcDbCircle
 10
164.1514526013
 20
111.2646086749
 30
0.0
 40
0.8378136027000097
100
AcDbArc
 50
234.9179627668
 51
253.9573335471
  0
ARC
  5
FD
330
C1
100
AcDbEntity
  8
MEGA_002304
  6
CONTINUOUS
 62
     7
 48
25.4
100
AcDbCircle
 10
163.3920151704
 20
110.2893002733
 30
0.0
 40
0.4014444004000097
100
AcDbArc
 50
46.1904820761
 51
86.0140518598
  0
ARC
  5
FE
330
C1
100
AcDbEntity
  8
MEGA_002304
  6
CONTINUOUS
 62
     7
 48
25.4
100
AcDbCircle
 10
139.4478014903
 20
110.289354303
 30
0.0
 40
0.401388837699983
100
AcDbArc
 50
93.9830752052
 51
133.8123908588
  0
LINE
  5
FF
330
C1
100
AcDbEntity
  8
MEGA_002304
  6
CONTINUOUS
 62
     7
 48
25.4
100
AcDbLine
 10
138.4199203004
 20
111.6897736311
 30
0.0
 11
164.4199203004
 21
111.6897736311
 31
0.0
  0
LINE
  5
100
330
C1
100
AcDbEntity
  8
MEGA_002304
  6
CONTINUOUS
 62
     7
 48
25.4
100
AcDbLine
 10
163.4199203004
 20
110.6897736311
 30
0.0
 11
139.4199203004
 21
110.6897736311
 31
0.0
  0
LINE
  5
101
330
C1
100
AcDbEntity
  8
MEGA_002304
  6
CONTINUOUS
 62
     7
 48
25.4
100
AcDbLine
 10
140.4199203004
 20
107.6897736311
 30
0.0
 11
141.2056345861
 21
107.6897736311
 31
0.0
  0
LINE
  5
102
330
C1
100
AcDbEntity
  8
MEGA_002634
  6
CONTINUOUS
 62
     7
 48
25.4
100
AcDbLine
 10
154.9199203004
 20
148.4000261628
 30
0.0
 11
154.9199203004
 21
115.6897736311
 31
0.0
  0
LINE
  5
103
330
C1
100
AcDbEntity
  8
MEGA_002634
  6
CONTINUOUS
 62
     7
 48
25.4
100
AcDbLine
 10
147.9199203004
 20
148.4000261628
 30
0.0
 11
147.9199203004
 21
115.6897736311
 31
0.0
  0
LINE
  5
104
330
C1
100
AcDbEntity
  8
MEGA_002634
  6
CONTINUOUS
 62
     7
 48
25.4
100
AcDbLine
 10
148.2599203004
 20
150.1897736311
 30
0.0
 11
154.5799203004
 21
150.1897736311
 31
0.0
  0
LINE
  5
105
330
C1
100
AcDbEntity
  8
MEGA_002634
  6
CONTINUOUS
 62
     7
 48
25.4
100
AcDbLine
 10
147.9199203004
 20
149.8497728693
 30
0.0
 11
147.9199203004
 21
148.4000261628
 31
0.0
  0
LINE
  5
106
330
C1
100
AcDbEntity
  8
MEGA_002634
  6
CONTINUOUS
 62
     7
 48
25.4
100
AcDbLine
 10
154.9199203004
 20
149.8497728693
 30
0.0
 11
154.9199203004
 21
148.4000261628
 31
0.0
  0
LINE
  5
107
330
C1
100
AcDbEntity
  8
MEGA_002634
  6
CONTINUOUS
 62
     7
 48
25.4
100
AcDbLine
 10
154.9199203004
 20
149.8497736311
 30
0.0
 11
154.5799203004
 21
150.1897736311
 31
0.0
  0
SPLINE
  5
108
330
C1
100
AcDbEntity
  8
MEGA_002634
  6
CONTINUOUS
 62
     7
 48
25.4
100
AcDbSpline
210
0.0
220
0.0
230
1.0
 70
     8
 71
     3
 72
    17
 73
    13
 74
     0
 42
0.0000000001
 43
0.0000000001
 40
0.0
 40
0.0
 40
0.0
 40
0.0
 40
0.2500000000000001
 40
0.2500000000000001
 40
0.2500000000000001
 40
0.5000000000000001
 40
0.5000000000000001
 40
0.5000000000000001
 40
0.7500000000000001
 40
0.7500000000000001
 40
0.7500000000000001
 40
1.0
 40
1.0
 40
1.0
 40
1.0
 10
154.9199203004347
 20
148.4000261627939
 30
0.0
 10
154.4031869700157
 20
148.7654118047985
 30
0.0
 10
153.8589463915575
 20
149.1147407466887
 30
0.0
 10
153.2779473383398
 20
149.3871653393824
 30
0.0
 10
152.6969482851222
 20
149.6595899320761
 30
0.0
 10
152.0628969663042
 20
149.8493501635141
 30
0.0
 10
151.4222295649886
 20
149.8497728692851
 30
0.0
 10
150.7815621636729
 20
149.8501955750561
 30
0.0
 10
150.1486421357307
 20
149.6619427523229
 30
0.0
 10
149.5648703519422
 20
149.3885603937945
 30
0.0
 10
148.9810985681537
 20
149.1151780352661
 30
0.0
 10
148.4402458408096
 20
148.7679518808175
 30
0.0
 10
147.9199203004347
 20
148.4000261627939
 30
0.0
  0
LINE
  5
109
330
C1
100
AcDbEntity
  8
MEGA_002634
  6
CONTINUOUS
 62
     7
 48
25.4
100
AcDbLine
 10
148.2599203004
 20
150.1897736311
 30
0.0
 11
147.9199203004
 21
149.8497736311
 31
0.0
  0
ENDBLK
  5
10B
330
C1
100
AcDbEntity
  8
0
100
AcDbBlockEnd
  0
BLOCK
  5
12E
330
10C
100
AcDbEntity
  8
0
100
AcDbBlockBegin
  2
SE12
 70
     0
 71
     0
 10
0.0
 20
0.0
 30
0.0
  3
SE12
  1

  0
LINE
  5
10E
330
10C
100
AcDbEntity
  8
MEGA_002193
  6
CONTINUOUS
 62
     7
 48
25.4
100
AcDbLine
 10
54.4839074424
 20
245.1662661856
 30
0.0
 11
54.4839074424
 21
168.1662661856
 31
0.0
  0
ARC
  5
10F
330
10C
100
AcDbEntity
  8
MEGA_002193
  6
CONTINUOUS
 62
     7
 48
25.4
100
AcDbCircle
 10
55.9839074424
 20
168.1662661856
 30
0.0
 40
1.5
100
AcDbArc
 50
180.0
 51
270.0
  0
ARC
  5
110
330
10C
100
AcDbEntity
  8
MEGA_002193
  6
CONTINUOUS
 62
     7
 48
25.4
100
AcDbCircle
 10
55.9839074424
 20
245.1662661856
 30
0.0
 40
1.5
100
AcDbArc
 50
90.0
 51
180.0
  0
ARC
  5
111
330
10C
100
AcDbEntity
  8
MEGA_002193
  6
CONTINUOUS
 62
     7
 48
25.4
100
AcDbCircle
 10
67.9839074424
 20
168.1662661856
 30
0.0
 40
1.5
100
AcDbArc
 50
270.0
 51
360.0
  0
ARC
  5
112
330
10C
100
AcDbEntity
  8
MEGA_002193
  6
CONTINUOUS
 62
     7
 48
25.4
100
AcDbCircle
 10
67.9839074424
 20
245.1662661856
 30
0.0
 40
1.5
100
AcDbArc
 50
0.0
 51
90.0
  0
LINE
  5
113
330
10C
100
AcDbEntity
  8
MEGA_002193
  6
CONTINUOUS
 62
     7
 48
25.4
100
AcDbLine
 10
69.4839074424
 20
168.1662661856
 30
0.0
 11
69.4839074424
 21
245.1662661856
 31
0.0
  0
ARC
  5
114
330
10C
100
AcDbEntity
  8
MEGA_002193
  6
CONTINUOUS
 62
     7
 48
25.4
100
AcDbCircle
 10
61.9839074424
 20
206.6662661856
 30
0.0
 40
10.0
100
AcDbArc
 50
138.5903778907
 51
221.4096221093
  0
ARC
  5
115
330
10C
100
AcDbEntity
  8
MEGA_002193
  6
CONTINUOUS
 62
     7
 48
25.4
100
AcDbCircle
 10
61.9839074424
 20
206.6662661856
 30
0.0
 40
10.0
100
AcDbArc
 50
318.5903778907
 51
41.4096221093
  0
LINE
  5
116
330
10C
100
AcDbEntity
  8
MEGA_002193
  6
CONTINUOUS
 62
     7
 48
25.4
100
AcDbLine
 10
55.9839074424
 20
166.6662661856
 30
0.0
 11
67.9839074424
 21
166.6662661856
 31
0.0
  0
LINE
  5
117
330
10C
100
AcDbEntity
  8
MEGA_002193
  6
CONTINUOUS
 62
     7
 48
25.4
100
AcDbLine
 10
69.4839074424
 20
168.1662661856
 30
0.0
 11
54.4839074424
 21
168.1662661856
 31
0.0
  0
LINE
  5
118
330
10C
100
AcDbEntity
  8
MEGA_002193
  6
CONTINUOUS
 62
     7
 48
25.4
100
AcDbLine
 10
54.4839074424
 20
245.1662661856
 30
0.0
 11
69.4839074424
 21
245.1662661856
 31
0.0
  0
LINE
  5
119
330
10C
100
AcDbEntity
  8
MEGA_002193
  6
CONTINUOUS
 62
     7
 48
25.4
100
AcDbLine
 10
67.9839074424
 20
246.6662661856
 30
0.0
 11
55.9839074424
 21
246.6662661856
 31
0.0
  0
LINE
  5
11A
330
10C
100
AcDbEntity
  8
MEGA_002304
  6
CONTINUOUS
 62
     7
 48
25.4
100
AcDbLine
 10
54.4839074424
 20
193.6662661856
 30
0.0
 11
40.4839074424
 21
193.6662661856
 31
0.0
  0
LINE
  5
11B
330
10C
100
AcDbEntity
  8
MEGA_002304
  6
CONTINUOUS
 62
     7
 48
25.4
100
AcDbLine
 10
40.4839074424
 20
219.6662661856
 30
0.0
 11
54.4839074424
 21
219.6662661856
 31
0.0
  0
CIRCLE
  5
11C
330
10C
100
AcDbEntity
  8
MEGA_002304
  6
CONTINUOUS
 62
     7
 48
25.4
100
AcDbCircle
 10
83.4839074424
 20
206.6662661856
 30
0.0
 40
2.399999999999977
  0
ARC
  5
11D
330
10C
100
AcDbEntity
  8
MEGA_002304
  6
CONTINUOUS
 62
     7
 48
25.4
100
AcDbCircle
 10
40.4839074424
 20
206.6662661856
 30
0.0
 40
13.0
100
AcDbArc
 50
90.0
 51
270.0
  0
ARC
  5
11E
330
10C
100
AcDbEntity
  8
MEGA_002304
  6
CONTINUOUS
 62
     7
 48
25.4
100
AcDbCircle
 10
83.4839074424
 20
206.6662661856
 30
0.0
 40
13.0
100
AcDbArc
 50
270.0
 51
90.0
  0
CIRCLE
  5
11F
330
10C
100
AcDbEntity
  8
MEGA_002304
  6
CONTINUOUS
 62
     7
 48
25.4
100
AcDbCircle
 10
40.4839074424
 20
206.6662661856
 30
0.0
 40
2.399999999999977
  0
LINE
  5
120
330
10C
100
AcDbEntity
  8
MEGA_002304
  6
CONTINUOUS
 62
     7
 48
25.4
100
AcDbLine
 10
83.4839074424
 20
219.6662661856
 30
0.0
 11
83.4839074424
 21
218.6662661856
 31
0.0
  0
LINE
  5
121
330
10C
100
AcDbEntity
  8
MEGA_002304
  6
CONTINUOUS
 62
     7
 48
25.4
100
AcDbLine
 10
40.4839074424
 20
219.6662661856
 30
0.0
 11
40.4839074424
 21
218.6662661856
 31
0.0
  0
LINE
  5
122
330
10C
100
AcDbEntity
  8
MEGA_002304
  6
CONTINUOUS
 62
     7
 48
25.4
100
AcDbLine
 10
40.4839074424
 20
194.6662661856
 30
0.0
 11
40.4839074424
 21
193.6662661856
 31
0.0
  0
LINE
  5
123
330
10C
100
AcDbEntity
  8
MEGA_002304
  6
CONTINUOUS
 62
     7
 48
25.4
100
AcDbLine
 10
83.4839074424
 20
194.6662661856
 30
0.0
 11
83.4839074424
 21
193.6662661856
 31
0.0
  0
CIRCLE
  5
124
330
10C
100
AcDbEntity
  8
MEGA_002304
  6
CONTINUOUS
 62
     7
 48
25.4
100
AcDbCircle
 10
40.4839074424
 20
206.6662661856
 30
0.0
 40
4.550000000000068
  0
CIRCLE
  5
125
330
10C
100
AcDbEntity
  8
MEGA_002304
  6
CONTINUOUS
 62
     7
 48
25.4
100
AcDbCircle
 10
83.4839074424
 20
206.6662661856
 30
0.0
 40
4.550000000000068
  0
LINE
  5
126
330
10C
100
AcDbEntity
  8
MEGA_002304
  6
CONTINUOUS
 62
     7
 48
25.4
100
AcDbLine
 10
83.4839074424
 20
193.6662661856
 30
0.0
 11
69.4839074424
 21
193.6662661856
 31
0.0
  0
LINE
  5
127
330
10C
100
AcDbEntity
  8
MEGA_002304
  6
CONTINUOUS
 62
     7
 48
25.4
100
AcDbLine
 10
69.4839074424
 20
219.6662661856
 30
0.0
 11
83.4839074424
 21
219.6662661856
 31
0.0
  0
ARC
  5
128
330
10C
100
AcDbEntity
  8
MEGA_002304
  6
CONTINUOUS
 62
     7
 48
25.4
100
AcDbCircle
 10
40.4839074424
 20
206.6662661856
 30
0.0
 40
12.0
100
AcDbArc
 50
90.0
 51
270.0
  0
LINE
  5
129
330
10C
100
AcDbEntity
  8
MEGA_002304
  6
CONTINUOUS
 62
     7
 48
25.4
100
AcDbLine
 10
40.4839074424
 20
194.6662661856
 30
0.0
 11
54.4839074424
 21
194.6662661856
 31
0.0
  0
LINE
  5
12A
330
10C
100
AcDbEntity
  8
MEGA_002304
  6
CONTINUOUS
 62
     7
 48
25.4
100
AcDbLine
 10
54.4839074424
 20
218.6662661856
 30
0.0
 11
40.4839074424
 21
218.6662661856
 31
0.0
  0
LINE
  5
12B
330
10C
100
AcDbEntity
  8
MEGA_002304
  6
CONTINUOUS
 62
     7
 48
25.4
100
AcDbLine
 10
69.4839074424
 20
194.6662661856
 30
0.0
 11
83.4839074424
 21
194.6662661856
 31
0.0
  0
ARC
  5
12C
330
10C
100
AcDbEntity
  8
MEGA_002304
  6
CONTINUOUS
 62
     7
 48
25.4
100
AcDbCircle
 10
83.4839074424
 20
206.6662661856
 30
0.0
 40
12.0
100
AcDbArc
 50
270.0
 51
90.0
  0
LINE
  5
12D
330
10C
100
AcDbEntity
  8
MEGA_002304
  6
CONTINUOUS
 62
     7
 48
25.4
100
AcDbLine
 10
83.4839074424
 20
218.6662661856
 30
0.0
 11
69.4839074424
 21
218.6662661856
 31
0.0
  0
ENDBLK
  5
12F
330
10C
100
AcDbEntity
  8
0
100
AcDbBlockEnd
  0
BLOCK
  5
138
330
130
100
AcDbEntity
  8
0
100
AcDbBlockBegin
  2
SE13
 70
     0
 71
     0
 10
0.0
 20
0.0
 30
0.0
  3
SE13
  1

  0
POLYLINE
  5
132
330
130
100
AcDbEntity
  8
DEFAULT
  6
CONTINUOUS
 62
     7
 48
25.4
100
AcDb2dPolyline
 66
     1
 10
0.0
 20
0.0
 30
0.0
 70
     1
  0
VERTEX
  5
184
330
132
100
AcDbEntity
  8
DEFAULT
  6
CONTINUOUS
 62
     7
100
AcDbVertex
100
AcDb2dVertex
 10
188.4199202744
 20
45.4410163314
 30
0.0
  0
VERTEX
  5
185
330
132
100
AcDbEntity
  8
DEFAULT
  6
CONTINUOUS
 62
     7
100
AcDbVertex
100
AcDb2dVertex
 10
191.4199203004
 20
45.9410163358
 30
0.0
  0
VERTEX
  5
186
330
132
100
AcDbEntity
  8
DEFAULT
  6
CONTINUOUS
 62
     7
100
AcDbVertex
100
AcDb2dVertex
 10
188.4199202744
 20
46.4410163401
 30
0.0
  0
VERTEX
  5
187
330
132
100
AcDbEntity
  8
DEFAULT
  6
CONTINUOUS
 62
     7
100
AcDbVertex
100
AcDb2dVertex
 10
188.4199202744
 20
45.4410163314
 30
0.0
  0
SEQEND
  5
183
330
132
100
AcDbEntity
  8
DEFAULT
  6
CONTINUOUS
 62
     7
 48
25.4
  0
LINE
  5
133
330
130
100
AcDbEntity
  8
DEFAULT
  6
CONTINUOUS
 62
     7
 48
25.4
100
AcDbLine
 10
111.4199203004
 20
58.1897736311
 30
0.0
 11
111.4199203004
 21
44.4410163228
 31
0.0
  0
LINE
  5
134
330
130
100
AcDbEntity
  8
DEFAULT
  6
CONTINUOUS
 62
     7
 48
25.4
100
AcDbLine
 10
191.4199203004
 20
58.1897736311
 30
0.0
 11
191.4199203004
 21
44.4410163228
 31
0.0
  0
LINE
  5
135
330
130
100
AcDbEntity
  8
DEFAULT
  6
CONTINUOUS
 62
     7
 48
25.4
100
AcDbLine
 10
111.4199203004
 20
45.9410163358
 30
0.0
 11
191.4199185123
 21
45.9410163358
 31
0.0
  0
TEXT
  5
137
330
130
100
AcDbEntity
  8
DEFAULT
  6
CONTINUOUS
 62
     7
 48
25.4
100
AcDbText
 10
153.2608284972
 20
45.1910163358
 30
0.0
 40
3.0
  1
80
 50
180.0
  7
SEACAD_SEISO_TTF
 11
153.2608284972
 21
42.1910163358
 31
0.0
100
AcDbText
 73
     3
  0
ENDBLK
  5
139
330
130
100
AcDbEntity
  8
0
100
AcDbBlockEnd
  0
BLOCK
  5
144
330
13A
100
AcDbEntity
  8
0
100
AcDbBlockBegin
  2
SE14
 70
     0
 71
     0
 10
0.0
 20
0.0
 30
0.0
  3
SE14
  1

  0
POLYLINE
  5
13C
330
13A
100
AcDbEntity
  8
DEFAULT
  6
CONTINUOUS
 62
     7
 48
25.4
100
AcDb2dPolyline
 66
     1
 10
0.0
 20
0.0
 30
0.0
 70
     1
  0
VERTEX
  5
189
330
13C
100
AcDbEntity
  8
DEFAULT
  6
CONTINUOUS
 62
     7
100
AcDbVertex
100
AcDb2dVertex
 10
206.8114956412
 20
59.6897736572
 30
0.0
  0
VERTEX
  5
18A
330
13C
100
AcDbEntity
  8
DEFAULT
  6
CONTINUOUS
 62
     7
100
AcDbVertex
100
AcDb2dVertex
 10
206.3114956369
 20
56.6897736311
 30
0.0
  0
VERTEX
  5
18B
330
13C
100
AcDbEntity
  8
DEFAULT
  6
CONTINUOUS
 62
     7
100
AcDbVertex
100
AcDb2dVertex
 10
205.8114956325
 20
59.6897736572
 30
0.0
  0
VERTEX
  5
18C
330
13C
100
AcDbEntity
  8
DEFAULT
  6
CONTINUOUS
 62
     7
100
AcDbVertex
100
AcDb2dVertex
 10
206.8114956412
 20
59.6897736572
 30
0.0
  0
SEQEND
  5
188
330
13C
100
AcDbEntity
  8
DEFAULT
  6
CONTINUOUS
 62
     7
 48
25.4
  0
POLYLINE
  5
13D
330
13A
100
AcDbEntity
  8
DEFAULT
  6
CONTINUOUS
 62
     7
 48
25.4
100
AcDb2dPolyline
 66
     1
 10
0.0
 20
0.0
 30
0.0
 70
     1
  0
VERTEX
  5
18E
330
13D
100
AcDbEntity
  8
DEFAULT
  6
CONTINUOUS
 62
     7
100
AcDbVertex
100
AcDb2dVertex
 10
206.8114956412
 20
68.689773605
 30
0.0
  0
VERTEX
  5
18F
330
13D
100
AcDbEntity
  8
DEFAULT
  6
CONTINUOUS
 62
     7
100
AcDbVertex
100
AcDb2dVertex
 10
206.3114956369
 20
71.6897736311
 30
0.0
  0
VERTEX
  5
190
330
13D
100
AcDbEntity
  8
DEFAULT
  6
CONTINUOUS
 62
     7
100
AcDbVertex
100
AcDb2dVertex
 10
205.8114956325
 20
68.689773605
 30
0.0
  0
VERTEX
  5
191
330
13D
100
AcDbEntity
  8
DEFAULT
  6
CONTINUOUS
 62
     7
100
AcDbVertex
100
AcDb2dVertex
 10
206.8114956412
 20
68.689773605
 30
0.0
  0
SEQEND
  5
18D
330
13D
100
AcDbEntity
  8
DEFAULT
  6
CONTINUOUS
 62
     7
 48
25.4
  0
LINE
  5
13E
330
13A
100
AcDbEntity
  8
DEFAULT
  6
CONTINUOUS
 62
     7
 48
25.4
100
AcDbLine
 10
189.9199203004
 20
56.6897736311
 30
0.0
 11
207.8114956499
 21
56.6897736311
 31
0.0
  0
LINE
  5
13F
330
13A
100
AcDbEntity
  8
DEFAULT
  6
CONTINUOUS
 62
     7
 48
25.4
100
AcDbLine
 10
189.9199203004
 20
71.6897736311
 30
0.0
 11
207.8114956499
 21
71.6897736311
 31
0.0
  0
LINE
  5
140
330
13A
100
AcDbEntity
  8
DEFAULT
  6
CONTINUOUS
 62
     7
 48
25.4
100
AcDbLine
 10
206.3114956369
 20
56.6897736311
 30
0.0
 11
206.3114956369
 21
71.6897732958
 31
0.0
  0
TEXT
  5
141
330
13A
100
AcDbEntity
  8
DEFAULT
  6
CONTINUOUS
 62
     7
 48
25.4
100
AcDbText
 10
205.5614956369
 20
64.5441700494
 30
0.0
 40
3.0
  1
15
 50
90.0
  7
SEACAD_SEISO_TTF
 11
202.5614956369
 21
64.5441700494
 31
0.0
100
AcDbText
 73
     3
  0
TEXT
  5
143
330
13A
100
AcDbEntity
  8
DEFAULT
  6
CONTINUOUS
 62
     7
 48
25.4
100
AcDbText
 10
205.5614956369
 20
60.9035586957
 30
0.0
 40
3.0
  1
O
 50
90.0
  7
SEACAD_SEMECI1_TTF
 11
202.5614956369
 21
60.9035586957
 31
0.0
100
AcDbText
 73
     3
  0
ENDBLK
  5
145
330
13A
100
AcDbEntity
  8
0
100
AcDbBlockEnd
  0
BLOCK
  5
14F
330
146
100
AcDbEntity
  8
0
100
AcDbBlockBegin
  2
SE15
 70
     0
 71
     0
 10
0.0
 20
0.0
 30
0.0
  3
SE15
  1

  0
POLYLINE
  5
148
330
146
100
AcDbEntity
  8
DEFAULT
  6
CONTINUOUS
 62
     7
 48
25.4
100
AcDb2dPolyline
 66
     1
 10
0.0
 20
0.0
 30
0.0
 70
     1
  0
VERTEX
  5
193
330
148
100
AcDbEntity
  8
DEFAULT
  6
CONTINUOUS
 62
     7
100
AcDbVertex
100
AcDb2dVertex
 10
144.9199202744
 20
164.1913956873
 30
0.0
  0
VERTEX
  5
194
330
148
100
AcDbEntity
  8
DEFAULT
  6
CONTINUOUS
 62
     7
100
AcDbVertex
100
AcDb2dVertex
 10
147.9199203004
 20
163.6913956829
 30
0.0
  0
VERTEX
  5
195
330
148
100
AcDbEntity
  8
DEFAULT
  6
CONTINUOUS
 62
     7
100
AcDbVertex
100
AcDb2dVertex
 10
144.9199202744
 20
163.1913956786
 30
0.0
  0
VERTEX
  5
196
330
148
100
AcDbEntity
  8
DEFAULT
  6
CONTINUOUS
 62
     7
100
AcDbVertex
100
AcDb2dVertex
 10
144.9199202744
 20
164.1913956873
 30
0.0
  0
SEQEND
  5
192
330
148
100
AcDbEntity
  8
DEFAULT
  6
CONTINUOUS
 62
     7
 48
25.4
  0
POLYLINE
  5
149
330
146
100
AcDbEntity
  8
DEFAULT
  6
CONTINUOUS
 62
     7
 48
25.4
100
AcDb2dPolyline
 66
     1
 10
0.0
 20
0.0
 30
0.0
 70
     1
  0
VERTEX
  5
198
330
149
100
AcDbEntity
  8
DEFAULT
  6
CONTINUOUS
 62
     7
100
AcDbVertex
100
AcDb2dVertex
 10
157.9199203265
 20
164.1913956873
 30
0.0
  0
VERTEX
  5
199
330
149
100
AcDbEntity
  8
DEFAULT
  6
CONTINUOUS
 62
     7
100
AcDbVertex
100
AcDb2dVertex
 10
154.9199203004
 20
163.6913956829
 30
0.0
  0
VERTEX
  5
19A
330
149
100
AcDbEntity
  8
DEFAULT
  6
CONTINUOUS
 62
     7
100
AcDbVertex
100
AcDb2dVertex
 10
157.9199203265
 20
163.1913956786
 30
0.0
  0
VERTEX
  5
19B
330
149
100
AcDbEntity
  8
DEFAULT
  6
CONTINUOUS
 62
     7
100
AcDbVertex
100
AcDb2dVertex
 10
157.9199203265
 20
164.1913956873
 30
0.0
  0
SEQEND
  5
197
330
149
100
AcDbEntity
  8
DEFAULT
  6
CONTINUOUS
 62
     7
 48
25.4
  0
LINE
  5
14A
330
146
100
AcDbEntity
  8
DEFAULT
  6
CONTINUOUS
 62
     7
 48
25.4
100
AcDbLine
 10
147.9199203004
 20
148.4000261628
 30
0.0
 11
147.9199203004
 21
165.191395696
 31
0.0
  0
LINE
  5
14B
330
146
100
AcDbEntity
  8
DEFAULT
  6
CONTINUOUS
 62
     7
 48
25.4
100
AcDbLine
 10
154.9199203004
 20
148.4000261628
 30
0.0
 11
154.9199203004
 21
165.191395696
 31
0.0
  0
LINE
  5
14C
330
146
100
AcDbEntity
  8
DEFAULT
  6
CONTINUOUS
 62
     7
 48
25.4
100
AcDbLine
 10
135.7651241396
 20
163.6913956829
 30
0.0
 11
160.9199205686
 21
163.6913956829
 31
0.0
  0
TEXT
  5
14D
330
146
100
AcDbEntity
  8
DEFAULT
  6
CONTINUOUS
 62
     7
 48
25.4
100
AcDbText
 10
138.7242153332
 20
162.9413956829
 30
0.0
 40
3.0
  1
7
 50
180.0
  7
SEACAD_SEISO_TTF
 11
138.7242153332
 21
159.9413956829
 31
0.0
100
AcDbText
 73
     3
  0
TEXT
  5
14E
330
146
100
AcDbEntity
  8
DEFAULT
  6
CONTINUOUS
 62
     7
 48
25.4
100
AcDbText
 10
142.4303288703
 20
162.9413956829
 30
0.0
 40
3.0
  1
q
 50
180.0
  7
SEACAD_SEMECI1_TTF
 11
142.4303288703
 21
159.9413956829
 31
0.0
100
AcDbText
 73
     3
  0
ENDBLK
  5
150
330
146
100
AcDbEntity
  8
0
100
AcDbBlockEnd
  0
BLOCK
  5
159
330
151
100
AcDbEntity
  8
0
100
AcDbBlockBegin
  2
SE16
 70
     0
 71
     0
 10
0.0
 20
0.0
 30
0.0
  3
SE16
  1

  0
POLYLINE
  5
153
330
151
100
AcDbEntity
  8
DEFAULT
  6
CONTINUOUS
 62
     7
 48
25.4
100
AcDb2dPolyline
 66
     1
 10
0.0
 20
0.0
 30
0.0
 70
     1
  0
VERTEX
  5
19D
330
153
100
AcDbEntity
  8
DEFAULT
  6
CONTINUOUS
 62
     7
100
AcDbVertex
100
AcDb2dVertex
 10
13.6977722116
 20
59.6897736572
 30
0.0
  0
VERTEX
  5
19E
330
153
100
AcDbEntity
  8
DEFAULT
  6
CONTINUOUS
 62
     7
100
AcDbVertex
100
AcDb2dVertex
 10
14.1977722159
 20
56.6897736311
 30
0.0
  0
VERTEX
  5
19F
330
153
100
AcDbEntity
  8
DEFAULT
  6
CONTINUOUS
 62
     7
100
AcDbVertex
100
AcDb2dVertex
 10
14.6977722203
 20
59.6897736572
 30
0.0
  0
VERTEX
  5
1A0
330
153
100
AcDbEntity
  8
DEFAULT
  6
CONTINUOUS
 62
     7
100
AcDbVertex
100
AcDb2dVertex
 10
13.6977722116
 20
59.6897736572
 30
0.0
  0
SEQEND
  5
19C
330
153
100
AcDbEntity
  8
DEFAULT
  6
CONTINUOUS
 62
     7
 48
25.4
  0
POLYLINE
  5
154
330
151
100
AcDbEntity
  8
DEFAULT
  6
CONTINUOUS
 62
     7
 48
25.4
100
AcDb2dPolyline
 66
     1
 10
0.0
 20
0.0
 30
0.0
 70
     1
  0
VERTEX
  5
1A2
330
154
100
AcDbEntity
  8
DEFAULT
  6
CONTINUOUS
 62
     7
100
AcDbVertex
100
AcDb2dVertex
 10
13.6977722116
 20
111.689773605
 30
0.0
  0
VERTEX
  5
1A3
330
154
100
AcDbEntity
  8
DEFAULT
  6
CONTINUOUS
 62
     7
100
AcDbVertex
100
AcDb2dVertex
 10
14.1977722159
 20
114.6897736311
 30
0.0
  0
VERTEX
  5
1A4
330
154
100
AcDbEntity
  8
DEFAULT
  6
CONTINUOUS
 62
     7
100
AcDbVertex
100
AcDb2dVertex
 10
14.6977722203
 20
111.689773605
 30
0.0
  0
VERTEX
  5
1A5
330
154
100
AcDbEntity
  8
DEFAULT
  6
CONTINUOUS
 62
     7
100
AcDbVertex
100
AcDb2dVertex
 10
13.6977722116
 20
111.689773605
 30
0.0
  0
SEQEND
  5
1A1
330
154
100
AcDbEntity
  8
DEFAULT
  6
CONTINUOUS
 62
     7
 48
25.4
  0
LINE
  5
155
330
151
100
AcDbEntity
  8
DEFAULT
  6
CONTINUOUS
 62
     7
 48
25.4
100
AcDbLine
 10
61.9839074424
 20
56.6897736311
 30
0.0
 11
12.6977722029
 21
56.6897736311
 31
0.0
  0
LINE
  5
156
330
151
100
AcDbEntity
  8
DEFAULT
  6
CONTINUOUS
 62
     7
 48
25.4
100
AcDbLine
 10
27.4839074424
 20
114.6897736311
 30
0.0
 11
12.6977722029
 21
114.6897736311
 31
0.0
  0
LINE
  5
157
330
151
100
AcDbEntity
  8
DEFAULT
  6
CONTINUOUS
 62
     7
 48
25.4
100
AcDbLine
 10
14.1977722159
 20
56.6897736311
 30
0.0
 11
14.1977722159
 21
114.6897719622
 31
0.0
  0
TEXT
  5
158
330
151
100
AcDbEntity
  8
DEFAULT
  6
CONTINUOUS
 62
     7
 48
25.4
100
AcDbText
 10
13.4477722159
 20
83.8829546148
 30
0.0
 40
3.0
  1
58
 50
90.0
  7
SEACAD_SEISO_TTF
 11
10.4477722159
 21
83.8829546148
 31
0.0
100
AcDbText
 73
     3
  0
ENDBLK
  5
15A
330
151
100
AcDbEntity
  8
0
100
AcDbBlockEnd
  0
BLOCK
  5
163
330
15B
100
AcDbEntity
  8
0
100
AcDbBlockBegin
  2
SE17
 70
     0
 71
     0
 10
0.0
 20
0.0
 30
0.0
  3
SE17
  1

  0
POLYLINE
  5
15D
330
15B
100
AcDbEntity
  8
DEFAULT
  6
CONTINUOUS
 62
     7
 48
25.4
100
AcDb2dPolyline
 66
     1
 10
0.0
 20
0.0
 30
0.0
 70
     1
  0
VERTEX
  5
1A7
330
15D
100
AcDbEntity
  8
DEFAULT
  6
CONTINUOUS
 62
     7
100
AcDbVertex
100
AcDb2dVertex
 10
13.6977713473
 20
117.6897736572
 30
0.0
  0
VERTEX
  5
1A8
330
15D
100
AcDbEntity
  8
DEFAULT
  6
CONTINUOUS
 62
     7
100
AcDbVertex
100
AcDb2dVertex
 10
14.1977713517
 20
114.6897736311
 30
0.0
  0
VERTEX
  5
1A9
330
15D
100
AcDbEntity
  8
DEFAULT
  6
CONTINUOUS
 62
     7
100
AcDbVertex
100
AcDb2dVertex
 10
14.697771356
 20
117.6897736572
 30
0.0
  0
VERTEX
  5
1AA
330
15D
100
AcDbEntity
  8
DEFAULT
  6
CONTINUOUS
 62
     7
100
AcDbVertex
100
AcDb2dVertex
 10
13.6977713473
 20
117.6897736572
 30
0.0
  0
SEQEND
  5
1A6
330
15D
100
AcDbEntity
  8
DEFAULT
  6
CONTINUOUS
 62
     7
 48
25.4
  0
POLYLINE
  5
15E
330
15B
100
AcDbEntity
  8
DEFAULT
  6
CONTINUOUS
 62
     7
 48
25.4
100
AcDb2dPolyline
 66
     1
 10
0.0
 20
0.0
 30
0.0
 70
     1
  0
VERTEX
  5
1AC
330
15E
100
AcDbEntity
  8
DEFAULT
  6
CONTINUOUS
 62
     7
100
AcDbVertex
100
AcDb2dVertex
 10
13.6977713473
 20
147.189773605
 30
0.0
  0
VERTEX
  5
1AD
330
15E
100
AcDbEntity
  8
DEFAULT
  6
CONTINUOUS
 62
     7
100
AcDbVertex
100
AcDb2dVertex
 10
14.1977713517
 20
150.1897736311
 30
0.0
  0
VERTEX
  5
1AE
330
15E
100
AcDbEntity
  8
DEFAULT
  6
CONTINUOUS
 62
     7
100
AcDbVertex
100
AcDb2dVertex
 10
14.697771356
 20
147.189773605
 30
0.0
  0
VERTEX
  5
1AF
330
15E
100
AcDbEntity
  8
DEFAULT
  6
CONTINUOUS
 62
     7
100
AcDbVertex
100
AcDb2dVertex
 10
13.6977713473
 20
147.189773605
 30
0.0
  0
SEQEND
  5
1AB
330
15E
100
AcDbEntity
  8
DEFAULT
  6
CONTINUOUS
 62
     7
 48
25.4
  0
LINE
  5
15F
330
15B
100
AcDbEntity
  8
DEFAULT
  6
CONTINUOUS
 62
     7
 48
25.4
100
AcDbLine
 10
27.4839074424
 20
114.6897736311
 30
0.0
 11
12.6977713386
 21
114.6897736311
 31
0.0
  0
LINE
  5
160
330
15B
100
AcDbEntity
  8
DEFAULT
  6
CONTINUOUS
 62
     7
 48
25.4
100
AcDbLine
 10
58.8239074424
 20
150.1897736311
 30
0.0
 11
12.6977713386
 21
150.1897736311
 31
0.0
  0
LINE
  5
161
330
15B
100
AcDbEntity
  8
DEFAULT
  6
CONTINUOUS
 62
     7
 48
25.4
100
AcDbLine
 10
14.1977713517
 20
114.6897736311
 30
0.0
 11
14.1977713517
 21
150.1897747934
 31
0.0
  0
TEXT
  5
162
330
15B
100
AcDbEntity
  8
DEFAULT
  6
CONTINUOUS
 62
     7
 48
25.4
100
AcDbText
 10
13.4477713517
 20
129.6784105759
 30
0.0
 40
3.0
  1
35,5
 50
90.0
  7
SEACAD_SEISO_TTF
 11
10.4477713517
 21
129.6784105759
 31
0.0
100
AcDbText
 73
     3
  0
ENDBLK
  5
164
330
15B
100
AcDbEntity
  8
0
100
AcDbBlockEnd
  0
BLOCK
  5
16D
330
165
100
AcDbEntity
  8
0
100
AcDbBlockBegin
  2
SE18
 70
     0
 71
     0
 10
0.0
 20
0.0
 30
0.0
  3
SE18
  1

  0
POLYLINE
  5
167
330
165
100
AcDbEntity
  8
DEFAULT
  6
CONTINUOUS
 62
     7
 48
25.4
100
AcDb2dPolyline
 66
     1
 10
0.0
 20
0.0
 30
0.0
 70
     1
  0
VERTEX
  5
1B1
330
167
100
AcDbEntity
  8
DEFAULT
  6
CONTINUOUS
 62
     7
100
AcDbVertex
100
AcDb2dVertex
 10
30.4839074685
 20
264.0576926339
 30
0.0
  0
VERTEX
  5
1B2
330
167
100
AcDbEntity
  8
DEFAULT
  6
CONTINUOUS
 62
     7
100
AcDbVertex
100
AcDb2dVertex
 10
27.4839074424
 20
263.5576926296
 30
0.0
  0
VERTEX
  5
1B3
330
167
100
AcDbEntity
  8
DEFAULT
  6
CONTINUOUS
 62
     7
100
AcDbVertex
100
AcDb2dVertex
 10
30.4839074685
 20
263.0576926253
 30
0.0
  0
VERTEX
  5
1B4
330
167
100
AcDbEntity
  8
DEFAULT
  6
CONTINUOUS
 62
     7
100
AcDbVertex
100
AcDb2dVertex
 10
30.4839074685
 20
264.0576926339
 30
0.0
  0
SEQEND
  5
1B0
330
167
100
AcDbEntity
  8
DEFAULT
  6
CONTINUOUS
 62
     7
 48
25.4
  0
POLYLINE
  5
168
330
165
100
AcDbEntity
  8
DEFAULT
  6
CONTINUOUS
 62
     7
 48
25.4
100
AcDb2dPolyline
 66
     1
 10
0.0
 20
0.0
 30
0.0
 70
     1
  0
VERTEX
  5
1B6
330
168
100
AcDbEntity
  8
DEFAULT
  6
CONTINUOUS
 62
     7
100
AcDbVertex
100
AcDb2dVertex
 10
93.4839074164
 20
264.0576926339
 30
0.0
  0
VERTEX
  5
1B7
330
168
100
AcDbEntity
  8
DEFAULT
  6
CONTINUOUS
 62
     7
100
AcDbVertex
100
AcDb2dVertex
 10
96.4839074424
 20
263.5576926296
 30
0.0
  0
VERTEX
  5
1B8
330
168
100
AcDbEntity
  8
DEFAULT
  6
CONTINUOUS
 62
     7
100
AcDbVertex
100
AcDb2dVertex
 10
93.4839074164
 20
263.0576926253
 30
0.0
  0
VERTEX
  5
1B9
330
168
100
AcDbEntity
  8
DEFAULT
  6
CONTINUOUS
 62
     7
100
AcDbVertex
100
AcDb2dVertex
 10
93.4839074164
 20
264.0576926339
 30
0.0
  0
SEQEND
  5
1B5
330
168
100
AcDbEntity
  8
DEFAULT
  6
CONTINUOUS
 62
     7
 48
25.4
  0
LINE
  5
169
330
165
100
AcDbEntity
  8
DEFAULT
  6
CONTINUOUS
 62
     7
 48
25.4
100
AcDbLine
 10
27.4839074424
 20
206.6662661856
 30
0.0
 11
27.4839074424
 21
265.0576926427
 31
0.0
  0
LINE
  5
16A
330
165
100
AcDbEntity
  8
DEFAULT
  6
CONTINUOUS
 62
     7
 48
25.4
100
AcDbLine
 10
96.4839074424
 20
206.6662661856
 30
0.0
 11
96.4839074424
 21
265.0576926427
 31
0.0
  0
LINE
  5
16B
330
165
100
AcDbEntity
  8
DEFAULT
  6
CONTINUOUS
 62
     7
 48
25.4
100
AcDbLine
 10
27.4839074424
 20
263.5576926296
 30
0.0
 11
96.4839057139
 21
263.5576926296
 31
0.0
  0
TEXT
  5
16C
330
165
100
AcDbEntity
  8
DEFAULT
  6
CONTINUOUS
 62
     7
 48
25.4
100
AcDbText
 10
63.824815669
 20
262.8076926296
 30
0.0
 40
3.0
  1
69
 50
180.0
  7
SEACAD_SEISO_TTF
 11
63.824815669
 21
259.8076926296
 31
0.0
100
AcDbText
 73
     3
  0
ENDBLK
  5
16E
330
165
100
AcDbEntity
  8
0
100
AcDbBlockEnd
  0
BLOCK
  5
177
330
16F
100
AcDbEntity
  8
0
100
AcDbBlockBegin
  2
SE19
 70
     0
 71
     0
 10
0.0
 20
0.0
 30
0.0
  3
SE19
  1

  0
POLYLINE
  5
171
330
16F
100
AcDbEntity
  8
DEFAULT
  6
CONTINUOUS
 62
     7
 48
25.4
100
AcDb2dPolyline
 66
     1
 10
0.0
 20
0.0
 30
0.0
 70
     1
  0
VERTEX
  5
1BB
330
171
100
AcDbEntity
  8
DEFAULT
  6
CONTINUOUS
 62
     7
100
AcDbVertex
100
AcDb2dVertex
 10
43.4839074685
 20
256.316952901
 30
0.0
  0
VERTEX
  5
1BC
330
171
100
AcDbEntity
  8
DEFAULT
  6
CONTINUOUS
 62
     7
100
AcDbVertex
100
AcDb2dVertex
 10
40.4839074424
 20
255.8169528966
 30
0.0
  0
VERTEX
  5
1BD
330
171
100
AcDbEntity
  8
DEFAULT
  6
CONTINUOUS
 62
     7
100
AcDbVertex
100
AcDb2dVertex
 10
43.4839074685
 20
255.3169528923
 30
0.0
  0
VERTEX
  5
1BE
330
171
100
AcDbEntity
  8
DEFAULT
  6
CONTINUOUS
 62
     7
100
AcDbVertex
100
AcDb2dVertex
 10
43.4839074685
 20
256.316952901
 30
0.0
  0
SEQEND
  5
1BA
330
171
100
AcDbEntity
  8
DEFAULT
  6
CONTINUOUS
 62
     7
 48
25.4
  0
POLYLINE
  5
172
330
16F
100
AcDbEntity
  8
DEFAULT
  6
CONTINUOUS
 62
     7
 48
25.4
100
AcDb2dPolyline
 66
     1
 10
0.0
 20
0.0
 30
0.0
 70
     1
  0
VERTEX
  5
1C0
330
172
100
AcDbEntity
  8
DEFAULT
  6
CONTINUOUS
 62
     7
100
AcDbVertex
100
AcDb2dVertex
 10
80.4839074164
 20
256.316952901
 30
0.0
  0
VERTEX
  5
1C1
330
172
100
AcDbEntity
  8
DEFAULT
  6
CONTINUOUS
 62
     7
100
AcDbVertex
100
AcDb2dVertex
 10
83.4839074424
 20
255.8169528966
 30
0.0
  0
VERTEX
  5
1C2
330
172
100
AcDbEntity
  8
DEFAULT
  6
CONTINUOUS
 62
     7
100
AcDbVertex
100
AcDb2dVertex
 10
80.4839074164
 20
255.3169528923
 30
0.0
  0
VERTEX
  5
1C3
330
172
100
AcDbEntity
  8
DEFAULT
  6
CONTINUOUS
 62
     7
100
AcDbVertex
100
AcDb2dVertex
 10
80.4839074164
 20
256.316952901
 30
0.0
  0
SEQEND
  5
1BF
330
172
100
AcDbEntity
  8
DEFAULT
  6
CONTINUOUS
 62
     7
 48
25.4
  0
LINE
  5
173
330
16F
100
AcDbEntity
  8
DEFAULT
  6
CONTINUOUS
 62
     7
 48
25.4
100
AcDbLine
 10
40.4839074424
 20
206.6662661856
 30
0.0
 11
40.4839074424
 21
257.3169529097
 31
0.0
  0
LINE
  5
174
330
16F
100
AcDbEntity
  8
DEFAULT
  6
CONTINUOUS
 62
     7
 48
25.4
100
AcDbLine
 10
83.4839074424
 20
206.6662661856
 30
0.0
 11
83.4839074424
 21
257.3169529097
 31
0.0
  0
LINE
  5
175
330
16F
100
AcDbEntity
  8
DEFAULT
  6
CONTINUOUS
 62
     7
 48
25.4
100
AcDbLine
 10
40.4839074424
 20
255.8169528966
 30
0.0
 11
83.4839089027
 21
255.8169528966
 31
0.0
  0
TEXT
  5
176
330
16F
100
AcDbEntity
  8
DEFAULT
  6
CONTINUOUS
 62
     7
 48
25.4
100
AcDbText
 10
63.654362718
 20
255.0669528966
 30
0.0
 40
3.0
  1
43
 50
180.0
  7
SEACAD_SEISO_TTF
 11
63.654362718
 21
252.0669528966
 31
0.0
100
AcDbText
 73
     3
  0
ENDBLK
  5
178
330
16F
100
AcDbEntity
  8
0
100
AcDbBlockEnd
  0
BLOCK
  5
181
330
179
100
AcDbEntity
  8
0
100
AcDbBlockBegin
  2
SE20
 70
     0
 71
     0
 10
0.0
 20
0.0
 30
0.0
  3
SE20
  1

  0
POLYLINE
  5
17B
330
179
100
AcDbEntity
  8
DEFAULT
  6
CONTINUOUS
 62
     7
 48
25.4
100
AcDb2dPolyline
 66
     1
 10
0.0
 20
0.0
 30
0.0
 70
     1
  0
VERTEX
  5
1C5
330
17B
100
AcDbEntity
  8
DEFAULT
  6
CONTINUOUS
 62
     7
100
AcDbVertex
100
AcDb2dVertex
 10
14.234397284
 20
196.6662662116
 30
0.0
  0
VERTEX
  5
1C6
330
17B
100
AcDbEntity
  8
DEFAULT
  6
CONTINUOUS
 62
     7
100
AcDbVertex
100
AcDb2dVertex
 10
14.7343972883
 20
193.6662661855
 30
0.0
  0
VERTEX
  5
1C7
330
17B
100
AcDbEntity
  8
DEFAULT
  6
CONTINUOUS
 62
     7
100
AcDbVertex
100
AcDb2dVertex
 10
15.2343972927
 20
196.6662662116
 30
0.0
  0
VERTEX
  5
1C8
330
17B
100
AcDbEntity
  8
DEFAULT
  6
CONTINUOUS
 62
     7
100
AcDbVertex
100
AcDb2dVertex
 10
14.234397284
 20
196.6662662116
 30
0.0
  0
SEQEND
  5
1C4
330
17B
100
AcDbEntity
  8
DEFAULT
  6
CONTINUOUS
 62
     7
 48
25.4
  0
POLYLINE
  5
17C
330
179
100
AcDbEntity
  8
DEFAULT
  6
CONTINUOUS
 62
     7
 48
25.4
100
AcDb2dPolyline
 66
     1
 10
0.0
 20
0.0
 30
0.0
 70
     1
  0
VERTEX
  5
1CA
330
17C
100
AcDbEntity
  8
DEFAULT
  6
CONTINUOUS
 62
     7
100
AcDbVertex
100
AcDb2dVertex
 10
14.234397284
 20
216.6662661595
 30
0.0
  0
VERTEX
  5
1CB
330
17C
100
AcDbEntity
  8
DEFAULT
  6
CONTINUOUS
 62
     7
100
AcDbVertex
100
AcDb2dVertex
 10
14.7343972883
 20
219.6662661855
 30
0.0
  0
VERTEX
  5
1CC
330
17C
100
AcDbEntity
  8
DEFAULT
  6
CONTINUOUS
 62
     7
100
AcDbVertex
100
AcDb2dVertex
 10
15.2343972927
 20
216.6662661595
 30
0.0
  0
VERTEX
  5
1CD
330
17C
100
AcDbEntity
  8
DEFAULT
  6
CONTINUOUS
 62
     7
100
AcDbVertex
100
AcDb2dVertex
 10
14.234397284
 20
216.6662661595
 30
0.0
  0
SEQEND
  5
1C9
330
17C
100
AcDbEntity
  8
DEFAULT
  6
CONTINUOUS
 62
     7
 48
25.4
  0
LINE
  5
17D
330
179
100
AcDbEntity
  8
DEFAULT
  6
CONTINUOUS
 62
     7
 48
25.4
100
AcDbLine
 10
40.4839074424
 20
193.6662661856
 30
0.0
 11
13.2343972752
 21
193.6662661856
 31
0.0
  0
LINE
  5
17E
330
179
100
AcDbEntity
  8
DEFAULT
  6
CONTINUOUS
 62
     7
 48
25.4
100
AcDbLine
 10
40.4839074424
 20
219.6662661856
 30
0.0
 11
13.2343972752
 21
219.6662661856
 31
0.0
  0
LINE
  5
17F
330
179
100
AcDbEntity
  8
DEFAULT
  6
CONTINUOUS
 62
     7
 48
25.4
100
AcDbLine
 10
14.7343972883
 20
193.6662661856
 30
0.0
 11
14.7343972883
 21
219.666266722
 31
0.0
  0
TEXT
  5
180
330
179
100
AcDbEntity
  8
DEFAULT
  6
CONTINUOUS
 62
     7
 48
25.4
100
AcDbText
 10
13.9843972883
 20
204.8253573629
 30
0.0
 40
3.0
  1
26
 50
90.0
  7
SEACAD_SEISO_TTF
 11
10.9843972883
 21
204.8253573629
 31
0.0
100
AcDbText
 73
     3
  0
ENDBLK
  5
182
330
179
100
AcDbEntity
  8
0
100
AcDbBlockEnd
  0
ENDSEC
  0
SECTION
  2
ENTITIES
  0
INSERT
  5
2F
330
1F
100
AcDbEntity
  8
0
100
AcDbBlockReference
  2
SE
 10
0.0
 20
0.0
 30
0.0
  0
INSERT
  5
36
330
1F
100
AcDbEntity
  8
0
100
AcDbBlockReference
  2
SE1
 10
0.0
 20
0.0
 30
0.0
  0
INSERT
  5
40
330
1F
100
AcDbEntity
  8
0
100
AcDbBlockReference
  2
SE2
 10
0.0
 20
0.0
 30
0.0
  0
INSERT
  5
45
330
1F
100
AcDbEntity
  8
0
100
AcDbBlockReference
  2
SE3
 10
0.0
 20
0.0
 30
0.0
  0
INSERT
  5
4A
330
1F
100
AcDbEntity
  8
0
100
AcDbBlockReference
  2
SE4
 10
0.0
 20
0.0
 30
0.0
  0
INSERT
  5
4F
330
1F
100
AcDbEntity
  8
0
100
AcDbBlockReference
  2
SE5
 10
0.0
 20
0.0
 30
0.0
  0
INSERT
  5
54
330
1F
100
AcDbEntity
  8
0
100
AcDbBlockReference
  2
SE6
 10
0.0
 20
0.0
 30
0.0
  0
INSERT
  5
59
330
1F
100
AcDbEntity
  8
0
100
AcDbBlockReference
  2
SE7
 10
0.0
 20
0.0
 30
0.0
  0
INSERT
  5
5E
330
1F
100
AcDbEntity
  8
0
100
AcDbBlockReference
  2
SE8
 10
0.0
 20
0.0
 30
0.0
  0
INSERT
  5
68
330
1F
100
AcDbEntity
  8
0
100
AcDbBlockReference
  2
SE9
 10
0.0
 20
0.0
 30
0.0
  0
INSERT
  5
72
330
1F
100
AcDbEntity
  8
0
100
AcDbBlockReference
  2
SE10
 10
0.0
 20
0.0
 30
0.0
  0
INSERT
  5
C2
330
1F
100
AcDbEntity
  8
0
100
AcDbBlockReference
  2
SE11
 10
0.0
 20
0.0
 30
0.0
  0
INSERT
  5
10D
330
1F
100
AcDbEntity
  8
0
100
AcDbBlockReference
  2
SE12
 10
0.0
 20
0.0
 30
0.0
  0
INSERT
  5
131
330
1F
100
AcDbEntity
  8
0
100
AcDbBlockReference
  2
SE13
 10
0.0
 20
0.0
 30
0.0
  0
INSERT
  5
13B
330
1F
100
AcDbEntity
  8
0
100
AcDbBlockReference
  2
SE14
 10
0.0
 20
0.0
 30
0.0
  0
INSERT
  5
147
330
1F
100
AcDbEntity
  8
0
100
AcDbBlockReference
  2
SE15
 10
0.0
 20
0.0
 30
0.0
  0
INSERT
  5
152
330
1F
100
AcDbEntity
  8
0
100
AcDbBlockReference
  2
SE16
 10
0.0
 20
0.0
 30
0.0
  0
INSERT
  5
15C
330
1F
100
AcDbEntity
  8
0
100
AcDbBlockReference
  2
SE17
 10
0.0
 20
0.0
 30
0.0
  0
INSERT
  5
166
330
1F
100
AcDbEntity
  8
0
100
AcDbBlockReference
  2
SE18
 10
0.0
 20
0.0
 30
0.0
  0
INSERT
  5
170
330
1F
100
AcDbEntity
  8
0
100
AcDbBlockReference
  2
SE19
 10
0.0
 20
0.0
 30
0.0
  0
INSERT
  5
17A
330
1F
100
AcDbEntity
  8
0
100
AcDbBlockReference
  2
SE20
 10
0.0
 20
0.0
 30
0.0
  0
ENDSEC
  0
SECTION
  2
OBJECTS
  0
DICTIONARY
  5
C
330
0
100
AcDbDictionary
  3
ACAD_GROUP
350
D
  3
ACAD_LAYOUT
350
1A
  3
ACAD_MLINESTYLE
350
17
  3
ACAD_PLOTSETTINGS
350
19
  3
ACAD_TABLESTYLE
350
2A
  3
ACDBVARIABLEDICTIONARY
350
2C
1001
ACAD
1000
TREAT_AS_HARD
1070
     0
  0
DICTIONARY
  5
1CE
330
29
100
AcDbDictionary
  3
ACAD_XREC_ROUNDTRIP
360
1CF
  0
DICTIONARY
  5
D
102
{ACAD_REACTORS
330
C
102
}
330
C
100
AcDbDictionary
1001
ACAD
1000
TREAT_AS_HARD
1070
     0
  0
DICTIONARY
  5
1A
102
{ACAD_REACTORS
330
C
102
}
330
C
100
AcDbDictionary
1001
ACAD
1000
TREAT_AS_HARD
1070
     0
  0
DICTIONARY
  5
17
102
{ACAD_REACTORS
330
C
102
}
330
C
100
AcDbDictionary
  3
STANDARD
350
18
1001
ACAD
1000
TREAT_AS_HARD
1070
     0
  0
DICTIONARY
  5
19
102
{ACAD_REACTORS
330
C
102
}
330
C
100
AcDbDictionary
1001
ACAD
1000
TREAT_AS_HARD
1070
     0
  0
DICTIONARY
  5
2A
102
{ACAD_REACTORS
330
C
102
}
330
C
100
AcDbDictionary
  3
STANDARD
350
2B
1001
ACAD
1000
TREAT_AS_HARD
1070
     0
  0
DICTIONARY
  5
2C
102
{ACAD_REACTORS
330
C
102
}
330
C
100
AcDbDictionary
  3
CTABLESTYLE
350
2D
1001
ACAD
1000
TREAT_AS_HARD
1070
     0
  0
XRECORD
  5
1CF
102
{ACAD_REACTORS
330
1CE
102
}
330
1CE
100
AcDbXrecord
102
UCS
 74
     0
 71
     1
 10
0.0
 20
0.0
 30
0.0
 10
1.0
 20
0.0
 30
0.0
 10
0.0
 20
1.0
 30
0.0
146
0.0
 79
     0
102
VIEW
281
     0
  0
MLINESTYLE
  5
18
102
{ACAD_REACTORS
330
17
102
}
330
17
100
AcDbMlineStyle
  2
Standard
 70
     0
  3

 62
   256
 51
90.0
 52
90.0
 71
     2
 49
0.5
 62
   256
  6
BYLAYER
 49
-0.5
 62
   256
  6
BYLAYER
  0
TABLESTYLE
  5
2B
102
{ACAD_REACTORS
330
2A
102
}
330
2A
100
AcDbTableStyle
  3
Standard
 70
     0
 71
     0
 40
0.06
 41
0.06
280
     0
281
     0
  7
STANDARD
140
0.18
170
     2
 62
     0
 63
     7
283
     0
274
    -2
284
     1
 64
     0
275
    -2
285
     1
 65
     0
276
    -2
286
     1
 66
     0
277
    -2
287
     1
 67
     0
278
    -2
288
     1
 68
     0
279
    -2
289
     1
 69
     0
  7
STANDARD
140
0.25
170
     5
 62
     0
 63
     7
283
     0
274
    -2
284
     1
 64
     0
275
    -2
285
     1
 65
     0
276
    -2
286
     1
 66
     0
277
    -2
287
     1
 67
     0
278
    -2
288
     1
 68
     0
279
    -2
289
     1
 69
     0
  7
STANDARD
140
0.18
170
     5
 62
     0
 63
     7
283
     0
274
    -2
284
     1
 64
     0
275
    -2
285
     1
 65
     0
276
    -2
286
     1
 66
     0
277
    -2
287
     1
 67
     0
278
    -2
288
     1
 68
     0
279
    -2
289
     1
 69
     0
  0
DICTIONARYVAR
  5
2D
102
{ACAD_REACTORS
330
2C
102
}
330
2C
100
DictionaryVariables
280
     0
  1
Standard
  0
ENDSEC
  0
EOF
