  0
SECTION
  2
HEADER
  9
$ACADVER
  1
AC1012
  9
$DWGCODEPAGE
  3
ansi_1252
  9
$INSBASE
 10
0.0
 20
0.0
 30
0.0
  9
$EXTMIN
 10
0.0
 20
0.0
 30
0.0
  9
$EXTMAX
 10
210.0
 20
297.0
 30
0.0
  9
$LIMMIN
 10
0.0
 20
0.0
  9
$LIMMAX
 10
210.0
 20
297.0
  9
$ORTHOMODE
 70
     0
  9
$REGENMODE
 70
     1
  9
$FILLMODE
 70
     1
  9
$QTEXTMODE
 70
     0
  9
$MIRRTEXT
 70
     1
  9
$DRAGMODE
 70
     2
  9
$LTSCALE
 40
1.0
  9
$OSMODE
 70
    37
  9
$ATTMODE
 70
     1
  9
$TEXTSIZE
 40
0.2
  9
$TRACEWID
 40
0.05
  9
$TEXTSTYLE
  7
STANDARD
  9
$CLAYER
  8
0
  9
$CELTYPE
  6
BYLAYER
  9
$CECOLOR
 62
   256
  9
$CELTSCALE
 40
25.4
  9
$DELOBJ
 70
     1
  9
$DISPSILH
 70
     0
  9
$DIMSCALE
 40
1.0
  9
$DIMASZ
 40
0.18
  9
$DIMEXO
 40
0.0625
  9
$DIMDLI
 40
0.38
  9
$DIMRND
 40
0.0
  9
$DIMDLE
 40
0.0
  9
$DIMEXE
 40
0.18
  9
$DIMTP
 40
0.0
  9
$DIMTM
 40
0.0
  9
$DIMTXT
 40
0.18
  9
$DIMCEN
 40
0.09
  9
$DIMTSZ
 40
0.0
  9
$DIMTOL
 70
     0
  9
$DIMLIM
 70
     0
  9
$DIMTIH
 70
     1
  9
$DIMTOH
 70
     1
  9
$DIMSE1
 70
     0
  9
$DIMSE2
 70
     0
  9
$DIMTAD
 70
     0
  9
$DIMZIN
 70
     0
  9
$DIMBLK
  1

  9
$DIMASO
 70
     1
  9
$DIMSHO
 70
     1
  9
$DIMPOST
  1

  9
$DIMAPOST
  1

  9
$DIMALT
 70
     0
  9
$DIMALTD
 70
     2
  9
$DIMALTF
 40
25.4
  9
$DIMLFAC
 40
1.0
  9
$DIMTOFL
 70
     0
  9
$DIMTVP
 40
0.0
  9
$DIMTIX
 70
     0
  9
$DIMSOXD
 70
     0
  9
$DIMSAH
 70
     0
  9
$DIMBLK1
  1

  9
$DIMBLK2
  1

  9
$DIMSTYLE
  2
STANDARD
  9
$DIMCLRD
 70
     0
  9
$DIMCLRE
 70
     0
  9
$DIMCLRT
 70
     0
  9
$DIMTFAC
 40
1.0
  9
$DIMGAP
 40
0.09
  9
$DIMJUST
 70
     0
  9
$DIMSD1
 70
     0
  9
$DIMSD2
 70
     0
  9
$DIMTOLJ
 70
     1
  9
$DIMTZIN
 70
     0
  9
$DIMALTZ
 70
     0
  9
$DIMALTTZ
 70
     0
  9
$DIMFIT
 70
     3
  9
$DIMUPT
 70
     0
  9
$DIMUNIT
 70
     2
  9
$DIMDEC
 70
     4
  9
$DIMTDEC
 70
     4
  9
$DIMALTU
 70
     2
  9
$DIMALTTD
 70
     2
  9
$DIMTXSTY
  7
STANDARD
  9
$DIMAUNIT
 70
     0
  9
$LUNITS
 70
     2
  9
$LUPREC
 70
     4
  9
$SKETCHINC
 40
0.1
  9
$FILLETRAD
 40
0.5
  9
$AUNITS
 70
     0
  9
$AUPREC
 70
     0
  9
$MENU
  1
.
  9
$ELEVATION
 40
0.0
  9
$PELEVATION
 40
0.0
  9
$THICKNESS
 40
0.0
  9
$LIMCHECK
 70
     0
  9
$CHAMFERA
 40
0.5
  9
$CHAMFERB
 40
0.5
  9
$CHAMFERC
 40
1.0
  9
$CHAMFERD
 40
0.0
  9
$SKPOLY
 70
     0
  9
$TDCREATE
 40
2453762.545315857
  9
$TDUPDATE
 40
2453762.545315868
  9
$TDINDWG
 40
0.0000000116
  9
$TDUSRTIMER
 40
0.0000000116
  9
$USRTIMER
 70
     1
  9
$ANGBASE
 50
0.0
  9
$ANGDIR
 70
     0
  9
$PDMODE
 70
     0
  9
$PDSIZE
 40
0.0
  9
$PLINEWID
 40
0.0
  9
$COORDS
 70
     1
  9
$SPLFRAME
 70
     0
  9
$SPLINETYPE
 70
     6
  9
$SPLINESEGS
 70
     8
  9
$ATTDIA
 70
     0
  9
$ATTREQ
 70
     1
  9
$HANDLING
 70
     1
  9
$HANDSEED
  5
28F
  9
$SURFTAB1
 70
     6
  9
$SURFTAB2
 70
     6
  9
$SURFTYPE
 70
     6
  9
$SURFU
 70
     6
  9
$SURFV
 70
     6
  9
$UCSNAME
  2

  9
$UCSORG
 10
0.0
 20
0.0
 30
0.0
  9
$UCSXDIR
 10
1.0
 20
0.0
 30
0.0
  9
$UCSYDIR
 10
0.0
 20
1.0
 30
0.0
  9
$PUCSNAME
  2

  9
$PUCSORG
 10
0.0
 20
0.0
 30
0.0
  9
$PUCSXDIR
 10
1.0
 20
0.0
 30
0.0
  9
$PUCSYDIR
 10
0.0
 20
1.0
 30
0.0
  9
$USERI1
 70
     0
  9
$USERI2
 70
     0
  9
$USERI3
 70
     0
  9
$USERI4
 70
     0
  9
$USERI5
 70
     0
  9
$USERR1
 40
0.0
  9
$USERR2
 40
0.0
  9
$USERR3
 40
0.0
  9
$USERR4
 40
0.0
  9
$USERR5
 40
0.0
  9
$WORLDVIEW
 70
     1
  9
$SHADEDGE
 70
     3
  9
$SHADEDIF
 70
    70
  9
$TILEMODE
 70
     1
  9
$MAXACTVP
 70
    64
  9
$PINSBASE
 10
0.0
 20
0.0
 30
0.0
  9
$PLIMCHECK
 70
     0
  9
$PEXTMIN
 10
0.0
 20
0.0
 30
0.0
  9
$PEXTMAX
 10
210.0
 20
297.0
 30
0.0
  9
$PLIMMIN
 10
0.0
 20
0.0
  9
$PLIMMAX
 10
12.0
 20
9.0
  9
$UNITMODE
 70
     0
  9
$VISRETAIN
 70
     1
  9
$PLINEGEN
 70
     0
  9
$PSLTSCALE
 70
     1
  9
$TREEDEPTH
 70
  3020
  9
$PICKSTYLE
 70
     1
  9
$CMLSTYLE
  2
STANDARD
  9
$CMLJUST
 70
     0
  9
$CMLSCALE
 40
1.0
  9
$SAVEIMAGES
 70
     1
  0
ENDSEC
  0
SECTION
  2
CLASSES
  0
CLASS
  1
ACDBDICTIONARYWDFLT
  2
AcDbDictionaryWithDefault
  3
ObjectDBX Classes
 90
        0
280
     0
281
     0
  0
CLASS
  1
TABLESTYLE
  2
AcDbTableStyle
  3
ObjectDBX Classes
 90
     2047
280
     0
281
     0
  0
CLASS
  1
DICTIONARYVAR
  2
AcDbDictionaryVar
  3
ObjectDBX Classes
 90
        0
280
     0
281
     0
  0
CLASS
  1
XRECORD
  2
AcDbXrecord
  3
AutoCAD 2000
 90
    32768
280
     0
281
     0
  0
CLASS
  1
LWPOLYLINE
  2
AcDbPolyline
  3
AutoCAD 2000
 90
    32768
280
     0
281
     1
  0
CLASS
  1
HATCH
  2
AcDbHatch
  3
AutoCAD 2000
 90
    32768
280
     0
281
     1
  0
CLASS
  1
ACDBPLACEHOLDER
  2
AcDbPlaceHolder
  3
ObjectDBX Classes
 90
        0
280
     0
281
     0
  0
CLASS
  1
LAYOUT
  2
AcDbLayout
  3
ObjectDBX Classes
 90
        0
280
     0
281
     0
  0
ENDSEC
  0
SECTION
  2
TABLES
  0
TABLE
  2
VPORT
  5
8
330
0
100
AcDbSymbolTable
 70
     2
  0
VPORT
  5
29
102
{ACAD_XDICTIONARY
360
28D
102
}
330
8
100
AcDbSymbolTableRecord
100
AcDbViewportTableRecord
  2
*ACTIVE
 70
     0
 10
0.0
 20
0.0
 11
1.0
 21
1.0
 12
10.4299065421
 22
4.5
 13
0.0
 23
0.0
 14
0.5
 24
0.5
 15
0.5
 25
0.5
 16
0.0
 26
0.0
 36
1.0
 17
0.0
 27
0.0
 37
0.0
 40
9.0
 41
1.9729729729
 42
50.0
 43
0.0
 44
0.0
 50
0.0
 51
0.0
 71
     0
 72
   100
 73
     1
 74
     3
 75
     0
 76
     0
 77
     0
 78
     0
  0
ENDTAB
  0
TABLE
  2
LTYPE
  5
5
330
0
100
AcDbSymbolTable
 70
     2
  0
LTYPE
  5
14
330
5
100
AcDbSymbolTableRecord
100
AcDbLinetypeTableRecord
  2
BYBLOCK
 70
     0
  3

 72
    65
 73
     0
 40
0.0
  0
LTYPE
  5
15
330
5
100
AcDbSymbolTableRecord
100
AcDbLinetypeTableRecord
  2
BYLAYER
 70
     0
  3

 72
    65
 73
     0
 40
0.0
  0
LTYPE
  5
16
330
5
100
AcDbSymbolTableRecord
100
AcDbLinetypeTableRecord
  2
CONTINUOUS
 70
     0
  3
Solid line
 72
    65
 73
     0
 40
0.0
  0
LTYPE
  5
31
330
5
100
AcDbSymbolTableRecord
100
AcDbLinetypeTableRecord
  2
CENTER2
 70
     0
  3
___ _ ___ _ ___ _ ___ _ ___ _ ___ _ ___ _ ___ _
 72
    65
 73
     4
 40
1.125
 49
0.75
 74
     4
 75
     0
340
0
 46
0.0
 50
0.0
 44
0.0
 45
0.0
 49
-0.125
 74
     4
 75
     0
340
0
 46
0.0
 50
0.0
 44
0.0
 45
0.0
 49
0.125
 74
     4
 75
     0
340
0
 46
0.0
 50
0.0
 44
0.0
 45
0.0
 49
-0.125
 74
     4
 75
     0
340
0
 46
0.0
 50
0.0
 44
0.0
 45
0.0
  0
ENDTAB
  0
TABLE
  2
LAYER
  5
2
330
0
100
AcDbSymbolTable
 70
     6
  0
LAYER
  5
10
330
2
100
AcDbSymbolTableRecord
100
AcDbLayerTableRecord
  2
0
 70
     0
 62
     7
  6
CONTINUOUS
  0
LAYER
  5
30
330
2
100
AcDbSymbolTableRecord
100
AcDbLayerTableRecord
  2
DEFAULT
 70
     0
 62
     7
  6
CONTINUOUS
  0
LAYER
  5
46
330
2
100
AcDbSymbolTableRecord
100
AcDbLayerTableRecord
  2
MEGA_002151
 70
     0
 62
     7
  6
CONTINUOUS
  0
LAYER
  5
AF
330
2
100
AcDbSymbolTableRecord
100
AcDbLayerTableRecord
  2
MEGA_002304
 70
     0
 62
     7
  6
CONTINUOUS
  0
LAYER
  5
D5
330
2
100
AcDbSymbolTableRecord
100
AcDbLayerTableRecord
  2
MEGA_002634
 70
     0
 62
     7
  6
CONTINUOUS
  0
LAYER
  5
183
330
2
100
AcDbSymbolTableRecord
100
AcDbLayerTableRecord
  2
STANDARD
 70
     0
 62
     7
  6
CONTINUOUS
  0
ENDTAB
  0
TABLE
  2
STYLE
  5
3
330
0
100
AcDbSymbolTable
 70
     3
  0
STYLE
  5
11
330
3
100
AcDbSymbolTableRecord
100
AcDbTextStyleTableRecord
  2
STANDARD
 70
     0
 40
0.0
 41
1.0
 50
0.0
 71
     0
 42
0.2
  3
txt
  4

  0
STYLE
  5
20A
330
3
100
AcDbSymbolTableRecord
100
AcDbTextStyleTableRecord
  2
SEACAD_SEISO_TTF
 70
     0
 40
0.2
 41
1.0
 50
0.0
 71
     0
 42
0.2
  3
seiso.ttf
  4

  0
STYLE
  5
220
330
3
100
AcDbSymbolTableRecord
100
AcDbTextStyleTableRecord
  2
SEACAD_SEMECI1_TTF
 70
     0
 40
0.2
 41
1.0
 50
0.0
 71
     0
 42
0.2
  3
semeci1.ttf
  4

  0
ENDTAB
  0
TABLE
  2
VIEW
  5
6
330
0
100
AcDbSymbolTable
 70
     0
  0
ENDTAB
  0
TABLE
  2
UCS
  5
7
330
0
100
AcDbSymbolTable
 70
     0
  0
ENDTAB
  0
TABLE
  2
APPID
  5
9
330
0
100
AcDbSymbolTable
 70
     1
  0
APPID
  5
12
330
9
100
AcDbSymbolTableRecord
100
AcDbRegAppTableRecord
  2
ACAD
 70
     0
  0
ENDTAB
  0
TABLE
  2
DIMSTYLE
  5
A
330
0
100
AcDbSymbolTable
 70
     1
  0
DIMSTYLE
105
27
330
A
100
AcDbSymbolTableRecord
100
AcDbDimStyleTableRecord
  2
STANDARD
 70
     0
  3

  4

  5

  6

  7

 40
1.0
 41
0.18
 42
0.0625
 43
0.38
 44
0.18
 45
0.0
 46
0.0
 47
0.0
 48
0.0
140
0.18
141
0.09
142
0.0
143
25.4
144
1.0
145
0.0
146
1.0
147
0.09
 71
     0
 72
     0
 73
     1
 74
     1
 75
     0
 76
     0
 77
     0
 78
     0
170
     0
171
     2
172
     0
173
     0
174
     0
175
     0
176
     0
177
     0
178
     0
270
     2
271
     4
272
     4
273
     2
274
     2
340
11
275
     0
280
     0
281
     0
282
     0
283
     1
284
     0
285
     0
286
     0
287
     3
288
     0
  0
ENDTAB
  0
TABLE
  2
BLOCK_RECORD
  5
1
330
0
100
AcDbSymbolTable
 70
    15
  0
BLOCK_RECORD
  5
1F
330
1
100
AcDbSymbolTableRecord
100
AcDbBlockTableRecord
  2
*MODEL_SPACE
  0
BLOCK_RECORD
  5
1B
330
1
100
AcDbSymbolTableRecord
100
AcDbBlockTableRecord
  2
*PAPER_SPACE
  0
BLOCK_RECORD
  5
2E
330
1
100
AcDbSymbolTableRecord
100
AcDbBlockTableRecord
  2
SE
  0
BLOCK_RECORD
  5
35
330
1
100
AcDbSymbolTableRecord
100
AcDbBlockTableRecord
  2
SE1
  0
BLOCK_RECORD
  5
3A
330
1
100
AcDbSymbolTableRecord
100
AcDbBlockTableRecord
  2
SE2
  0
BLOCK_RECORD
  5
3F
330
1
100
AcDbSymbolTableRecord
100
AcDbBlockTableRecord
  2
SE3
  0
BLOCK_RECORD
  5
44
330
1
100
AcDbSymbolTableRecord
100
AcDbBlockTableRecord
  2
SE4
  0
BLOCK_RECORD
  5
E0
330
1
100
AcDbSymbolTableRecord
100
AcDbBlockTableRecord
  2
SE5
  0
BLOCK_RECORD
  5
188
330
1
100
AcDbSymbolTableRecord
100
AcDbBlockTableRecord
  2
SE6
  0
BLOCK_RECORD
  5
204
330
1
100
AcDbSymbolTableRecord
100
AcDbBlockTableRecord
  2
SE7
  0
BLOCK_RECORD
  5
20E
330
1
100
AcDbSymbolTableRecord
100
AcDbBlockTableRecord
  2
SE8
  0
BLOCK_RECORD
  5
218
330
1
100
AcDbSymbolTableRecord
100
AcDbBlockTableRecord
  2
SE9
  0
BLOCK_RECORD
  5
224
330
1
100
AcDbSymbolTableRecord
100
AcDbBlockTableRecord
  2
SE10
  0
BLOCK_RECORD
  5
22E
330
1
100
AcDbSymbolTableRecord
100
AcDbBlockTableRecord
  2
SE11
  0
BLOCK_RECORD
  5
238
330
1
100
AcDbSymbolTableRecord
100
AcDbBlockTableRecord
  2
SE12
  0
BLOCK_RECORD
  5
242
330
1
100
AcDbSymbolTableRecord
100
AcDbBlockTableRecord
  2
SE13
  0
ENDTAB
  0
ENDSEC
  0
SECTION
  2
BLOCKS
  0
BLOCK
  5
20
330
1F
100
AcDbEntity
  8
0
100
AcDbBlockBegin
  2
*MODEL_SPACE
 70
     0
 71
     0
 10
0.0
 20
0.0
 30
0.0
  3
*MODEL_SPACE
  1

  0
ENDBLK
  5
21
330
1F
100
AcDbEntity
  8
0
100
AcDbBlockEnd
  0
BLOCK
  5
1C
330
1B
100
AcDbEntity
 67
     1
  8
0
100
AcDbBlockBegin
  2
*PAPER_SPACE
 70
     0
 71
     0
 10
0.0
 20
0.0
 30
0.0
  3
*PAPER_SPACE
  1

  0
ENDBLK
  5
1D
330
1B
100
AcDbEntity
 67
     1
  8
0
100
AcDbBlockEnd
  0
BLOCK
  5
33
330
2E
100
AcDbEntity
  8
0
100
AcDbBlockBegin
  2
SE
 70
     0
 71
     0
 10
0.0
 20
0.0
 30
0.0
  3
SE
  1

  0
LINE
  5
32
330
2E
100
AcDbEntity
  8
DEFAULT
  6
CENTER2
 62
     7
 48
25.4
100
AcDbLine
 10
67.1717950735
 20
51.4893696797
 30
0.0
 11
67.1717950735
 21
139.2340461583
 31
0.0
  0
ENDBLK
  5
34
330
2E
100
AcDbEntity
  8
0
100
AcDbBlockEnd
  0
BLOCK
  5
38
330
35
100
AcDbEntity
  8
0
100
AcDbBlockBegin
  2
SE1
 70
     0
 71
     0
 10
0.0
 20
0.0
 30
0.0
  3
SE1
  1

  0
LINE
  5
37
330
35
100
AcDbEntity
  8
DEFAULT
  6
CENTER2
 62
     7
 48
25.4
100
AcDbLine
 10
156.4090031805
 20
50.613787532
 30
0.0
 11
156.4090031805
 21
140.5356013845
 31
0.0
  0
ENDBLK
  5
39
330
35
100
AcDbEntity
  8
0
100
AcDbBlockEnd
  0
BLOCK
  5
3D
330
3A
100
AcDbEntity
  8
0
100
AcDbBlockBegin
  2
SE2
 70
     0
 71
     0
 10
0.0
 20
0.0
 30
0.0
  3
SE2
  1

  0
LINE
  5
3C
330
3A
100
AcDbEntity
  8
DEFAULT
  6
CENTER2
 62
     7
 48
25.4
100
AcDbLine
 10
45.6717950735
 20
104.8732446588
 30
0.0
 11
45.6717950735
 21
93.1413247931
 31
0.0
  0
ENDBLK
  5
3E
330
3A
100
AcDbEntity
  8
0
100
AcDbBlockEnd
  0
BLOCK
  5
42
330
3F
100
AcDbEntity
  8
0
100
AcDbBlockBegin
  2
SE3
 70
     0
 71
     0
 10
0.0
 20
0.0
 30
0.0
  3
SE3
  1

  0
LINE
  5
41
330
3F
100
AcDbEntity
  8
DEFAULT
  6
CENTER2
 62
     7
 48
25.4
100
AcDbLine
 10
88.6717950735
 20
104.4464211762
 30
0.0
 11
88.6717950735
 21
93.0540104375
 31
0.0
  0
ENDBLK
  5
43
330
3F
100
AcDbEntity
  8
0
100
AcDbBlockEnd
  0
BLOCK
  5
DE
330
44
100
AcDbEntity
  8
0
100
AcDbBlockBegin
  2
SE4
 70
     0
 71
     0
 10
0.0
 20
0.0
 30
0.0
  3
SE4
  1

  0
ARC
  5
47
330
44
100
AcDbEntity
  8
MEGA_002151
  6
CONTINUOUS
 62
     7
 48
25.4
100
AcDbCircle
 10
67.1717950735
 20
71.5159463595
 30
0.0
 40
20.0
100
AcDbArc
 50
254.14741616
 51
285.8525956709
  0
LINE
  5
48
330
44
100
AcDbEntity
  8
MEGA_002151
  6
CONTINUOUS
 62
     7
 48
25.4
100
AcDbLine
 10
74.6717950735
 20
102.0159463595
 30
0.0
 11
59.6717950735
 21
102.0159463595
 31
0.0
  0
ARC
  5
49
330
44
100
AcDbEntity
  8
MEGA_002151
  6
CONTINUOUS
 62
     7
 48
25.4
100
AcDbCircle
 10
73.1220745319
 20
57.5159463595
 30
0.0
 40
3.0
100
AcDbArc
 50
13.1840265886
 51
90.0
  0
ELLIPSE
  5
4A
330
44
100
AcDbEntity
  8
MEGA_002151
  6
CONTINUOUS
 62
     7
 48
25.4
100
AcDbEllipse
 10
73.3858457246
 20
56.3899402093
 30
0.0
 11
-2.920927579978102
 21
-0.6842383155692964
 31
0.0
210
0.0
220
0.0
230
1.0
 40
0.9689607937
 41
2.904386324328221
 42
3.141592653589793
  0
ELLIPSE
  5
4B
330
44
100
AcDbEntity
  8
MEGA_002151
  6
CONTINUOUS
 62
     7
 48
25.4
100
AcDbEllipse
 10
73.1220745319
 20
57.5159463595
 30
0.0
 11
-2.920927579976945
 21
-0.6842383155666737
 31
0.0
210
0.0
220
0.0
230
1.0
 40
0.9426283738
 41
2.898015636299435
 42
3.141592653589798
  0
ARC
  5
4C
330
44
100
AcDbEntity
  8
MEGA_002151
  6
CONTINUOUS
 62
     7
 48
25.4
100
AcDbCircle
 10
71.1578544226
 20
71.8692463853
 30
0.0
 40
16.33670298610002
100
AcDbArc
 50
285.4706040858
 51
288.6450828735
  0
LINE
  5
4D
330
44
100
AcDbEntity
  8
MEGA_002151
  6
CONTINUOUS
 62
     7
 48
25.4
100
AcDbLine
 10
74.1218504826
 20
57.764918254
 30
0.0
 11
74.135907893
 21
57.7398883265
 31
0.0
  0
SPLINE
  5
4E
330
44
100
AcDbEntity
  8
MEGA_002151
  6
CONTINUOUS
 62
     7
 48
25.4
100
AcDbSpline
210
0.0
220
0.0
230
1.0
 70
     8
 71
     3
 72
    11
 73
     7
 74
     0
 42
0.0000000001
 43
0.0000000001
 40
0.0
 40
0.0
 40
0.0
 40
0.0
 40
0.5000000000000001
 40
0.5000000000000001
 40
0.5000000000000001
 40
1.0
 40
1.0
 40
1.0
 40
1.0
 10
74.13590789301291
 20
57.73988832648408
 30
0.0
 10
74.38940870842353
 20
57.28304407288604
 30
0.0
 10
74.62691418348189
 20
56.92402049974754
 30
0.0
 10
74.84697568633465
 20
56.65680327535816
 30
0.0
 10
75.06703718918733
 20
56.38958605096877
 30
0.0
 10
75.26966420516362
 20
56.21418820369251
 30
0.0
 10
75.45354311266381
 20
56.13028311251583
 30
0.0
  0
LINE
  5
4F
330
44
100
AcDbEntity
  8
MEGA_002151
  6
CONTINUOUS
 62
     7
 48
25.4
100
AcDbLine
 10
75.4535431127
 20
56.1302831125
 30
0.0
 11
75.5155710259
 21
56.1244640603
 31
0.0
  0
ARC
  5
50
330
44
100
AcDbEntity
  8
MEGA_002151
  6
CONTINUOUS
 62
     7
 48
25.4
100
AcDbCircle
 10
85.5278090228
 20
62.9612116621
 30
0.0
 40
12.53384838760002
100
AcDbArc
 50
185.1994367862
 51
204.4929228336
  0
LINE
  5
51
330
44
100
AcDbEntity
  8
MEGA_002151
  6
CONTINUOUS
 62
     7
 48
25.4
100
AcDbLine
 10
76.1123347235
 20
57.5159463595
 30
0.0
 11
74.9039797896
 21
57.5159463595
 31
0.0
  0
SPLINE
  5
52
330
44
100
AcDbEntity
  8
MEGA_002151
  6
CONTINUOUS
 62
     7
 48
25.4
100
AcDbSpline
210
0.0
220
0.0
230
1.0
 70
     8
 71
     3
 72
    17
 73
    13
 74
     0
 42
0.0000000001
 43
0.0000000001
 40
0.0
 40
0.0
 40
0.0
 40
0.0
 40
0.25
 40
0.25
 40
0.25
 40
0.5
 40
0.5
 40
0.5
 40
0.75
 40
0.75
 40
0.75
 40
1.0
 40
1.0
 40
1.0
 40
1.0
 10
74.90397978955399
 20
57.51594635947599
 30
0.0
 10
74.79348536024455
 20
57.51594635947599
 30
0.0
 10
74.67942095011674
 20
57.58071672249188
 30
0.0
 10
74.56213609956095
 20
57.70733019150548
 30
0.0
 10
74.44485124900513
 20
57.83394366051908
 30
0.0
 10
74.32434173280686
 20
58.02239941428178
 30
0.0
 10
74.20109224084203
 20
58.2754503931473
 30
0.0
 10
74.07784274887722
 20
58.52850137201271
 30
0.0
 10
73.95516169786376
 20
58.83948010386286
 30
0.0
 10
73.83428005049844
 20
59.20579323052505
 30
0.0
 10
73.71339840313318
 20
59.57210635718735
 30
0.0
 10
73.5942032850608
 20
59.99393968574734
 30
0.0
 10
73.47805585703304
 20
60.47454407679553
 30
0.0
  0
ARC
  5
53
330
44
100
AcDbEntity
  8
MEGA_002151
  6
CONTINUOUS
 62
     7
 48
25.4
100
AcDbCircle
 10
123.502550497
 20
72.5173674981
 30
0.0
 40
51.45366517489999
100
AcDbArc
 50
191.2954618918
 51
193.5357367693
  0
ELLIPSE
  5
54
330
44
100
AcDbEntity
  8
MEGA_002151
  6
CONTINUOUS
 62
     7
 48
25.4
100
AcDbEllipse
 10
62.4088339455
 20
57.5159463595
 30
0.0
 11
9.208369095307335E-14
 21
3.000000000000003
 31
0.0
210
0.0
220
0.0
230
1.0
 40
0.989741196
 41
0.7171675044778755
 42
1.570796326794927
  0
SPLINE
  5
55
330
44
100
AcDbEntity
  8
MEGA_002151
  6
CONTINUOUS
 62
     7
 48
25.4
100
AcDbSpline
210
0.0
220
0.0
230
1.0
 70
     8
 71
     3
 72
    14
 73
    10
 74
     0
 42
0.0000000001
 43
0.0000000001
 40
0.0
 40
0.0
 40
0.0
 40
0.0
 40
0.4014575805499346
 40
0.4014575805499346
 40
0.4014575805499346
 40
0.7007287902749674
 40
0.7007287902749674
 40
0.7007287902749674
 40
1.0
 40
1.0
 40
1.0
 40
1.0
 10
73.58088619005426
 20
60.67265900901192
 30
0.0
 10
73.88320976767848
 20
60.87427516908017
 30
0.0
 10
74.16254308929412
 20
61.24702201119037
 30
0.0
 10
74.39299216098588
 20
61.65151638802846
 30
0.0
 10
74.56478309434105
 20
61.95305141276874
 30
0.0
 10
74.70158664119985
 20
62.27669419550585
 30
0.0
 10
74.77463865219863
 20
62.60428906540627
 30
0.0
 10
74.84769066319741
 20
62.93188393530674
 30
0.0
 10
74.85537485563899
 20
63.27001652833341
 30
0.0
 10
74.77722496680755
 20
63.60362860539765
 30
0.0
  0
LINE
  5
56
330
44
100
AcDbEntity
  8
MEGA_002151
  6
CONTINUOUS
 62
     7
 48
25.4
100
AcDbLine
 10
59.6717950735
 20
86.5159463595
 30
0.0
 11
74.6717950735
 21
86.5159463595
 31
0.0
  0
ARC
  5
57
330
44
100
AcDbEntity
  8
MEGA_002151
  6
CONTINUOUS
 62
     7
 48
25.4
100
AcDbCircle
 10
67.1718145557
 20
73.663368685
 30
0.0
 40
19.98711223859999
100
AcDbArc
 50
259.2539782512
 51
280.7458521366
  0
ARC
  5
58
330
44
100
AcDbEntity
  8
MEGA_002151
  6
CONTINUOUS
 62
     7
 48
25.4
100
AcDbCircle
 10
67.1717969999
 20
71.604904132
 30
0.0
 40
20.04893144520003
100
AcDbArc
 50
254.426319813
 51
285.5738814763
  0
SPLINE
  5
59
330
44
100
AcDbEntity
  8
MEGA_002151
  6
CONTINUOUS
 62
     7
 48
25.4
100
AcDbSpline
210
0.0
220
0.0
230
1.0
 70
     8
 71
     3
 72
    11
 73
     7
 74
     0
 42
0.0000000001
 43
0.0000000001
 40
0.0
 40
0.0
 40
0.0
 40
0.0
 40
0.5
 40
0.5
 40
0.5
 40
1.0
 40
1.0
 40
1.0
 40
1.0
 10
63.44510114359614
 20
54.02676351034208
 30
0.0
 10
63.1298789577712
 20
53.53073969541516
 30
0.0
 10
62.82993931209882
 20
53.13912423659406
 30
0.0
 10
62.55177112634067
 20
52.8503707774553
 30
0.0
 10
62.27360294058249
 20
52.56161731831654
 30
0.0
 10
62.01816712025774
 20
52.37646000232926
 30
0.0
 10
61.78911307972876
 20
52.29204919258951
 30
0.0
  0
SPLINE
  5
5A
330
44
100
AcDbEntity
  8
MEGA_002151
  6
CONTINUOUS
 62
     7
 48
25.4
100
AcDbSpline
210
0.0
220
0.0
230
1.0
 70
     8
 71
     3
 72
    11
 73
     7
 74
     0
 42
0.0000000001
 43
0.0000000001
 40
0.0
 40
0.0
 40
0.0
 40
0.0
 40
0.5
 40
0.5
 40
0.5
 40
1.0
 40
1.0
 40
1.0
 40
1.0
 10
72.55454876914372
 20
52.2920681029514
 30
0.0
 10
72.32550587562197
 20
52.37648158483221
 30
0.0
 10
72.06942078203035
 20
52.56212961449902
 30
0.0
 10
71.7911954636179
 20
52.85104208896397
 30
0.0
 10
71.51297014520544
 20
53.1399545634289
 30
0.0
 10
71.21371470321935
 20
53.53070934405202
 30
0.0
 10
70.89846983765125
 20
54.02675247827055
 30
0.0
  0
LINE
  5
5B
330
44
100
AcDbEntity
  8
MEGA_002151
  6
CONTINUOUS
 62
     7
 48
25.4
100
AcDbLine
 10
63.4602602242
 20
54.0436653787
 30
0.0
 11
63.4451011436
 21
54.0267635104
 31
0.0
  0
LINE
  5
5C
330
44
100
AcDbEntity
  8
MEGA_002151
  6
CONTINUOUS
 62
     7
 48
25.4
100
AcDbLine
 10
70.8984698377
 20
54.0267524783
 30
0.0
 11
70.8833101963
 21
54.0436543319
 31
0.0
  0
ARC
  5
5D
330
44
100
AcDbEntity
  8
MEGA_002151
  6
CONTINUOUS
 62
     7
 48
25.4
100
AcDbCircle
 10
87.7454932329
 20
61.5976644409
 30
0.0
 40
18.47691222809999
100
AcDbArc
 50
186.2444612435
 51
204.1316780799
  0
SPLINE
  5
5E
330
44
100
AcDbEntity
  8
MEGA_002151
  6
CONTINUOUS
 62
     7
 48
25.4
100
AcDbSpline
210
0.0
220
0.0
230
1.0
 70
     8
 71
     3
 72
    35
 73
    31
 74
     0
 42
0.0000000001
 43
0.0000000001
 40
0.0
 40
0.0
 40
0.0
 40
0.0
 40
0.2500000000000021
 40
0.2500000000000021
 40
0.2500000000000021
 40
0.3750000000000032
 40
0.3750000000000032
 40
0.3750000000000032
 40
0.4375000000000032
 40
0.4375000000000032
 40
0.4375000000000032
 40
0.4687500000000027
 40
0.4687500000000027
 40
0.4687500000000027
 40
0.5000000000000022
 40
0.5000000000000022
 40
0.5000000000000022
 40
0.5312500000000018
 40
0.5312500000000018
 40
0.5312500000000018
 40
0.5625000000000013
 40
0.5625000000000013
 40
0.5625000000000013
 40
0.6250000000000003
 40
0.6250000000000003
 40
0.6250000000000003
 40
0.75
 40
0.75
 40
0.75
 40
1.0
 40
1.0
 40
1.0
 40
1.0
 10
69.37820715452293
 20
59.58791629737215
 30
0.0
 10
69.2534622456003
 20
60.40900850376574
 30
0.0
 10
69.00892678443971
 20
61.24844175046118
 30
0.0
 10
68.68530007491869
 20
62.11293032736359
 30
0.0
 10
68.52348672015815
 20
62.54517461581477
 30
0.0
 10
68.34156579456877
 20
62.98512712545207
 30
0.0
 10
68.12108971057023
 20
63.41297085034431
 30
0.0
 10
68.01085166857097
 20
63.62689271279037
 30
0.0
 10
67.89137365186399
 20
63.83982982494901
 30
0.0
 10
67.74440386875969
 20
64.03574246146671
 30
0.0
 10
67.67091897720754
 20
64.13369877972552
 30
0.0
 10
67.59008019515547
 20
64.22847339287225
 30
0.0
 10
67.49306787501224
 20
64.30625370938603
 30
0.0
 10
67.39605555486905
 20
64.38403402589982
 30
0.0
 10
67.27714546293365
 20
64.44370989583497
 30
0.0
 10
67.15077630740757
 20
64.43683062980776
 30
0.0
 10
67.02440715188152
 20
64.4299513637806
 30
0.0
 10
66.91073942138954
 20
64.36024279434915
 30
0.0
 10
66.81792326173913
 20
64.27887962216855
 30
0.0
 10
66.72510710208867
 20
64.19751644998789
 30
0.0
 10
66.64759159718095
 20
64.10291172754972
 30
0.0
 10
66.57563561143013
 20
64.00380986495662
 30
0.0
 10
66.43172363992844
 20
63.80560613977016
 30
0.0
 10
66.31562060571358
 20
63.5957203502529
 30
0.0
 10
66.20755051888142
 20
63.38379360117952
 30
0.0
 10
65.99141034521711
 20
62.9599401030328
 30
0.0
 10
65.81128951179177
 20
62.5232117554631
 30
0.0
 10
65.65128123655568
 20
62.09418094212788
 30
0.0
 10
65.33126468608344
 20
61.23611931545742
 30
0.0
 10
65.0891891876672
 20
60.40292783697776
 30
0.0
 10
64.96536429611996
 20
59.58791277438491
 30
0.0
  0
ELLIPSE
  5
5F
330
44
100
AcDbEntity
  8
MEGA_002151
  6
CONTINUOUS
 62
     7
 48
25.4
100
AcDbEllipse
 10
71.5424097481
 20
56.1244640603
 30
0.0
 11
-1.092653668664935
 21
3.847870574792433
 31
0.0
210
0.0
220
0.0
230
1.0
 40
0.9927551496
 41
3.141592653589793
 42
4.437613779360675
  0
ELLIPSE
  5
60
330
44
100
AcDbEntity
  8
MEGA_002151
  6
CONTINUOUS
 62
     7
 48
25.4
100
AcDbEllipse
 10
70.181040788
 20
57.764918254
 30
0.0
 11
-3.49702535303916
 21
-1.941858305902169
 31
0.0
210
0.0
220
0.0
230
1.0
 40
0.9413796397
 41
1.268048084896091
 42
2.608657352936021
  0
ELLIPSE
  5
61
330
44
100
AcDbEntity
  8
MEGA_002151
  6
CONTINUOUS
 62
     7
 48
25.4
100
AcDbEllipse
 10
69.12970798
 20
61.8253593428
 30
0.0
 11
-3.959547291806986
 21
-0.5674374361495301
 31
0.0
210
0.0
220
0.0
230
1.0
 40
0.5626065077
 41
1.552941333642194
 42
2.892174032151576
  0
ELLIPSE
  5
62
330
44
100
AcDbEntity
  8
MEGA_002151
  6
CONTINUOUS
 62
     7
 48
25.4
100
AcDbEllipse
 10
65.213882167
 20
61.825355682
 30
0.0
 11
3.959547169173475
 21
-0.5674382918787612
 31
0.0
210
0.0
220
0.0
230
1.0
 40
0.5626070875
 41
3.391011396617499
 42
4.73023946270444
  0
ELLIPSE
  5
63
330
44
100
AcDbEntity
  8
MEGA_002151
  6
CONTINUOUS
 62
     7
 48
25.4
100
AcDbEllipse
 10
60.9080418002
 20
56.1777659467
 30
0.0
 11
-2.920927579983621
 21
0.68423831556827
 31
0.0
210
0.0
220
0.0
230
1.0
 40
0.9953628429
 41
0.0000000000000019
 42
0.4738912714505147
  0
ELLIPSE
  5
64
330
44
100
AcDbEntity
  8
MEGA_002151
  6
CONTINUOUS
 62
     7
 48
25.4
100
AcDbEllipse
 10
60.9577444224
 20
56.3899402093
 30
0.0
 11
-2.920927579982682
 21
0.6842383155616433
 31
0.0
210
0.0
220
0.0
230
1.0
 40
0.9689607937
 41
0.0
 42
0.2372063292586831
  0
ELLIPSE
  5
65
330
44
100
AcDbEntity
  8
MEGA_002151
  6
CONTINUOUS
 62
     7
 48
25.4
100
AcDbEllipse
 10
62.801183577
 20
56.1244631578
 30
0.0
 11
-1.092652874138966
 21
-3.847870800408471
 31
0.0
210
0.0
220
0.0
230
1.0
 40
0.99275513
 41
4.987163971061364
 42
6.283185307179586
  0
ELLIPSE
  5
66
330
44
100
AcDbEntity
  8
MEGA_002151
  6
CONTINUOUS
 62
     7
 48
25.4
100
AcDbEllipse
 10
71.9347562015
 20
57.5159463595
 30
0.0
 11
-6.716309046926645E-15
 21
2.999999999999982
 31
0.0
210
0.0
220
0.0
230
1.0
 40
0.989741196
 41
4.712388980384688
 42
5.56602682170475
  0
ELLIPSE
  5
67
330
44
100
AcDbEntity
  8
MEGA_002151
  6
CONTINUOUS
 62
     7
 48
25.4
100
AcDbEllipse
 10
73.1220745319
 20
57.5159463595
 30
0.0
 11
-1.024836909530734E-13
 21
-3.000000000000072
 31
0.0
210
0.0
220
0.0
230
1.0
 40
0.9967533972
 41
1.570796326794931
 42
2.968043539907885
  0
LINE
  5
68
330
44
100
AcDbEntity
  8
MEGA_002151
  6
CONTINUOUS
 62
     7
 48
25.4
100
AcDbLine
 10
76.0430021119
 20
58.200184675
 30
0.0
 11
76.3067733046
 21
57.0741785249
 31
0.0
  0
LINE
  5
69
330
44
100
AcDbEntity
  8
MEGA_002151
  6
CONTINUOUS
 62
     7
 48
25.4
100
AcDbLine
 10
76.3807793469
 20
56.3899402093
 30
0.0
 11
76.1123347235
 21
57.5159463595
 31
0.0
  0
ARC
  5
6A
330
44
100
AcDbEntity
  8
MEGA_002151
  6
CONTINUOUS
 62
     7
 48
25.4
100
AcDbCircle
 10
72.876372531
 20
55.8492163082
 30
0.0
 40
3.490808110899991
100
AcDbArc
 50
322.5113017542
 51
353.5952193145
  0
ARC
  5
6B
330
44
100
AcDbEntity
  8
MEGA_002151
  6
CONTINUOUS
 62
     7
 48
25.4
100
AcDbCircle
 10
71.5801961015
 20
56.1068371089
 30
0.0
 40
4.808923669799981
100
AcDbArc
 50
352.2675662396
 51
3.3749749275
  0
ELLIPSE
  5
6C
330
44
100
AcDbEntity
  8
MEGA_002151
  6
CONTINUOUS
 62
     7
 48
25.4
100
AcDbEllipse
 10
72.4656000744
 20
56.4170845278
 30
0.0
 11
-1.323451250217616
 21
3.774715457924927
 31
0.0
210
0.0
220
0.0
230
1.0
 40
0.9986247194
 41
3.141592653589796
 42
4.133899641607256
  0
ELLIPSE
  5
6D
330
44
100
AcDbEntity
  8
MEGA_002151
  6
CONTINUOUS
 62
     7
 48
25.4
100
AcDbEllipse
 10
64.1625495598
 20
57.7649259433
 30
0.0
 11
3.497022784597654
 21
-1.941862931312273
 31
0.0
210
0.0
220
0.0
230
1.0
 40
0.9413798904
 41
3.674529201431663
 42
5.015133477651725
  0
ELLIPSE
  5
6E
330
44
100
AcDbEntity
  8
MEGA_002151
  6
CONTINUOUS
 62
     7
 48
25.4
100
AcDbEllipse
 10
64.1488184566
 20
57.7398960941
 30
0.0
 11
3.516652309144289
 21
-1.906084084344277
 31
0.0
210
0.0
220
0.0
230
1.0
 40
0.9396680992
 41
3.664791473167856
 42
5.004188210912393
  0
ARC
  5
6F
330
44
100
AcDbEntity
  8
MEGA_002151
  6
CONTINUOUS
 62
     7
 48
25.4
100
AcDbCircle
 10
63.2820210545
 20
72.1830480902
 30
0.0
 40
16.66482085920001
100
AcDbArc
 50
251.3861764442
 51
254.4981482006
  0
LINE
  5
70
330
44
100
AcDbEntity
  8
MEGA_002151
  6
CONTINUOUS
 62
     7
 48
25.4
100
AcDbLine
 10
58.8280223747
 20
56.1244631578
 30
0.0
 11
58.8900501278
 21
56.1302829871
 31
0.0
  0
SPLINE
  5
71
330
44
100
AcDbEntity
  8
MEGA_002151
  6
CONTINUOUS
 62
     7
 48
25.4
100
AcDbSpline
210
0.0
220
0.0
230
1.0
 70
     8
 71
     3
 72
    11
 73
     7
 74
     0
 42
0.0000000001
 43
0.0000000001
 40
0.0
 40
0.0
 40
0.0
 40
0.0
 40
0.5
 40
0.5
 40
0.5
 40
1.0
 40
1.0
 40
1.0
 40
1.0
 10
58.89005012781814
 20
56.13028298713246
 30
0.0
 10
59.07392874294693
 20
56.21419237203934
 30
0.0
 10
59.27655533049459
 20
56.38959435026375
 30
0.0
 10
59.49661634482956
 20
56.65681291904429
 30
0.0
 10
59.71667735916456
 20
56.92403148782488
 30
0.0
 10
59.9541822721551
 20
57.28305432338726
 30
0.0
 10
60.20768246072711
 20
57.73989609410585
 30
0.0
  0
LINE
  5
72
330
44
100
AcDbEntity
  8
MEGA_002151
  6
CONTINUOUS
 62
     7
 48
25.4
100
AcDbLine
 10
60.2076824608
 20
57.7398960941
 30
0.0
 11
60.22173987
 21
57.7649259433
 31
0.0
  0
ARC
  5
73
330
44
100
AcDbEntity
  8
MEGA_002151
  6
CONTINUOUS
 62
     7
 48
25.4
100
AcDbCircle
 10
47.9998708822
 20
63.1774989688
 30
0.0
 40
13.36675085090002
100
AcDbArc
 50
336.113378403
 51
354.1941880647
  0
ELLIPSE
  5
74
330
44
100
AcDbEntity
  8
MEGA_002151
  6
CONTINUOUS
 62
     7
 48
25.4
100
AcDbEllipse
 10
62.8617715178
 20
56.1302829871
 30
0.0
 11
1.693053124774706
 21
-3.62402691997319
 31
0.0
210
0.0
220
0.0
230
0.9999999999999999
 40
0.9914072169
 41
4.278645072544776
 42
5.569358947105537
  0
ELLIPSE
  5
75
330
44
100
AcDbEntity
  8
MEGA_002151
  6
CONTINUOUS
 62
     7
 48
25.4
100
AcDbEllipse
 10
71.481821651
 20
56.1302831125
 30
0.0
 11
1.692979799708119
 21
3.624061174674099
 31
0.0
210
0.0
220
0.0
230
1.0
 40
0.9914073991
 41
3.855416552896965
 42
5.146112837513566
  0
ELLIPSE
  5
76
330
44
100
AcDbEntity
  8
MEGA_002151
  6
CONTINUOUS
 62
     7
 48
25.4
100
AcDbEllipse
 10
70.1947718924
 20
57.7398883265
 30
0.0
 11
-3.516654674501027
 21
-1.906079720344997
 31
0.0
210
0.0
220
0.0
230
1.0
 40
0.939667852
 41
1.278993411558675
 42
2.618395002206772
  0
LINE
  5
77
330
44
100
AcDbEntity
  8
MEGA_002151
  6
CONTINUOUS
 62
     7
 48
25.4
100
AcDbLine
 10
73.045533793
 20
62.4392166128
 30
0.0
 11
73.045533793
 21
61.8253593428
 31
0.0
  0
ARC
  5
78
330
44
100
AcDbEntity
  8
MEGA_002151
  6
CONTINUOUS
 62
     7
 48
25.4
100
AcDbCircle
 10
66.995879523
 20
70.96094898
 30
0.0
 40
19.4180647837
100
AcDbArc
 50
250.6268559907
 51
254.19940711
  0
LINE
  5
79
330
44
100
AcDbEntity
  8
MEGA_002151
  6
CONTINUOUS
 62
     7
 48
25.4
100
AcDbLine
 10
61.7891130798
 20
52.2920491926
 30
0.0
 11
61.7085307028
 21
52.2765923574
 31
0.0
  0
LINE
  5
7A
330
44
100
AcDbEntity
  8
MEGA_002151
  6
CONTINUOUS
 62
     7
 48
25.4
100
AcDbLine
 10
72.6350634168
 20
52.2765934855
 30
0.0
 11
72.5545487692
 21
52.292068103
 31
0.0
  0
SPLINE
  5
7B
330
44
100
AcDbEntity
  8
MEGA_002151
  6
CONTINUOUS
 62
     7
 48
25.4
100
AcDbSpline
210
0.0
220
0.0
230
1.0
 70
     8
 71
     3
 72
    11
 73
     7
 74
     0
 42
0.0000000001
 43
0.0000000001
 40
0.0
 40
0.0
 40
0.0
 40
0.0
 40
0.5029769342302168
 40
0.5029769342302168
 40
0.5029769342302168
 40
1.0
 40
1.0
 40
1.0
 40
1.0
 10
60.55453882235412
 20
52.6423690698557
 30
0.0
 10
60.46863279999754
 20
52.67248854083478
 30
0.0
 10
60.35740575832874
 20
52.71242625504963
 30
0.0
 10
60.27204895001611
 20
52.74379934769024
 30
0.0
 10
60.18770253238809
 20
52.77480106889404
 30
0.0
 10
60.131368624638
 20
52.79610389588907
 30
0.0
 10
60.13002472779772
 20
52.79661217605103
 30
0.0
  0
SPLINE
  5
7C
330
44
100
AcDbEntity
  8
MEGA_002151
  6
CONTINUOUS
 62
     7
 48
25.4
100
AcDbSpline
210
0.0
220
0.0
230
1.0
 70
     8
 71
     3
 72
    11
 73
     7
 74
     0
 42
0.0000000001
 43
0.0000000001
 40
0.0
 40
0.0
 40
0.0
 40
0.0
 40
0.4996705554303699
 40
0.4996705554303699
 40
0.4996705554303699
 40
1.0
 40
1.0
 40
1.0
 40
1.0
 10
74.21358979113879
 20
52.79662139360531
 30
0.0
 10
74.2134635522058
 20
52.79657358351248
 30
0.0
 10
74.15684030237988
 20
52.7751514745754
 30
0.0
 10
74.07158833322528
 20
52.74381667282546
 30
0.0
 10
73.98622394680702
 20
52.71244055152946
 30
0.0
 10
73.87497431815291
 20
52.67249449111377
 30
0.0
 10
73.78905132455643
 20
52.64236906985609
 30
0.0
  0
ARC
  5
7D
330
44
100
AcDbEntity
  8
MEGA_002151
  6
CONTINUOUS
 62
     7
 48
25.4
100
AcDbCircle
 10
67.3477102105
 20
70.9609504834
 30
0.0
 40
19.41806633919998
100
AcDbArc
 50
285.8006050414
 51
289.3731436887
  0
LINE
  5
7E
330
44
100
AcDbEntity
  8
MEGA_002151
  6
CONTINUOUS
 62
     7
 48
25.4
100
AcDbLine
 10
76.3564759268
 20
56.8620042623
 30
0.0
 11
76.4364098238
 21
56.5207764781
 31
0.0
  0
ELLIPSE
  5
7F
330
44
100
AcDbEntity
  8
MEGA_002151
  6
CONTINUOUS
 62
     7
 48
25.4
100
AcDbEllipse
 10
73.4355483468
 20
56.1777659467
 30
0.0
 11
-2.92092757998745
 21
-0.6842383155529831
 31
0.0
210
0.0
220
0.0
230
1.0
 40
0.9953628429
 41
2.667701382144574
 42
3.141592653589793
  0
LINE
  5
80
330
44
100
AcDbEntity
  8
MEGA_002151
  6
CONTINUOUS
 62
     7
 48
25.4
100
AcDbLine
 10
74.7772249668
 20
63.6036286054
 30
0.0
 11
76.0430021119
 21
58.200184675
 31
0.0
  0
SPLINE
  5
81
330
44
100
AcDbEntity
  8
MEGA_002151
  6
CONTINUOUS
 62
     7
 48
25.4
100
AcDbSpline
210
0.0
220
0.0
230
1.0
 70
     8
 71
     3
 72
    35
 73
    31
 74
     0
 42
0.0000000001
 43
0.0000000001
 40
0.0
 40
0.0
 40
0.0
 40
0.0
 40
0.0231293096567604
 40
0.0231293096567604
 40
0.0231293096567604
 40
0.1162779738346221
 40
0.1162779738346221
 40
0.1162779738346221
 40
0.21670234833509
 40
0.21670234833509
 40
0.21670234833509
 40
0.3277111605791289
 40
0.3277111605791289
 40
0.3277111605791289
 40
0.4446114388425276
 40
0.4446114388425276
 40
0.4446114388425276
 40
0.5684897060077969
 40
0.5684897060077969
 40
0.5684897060077969
 40
0.6984768854331156
 40
0.6984768854331156
 40
0.6984768854331156
 40
0.8336531355983843
 40
0.8336531355983843
 40
0.8336531355983843
 40
0.9730880933058871
 40
0.9730880933058871
 40
0.9730880933058871
 40
1.0
 40
1.0
 40
1.0
 40
1.0
 10
73.97522213684998
 20
59.52112698395229
 30
0.0
 10
73.97522136811294
 20
59.52112591134839
 30
0.0
 10
73.97498212311368
 20
59.52154187359782
 30
0.0
 10
73.9745248554452
 20
59.52236708108999
 30
0.0
 10
73.97268330145488
 20
59.5256904390592
 30
0.0
 10
73.96730560646489
 20
59.53565140442474
 30
0.0
 10
73.95953264085838
 20
59.55130086346871
 30
0.0
 10
73.95115253990969
 20
59.56817267960945
 30
0.0
 10
73.93998837252036
 20
59.59165633503
 30
0.0
 10
73.92691539376392
 20
59.62096769075287
 30
0.0
 10
73.91246456097095
 20
59.65336837833735
 30
0.0
 10
73.89568134632596
 20
59.69288994892719
 30
0.0
 10
73.87727097370852
 20
59.73887494591901
 30
0.0
 10
73.85788352474479
 20
59.78730046129576
 30
0.0
 10
73.83669162144358
 20
59.84289366291057
 30
0.0
 10
73.81433104717813
 20
59.9048657956977
 30
0.0
 10
73.79063572981909
 20
59.97053715710293
 30
0.0
 10
73.76562805722605
 20
60.04337171838853
 30
0.0
 10
73.73974353142437
 20
60.12274303812109
 30
0.0
 10
73.71258254042323
 20
60.20602846191159
 30
0.0
 10
73.6844560818477
 20
60.2965112458298
 30
0.0
 10
73.6559665075302
 20
60.39335093685039
 30
0.0
 10
73.62633963323329
 20
60.49405645532685
 30
0.0
 10
73.59632007347136
 20
60.60163654500039
 30
0.0
 10
73.56542526741674
 20
60.71633749291016
 30
0.0
 10
73.53355712511849
 20
60.83465207702709
 30
0.0
 10
73.50075771878991
 20
60.96054327037525
 30
0.0
 10
73.4704440277113
 20
61.09028505309505
 30
0.0
 10
73.46459327665664
 20
61.11532611028969
 30
0.0
 10
73.45883512261447
 20
61.14051060831971
 30
0.0
 10
73.45211648596342
 20
61.16992938295596
 30
0.0
  0
SPLINE
  5
82
330
44
100
AcDbEntity
  8
MEGA_002151
  6
CONTINUOUS
 62
     7
 48
25.4
100
AcDbSpline
210
0.0
220
0.0
230
1.0
 70
     8
 71
     3
 72
    32
 73
    28
 74
     0
 42
0.0000000001
 43
0.0000000001
 40
0.0
 40
0.0
 40
0.0
 40
0.0
 40
0.1384936673543408
 40
0.1384936673543408
 40
0.1384936673543408
 40
0.2815432665305567
 40
0.2815432665305567
 40
0.2815432665305567
 40
0.4213627654362342
 40
0.4213627654362342
 40
0.4213627654362342
 40
0.5569796335279209
 40
0.5569796335279209
 40
0.5569796335279209
 40
0.6739847815935994
 40
0.6739847815935994
 40
0.6739847815935994
 40
0.7844606444001379
 40
0.7844606444001379
 40
0.7844606444001379
 40
0.8878909758537646
 40
0.8878909758537646
 40
0.8878909758537646
 40
0.9820549187607882
 40
0.9820549187607882
 40
0.9820549187607882
 40
1.0
 40
1.0
 40
1.0
 40
1.0
 10
60.89156390968439
 20
61.16780515301701
 30
0.0
 10
60.85684543666125
 20
61.02479495305818
 30
0.0
 10
60.82761888954752
 20
60.90508350148782
 30
0.0
 10
60.79712368945656
 20
60.78779804261259
 30
0.0
 10
60.76562530954399
 20
60.66665432390106
 30
0.0
 10
60.73277343573344
 20
60.54809883567353
 30
0.0
 10
60.70091687343424
 20
60.4385695243509
 30
0.0
 10
60.66977964129106
 20
60.33151341575071
 30
0.0
 10
60.63959327930888
 20
60.23308045898701
 30
0.0
 10
60.61031660226657
 20
60.14253104112793
 30
0.0
 10
60.58191991024811
 20
60.05470331642804
 30
0.0
 10
60.5543790392386
 20
59.97429233341983
 30
0.0
 10
60.52845909958363
 20
59.90256921692511
 30
0.0
 10
60.50609634766449
 20
59.84068920167857
 30
0.0
 10
60.48494015079859
 20
59.78527607919359
 30
0.0
 10
60.46559033076932
 20
59.73702217770011
 30
0.0
 10
60.44732029651676
 20
59.69146100804728
 30
0.0
 10
60.43066066024983
 20
59.65228233557324
 30
0.0
 10
60.41630682983537
 20
59.62013800204846
 30
0.0
 10
60.40286840627682
 20
59.59004365395859
 30
0.0
 10
60.39145106393501
 20
59.56611503326842
 30
0.0
 10
60.38306107413821
 20
59.54929835351264
 30
0.0
 10
60.37542274881225
 20
59.53398829068918
 30
0.0
 10
60.37029363017593
 20
59.52457292612229
 30
0.0
 10
60.36883704725762
 20
59.52196184302322
 30
0.0
 10
60.36855946225012
 20
59.52146424174521
 30
0.0
 10
60.36841525629114
 20
59.52121375816954
 30
0.0
 10
60.36841421651629
 20
59.52121407391176
 30
0.0
  0
ARC
  5
83
330
44
100
AcDbEntity
  8
MEGA_002151
  6
CONTINUOUS
 62
     7
 48
25.4
100
AcDbCircle
 10
116.608493478
 20
71.4681381012
 30
0.0
 40
44.36868096540002
100
AcDbArc
 50
190.9771620425
 51
193.4205828499
  0
ARC
  5
84
330
44
100
AcDbEntity
  8
MEGA_002151
  6
CONTINUOUS
 62
     7
 48
25.4
100
AcDbCircle
 10
16.8694694493
 20
71.6686091919
 30
0.0
 40
45.2558475358
100
AcDbArc
 50
346.5872813318
 51
348.9839234985
  0
LINE
  5
85
330
44
100
AcDbEntity
  8
MEGA_002151
  6
CONTINUOUS
 62
     7
 48
25.4
100
AcDbLine
 10
74.6717950735
 20
64.5159463595
 30
0.0
 11
72.57636862
 21
64.5159463595
 31
0.0
  0
LINE
  5
86
330
44
100
AcDbEntity
  8
MEGA_002151
  6
CONTINUOUS
 62
     7
 48
25.4
100
AcDbLine
 10
61.7571148201
 20
64.5159463595
 30
0.0
 11
59.6717950735
 21
64.5159463595
 31
0.0
  0
SPLINE
  5
87
330
44
100
AcDbEntity
  8
MEGA_002151
  6
CONTINUOUS
 62
     7
 48
25.4
100
AcDbSpline
210
0.0
220
0.0
230
1.0
 70
     8
 71
     3
 72
    14
 73
    10
 74
     0
 42
0.0000000001
 43
0.0000000001
 40
0.0
 40
0.0
 40
0.0
 40
0.0
 40
0.2993087814337034
 40
0.2993087814337034
 40
0.2993087814337034
 40
0.5986175628674068
 40
0.5986175628674068
 40
0.5986175628674068
 40
1.0
 40
1.0
 40
1.0
 40
1.0
 10
59.56636518010289
 20
63.60362860539765
 30
0.0
 10
59.48821529127007
 20
63.27001652832747
 30
0.0
 10
59.49589948371303
 20
62.93188393530674
 30
0.0
 10
59.56895149471178
 20
62.60428906540627
 30
0.0
 10
59.64200350571056
 20
62.27669419550585
 30
0.0
 10
59.77880705256933
 20
61.95305141276874
 30
0.0
 10
59.95059798592456
 20
61.65151638802846
 30
0.0
 10
60.18097500051498
 20
61.24714848899338
 30
0.0
 10
60.46020569943305
 20
60.87450827407309
 30
0.0
 10
60.76242037086757
 20
60.67284818397406
 30
0.0
  0
LINE
  5
88
330
44
100
AcDbEntity
  8
MEGA_002151
  6
CONTINUOUS
 62
     7
 48
25.4
100
AcDbLine
 10
61.298056354
 20
62.4392166128
 30
0.0
 11
61.298056354
 21
61.825355682
 31
0.0
  0
ARC
  5
89
330
44
100
AcDbEntity
  8
MEGA_002151
  6
CONTINUOUS
 62
     7
 48
25.4
100
AcDbCircle
 10
46.7933832949
 20
61.544664178
 30
0.0
 40
18.27702846649999
100
AcDbArc
 50
335.7696698642
 51
353.8540948447
  0
SPLINE
  5
8A
330
44
100
AcDbEntity
  8
MEGA_002151
  6
CONTINUOUS
 62
     7
 48
25.4
100
AcDbSpline
210
0.0
220
0.0
230
1.0
 70
     8
 71
     3
 72
    23
 73
    19
 74
     0
 42
0.0000000001
 43
0.0000000001
 40
0.0
 40
0.0
 40
0.0
 40
0.0
 40
0.2499999999999991
 40
0.2499999999999991
 40
0.2499999999999991
 40
0.3749999999999992
 40
0.3749999999999992
 40
0.3749999999999992
 40
0.4999999999999993
 40
0.4999999999999993
 40
0.4999999999999993
 40
0.6249999999999996
 40
0.6249999999999996
 40
0.6249999999999996
 40
0.7499999999999997
 40
0.7499999999999997
 40
0.7499999999999997
 40
1.0
 40
1.0
 40
1.0
 40
1.0
 10
61.29805635396671
 20
61.82535568198955
 30
0.0
 10
61.57641742444753
 20
62.47281744385552
 30
0.0
 10
62.28864532007317
 20
63.18956011717963
 30
0.0
 10
63.29770360466655
 20
63.88795794459762
 30
0.0
 10
63.80223274696323
 20
64.23715685830661
 30
0.0
 10
64.38242179687956
 20
64.58247218405245
 30
0.0
 10
65.03200191082273
 20
64.8631122090212
 30
0.0
 10
65.6815820247659
 20
65.14375223398989
 30
0.0
 10
66.42462471428654
 20
65.35402553983238
 30
0.0
 10
67.17096701805255
 20
65.35416979461617
 30
0.0
 10
67.91730932181858
 20
65.3543140494
 30
0.0
 10
68.65182756899269
 20
65.14734332945132
 30
0.0
 10
69.30390954471352
 20
64.86643237579226
 30
0.0
 10
69.95599152043435
 20
64.58552142213326
 30
0.0
 10
70.53057310765954
 20
64.24393896931291
 30
0.0
 10
71.03761401874876
 20
63.8936859890683
 30
0.0
 10
72.05169584092721
 20
63.19318002857921
 30
0.0
 10
72.76740274956082
 20
62.47228706228325
 30
0.0
 10
73.04553379294376
 20
61.82535934277583
 30
0.0
  0
LINE
  5
8B
330
44
100
AcDbEntity
  8
MEGA_002151
  6
CONTINUOUS
 62
     7
 48
25.4
100
AcDbLine
 10
74.6717950735
 20
101.5159463595
 30
0.0
 11
74.6717950735
 21
102.0159463595
 31
0.0
  0
LINE
  5
8C
330
44
100
AcDbEntity
  8
MEGA_002151
  6
CONTINUOUS
 62
     7
 48
25.4
100
AcDbLine
 10
77.1717950735
 20
89.0159463595
 30
0.0
 11
77.1717950735
 21
94.5159463595
 31
0.0
  0
LINE
  5
8D
330
44
100
AcDbEntity
  8
MEGA_002151
  6
CONTINUOUS
 62
     7
 48
25.4
100
AcDbLine
 10
58.2312554235
 20
57.5159463595
 30
0.0
 11
57.9628108
 21
56.3899402093
 31
0.0
  0
ELLIPSE
  5
8E
330
44
100
AcDbEntity
  8
MEGA_002151
  6
CONTINUOUS
 62
     7
 48
25.4
100
AcDbEllipse
 10
61.8779900726
 20
56.4170845278
 30
0.0
 11
-1.323451250221497
 21
-3.774715457923858
 31
0.0
210
0.0
220
0.0
230
1.0
 40
0.9986247194
 41
5.290878319163091
 42
6.283185307179586
  0
ARC
  5
8F
330
44
100
AcDbEntity
  8
MEGA_002151
  6
CONTINUOUS
 62
     7
 48
25.4
100
AcDbCircle
 10
61.4672176159
 20
55.8492163082
 30
0.0
 40
3.490808110899991
100
AcDbArc
 50
186.4047806855
 51
217.4886982458
  0
ARC
  5
90
330
44
100
AcDbEntity
  8
MEGA_002151
  6
CONTINUOUS
 62
     7
 48
25.4
100
AcDbCircle
 10
77.1717950735
 20
86.5159463595
 30
0.0
 40
2.5
100
AcDbArc
 50
90.0
 51
180.0
  0
ARC
  5
91
330
44
100
AcDbEntity
  8
MEGA_002151
  6
CONTINUOUS
 62
     7
 48
25.4
100
AcDbCircle
 10
62.7418073136
 20
56.1060158559
 30
0.0
 40
4.787423181099996
100
AcDbArc
 50
176.6000042471
 51
187.7574545858
  0
ELLIPSE
  5
92
330
44
100
AcDbEntity
  8
MEGA_002151
  6
CONTINUOUS
 62
     7
 48
25.4
100
AcDbEllipse
 10
61.2215156151
 20
57.5159463595
 30
0.0
 11
-6.831630904692665E-14
 21
2.999999999999989
 31
0.0
210
0.0
220
0.0
230
1.0
 40
0.9967533972
 41
0.1756704943807052
 42
1.570796326794874
  0
LINE
  5
93
330
44
100
AcDbEntity
  8
MEGA_002151
  6
CONTINUOUS
 62
     7
 48
25.4
100
AcDbLine
 10
57.9871142202
 20
56.8620042623
 30
0.0
 11
57.9071803232
 21
56.5207764781
 31
0.0
  0
ARC
  5
94
330
44
100
AcDbEntity
  8
MEGA_002151
  6
CONTINUOUS
 62
     7
 48
25.4
100
AcDbCircle
 10
72.8164777365
 20
56.5158447559
 30
0.0
 40
3.972818635900012
100
AcDbArc
 50
291.3420797801
 51
315.5482615581
  0
LINE
  5
95
330
44
100
AcDbEntity
  8
MEGA_002151
  6
CONTINUOUS
 62
     7
 48
25.4
100
AcDbLine
 10
58.3005880351
 20
58.200184675
 30
0.0
 11
59.5663651801
 21
63.6036286054
 31
0.0
  0
LINE
  5
96
330
44
100
AcDbEntity
  8
MEGA_002151
  6
CONTINUOUS
 62
     7
 48
25.4
100
AcDbLine
 10
57.9871142202
 20
56.8620042623
 30
0.0
 11
58.0368168424
 21
57.0741785249
 31
0.0
  0
LINE
  5
97
330
44
100
AcDbEntity
  8
MEGA_002151
  6
CONTINUOUS
 62
     7
 48
25.4
100
AcDbLine
 10
58.0368168424
 20
57.0741785249
 30
0.0
 11
58.3005880351
 21
58.200184675
 31
0.0
  0
ELLIPSE
  5
98
330
44
100
AcDbEntity
  8
MEGA_002151
  6
CONTINUOUS
 62
     7
 48
25.4
100
AcDbEllipse
 10
61.2215156151
 20
57.5159463595
 30
0.0
 11
-2.920927579978349
 21
0.6842383155623926
 31
0.0
210
0.0
220
0.0
230
1.0
 40
0.9426283738
 41
0.0
 42
0.2435770172890409
  0
LINE
  5
99
330
44
100
AcDbEntity
  8
MEGA_002151
  6
CONTINUOUS
 62
     7
 48
25.4
100
AcDbLine
 10
59.4396103574
 20
57.5159463595
 30
0.0
 11
58.2312554235
 21
57.5159463595
 31
0.0
  0
SPLINE
  5
9A
330
44
100
AcDbEntity
  8
MEGA_002151
  6
CONTINUOUS
 62
     7
 48
25.4
100
AcDbSpline
210
0.0
220
0.0
230
1.0
 70
     8
 71
     3
 72
    17
 73
    13
 74
     0
 42
0.0000000001
 43
0.0000000001
 40
0.0
 40
0.0
 40
0.0
 40
0.0
 40
0.25
 40
0.25
 40
0.25
 40
0.5
 40
0.5
 40
0.5
 40
0.75
 40
0.75
 40
0.75
 40
1.0
 40
1.0
 40
1.0
 40
1.0
 10
60.8655342898774
 20
60.47454407679553
 30
0.0
 10
60.74938645047687
 20
59.99393798353525
 30
0.0
 10
60.63020825981821
 20
59.57217373036239
 30
0.0
 10
60.50936141597568
 20
59.20594875019924
 30
0.0
 10
60.3885145721332
 20
58.8397237700361
 30
0.0
 10
60.26598628050897
 20
58.52905869214331
 30
0.0
 10
60.14270539841088
 20
58.27587646442767
 30
0.0
 10
60.01942451631276
 20
58.02269423671203
 30
0.0
 10
59.89882244230451
 20
57.83405047414875
 30
0.0
 10
59.78150371442759
 20
57.7073838125286
 30
0.0
 10
59.66418498655066
 20
57.58071715090857
 30
0.0
 10
59.55010468229066
 20
57.51594635947599
 30
0.0
 10
59.43961035735646
 20
57.51594635947599
 30
0.0
  0
ARC
  5
9B
330
44
100
AcDbEntity
  8
MEGA_002151
  6
CONTINUOUS
 62
     7
 48
25.4
100
AcDbCircle
 10
10.8410396499
 20
72.5173674981
 30
0.0
 40
51.45366517500003
100
AcDbArc
 50
346.4642632307
 51
348.7045381082
  0
SPLINE
  5
9C
330
44
100
AcDbEntity
  8
MEGA_002151
  6
CONTINUOUS
 62
     7
 48
25.4
100
AcDbSpline
210
0.0
220
0.0
230
1.0
 70
     8
 71
     3
 72
    17
 73
    13
 74
     0
 42
0.0000000001
 43
0.0000000001
 40
0.0
 40
0.0
 40
0.0
 40
0.0
 40
0.25
 40
0.25
 40
0.25
 40
0.5
 40
0.5
 40
0.5
 40
0.75
 40
0.75
 40
0.75
 40
1.0
 40
1.0
 40
1.0
 40
1.0
 10
73.04553379294376
 20
62.43921661277929
 30
0.0
 10
72.77768091500536
 20
63.11878168207507
 30
0.0
 10
72.10364727529853
 20
63.82390119976849
 30
0.0
 10
71.08975078766896
 20
64.40432651588324
 30
0.0
 10
70.07585430003945
 20
64.98475183199804
 30
0.0
 10
68.67015729753264
 20
65.42414534795388
 30
0.0
 10
67.19242734306877
 20
65.42793323427021
 30
0.0
 10
65.71469738860486
 20
65.43172112058659
 30
0.0
 10
64.29600705837999
 20
64.99670846385303
 30
0.0
 10
63.27273294593172
 20
64.41510379867216
 30
0.0
 10
62.24945883348349
 20
63.83349913349129
 30
0.0
 10
61.56627926251937
 20
63.11972048057513
 30
0.0
 10
61.29805635396671
 20
62.43921661277929
 30
0.0
  0
ELLIPSE
  5
9D
330
44
100
AcDbEntity
  8
MEGA_002151
  6
CONTINUOUS
 62
     7
 48
25.4
100
AcDbEllipse
 10
63.8099335524
 20
60.4745440768
 30
0.0
 11
2.918834444679229
 21
-0.6931128945230906
 31
0.0
210
0.0
220
0.0
230
1.0
 40
0.7637781093
 41
3.14005801663366
 42
3.443023507273448
  0
ELLIPSE
  5
9E
330
44
100
AcDbEntity
  8
MEGA_002151
  6
CONTINUOUS
 62
     7
 48
25.4
100
AcDbEllipse
 10
64.2349257137
 20
62.4392166128
 30
0.0
 11
2.94338508652345
 21
-0.580072609619974
 31
0.0
210
0.0
220
0.0
230
0.9999999999999999
 40
0.6800569064
 41
3.140396188969505
 42
3.423660432947228
  0
ARC
  5
9F
330
44
100
AcDbEntity
  8
MEGA_002151
  6
CONTINUOUS
 62
     7
 48
25.4
100
AcDbCircle
 10
60.8281079029
 20
55.8365381612
 30
0.0
 40
3.0
100
AcDbArc
 50
166.8159734107
 51
224.5323986102
  0
ELLIPSE
  5
A0
330
44
100
AcDbEntity
  8
MEGA_002151
  6
CONTINUOUS
 62
     7
 48
25.4
100
AcDbEllipse
 10
70.1086644332
 20
62.4392166128
 30
0.0
 11
-2.943385086523456
 21
-0.5800726096199663
 31
0.0
210
0.0
220
0.0
230
1.0
 40
0.6800569064
 41
2.859524874232358
 42
3.142860610699067
  0
ELLIPSE
  5
A1
330
44
100
AcDbEntity
  8
MEGA_002151
  6
CONTINUOUS
 62
     7
 48
25.4
100
AcDbEllipse
 10
70.5336565946
 20
60.4745440768
 30
0.0
 11
-2.918834444679219
 21
-0.6931128945230765
 31
0.0
210
0.0
220
0.0
230
1.0
 40
0.7637781093
 41
2.840161799906147
 42
3.142949990444437
  0
LINE
  5
A2
330
44
100
AcDbEntity
  8
MEGA_002151
  6
CONTINUOUS
 62
     7
 48
25.4
100
AcDbLine
 10
77.1717950735
 20
89.0159463595
 30
0.0
 11
57.1717950735
 21
89.0159463595
 31
0.0
  0
ARC
  5
A3
330
44
100
AcDbEntity
  8
MEGA_002151
  6
CONTINUOUS
 62
     7
 48
25.4
100
AcDbCircle
 10
67.1718144551
 20
73.6952761522
 30
0.0
 40
19.99903599689998
100
AcDbArc
 50
259.304662316
 51
280.6951671529
  0
ARC
  5
A4
330
44
100
AcDbEntity
  8
MEGA_002151
  6
CONTINUOUS
 62
     7
 48
25.4
100
AcDbCircle
 10
73.5154822441
 20
55.8365381612
 30
0.0
 40
3.0
100
AcDbArc
 50
315.4543726666
 51
13.1840265893
  0
LINE
  5
A5
330
44
100
AcDbEntity
  8
MEGA_002151
  6
CONTINUOUS
 62
     7
 48
25.4
100
AcDbLine
 10
76.3067733046
 20
57.0741785249
 30
0.0
 11
76.3564759268
 21
56.8620042623
 31
0.0
  0
ARC
  5
A6
330
44
100
AcDbEntity
  8
MEGA_002151
  6
CONTINUOUS
 62
     7
 48
25.4
100
AcDbCircle
 10
61.503630821
 20
56.47509509
 30
0.0
 40
3.9261277512
100
AcDbArc
 50
224.2669705863
 51
248.7605908037
  0
ARC
  5
A7
330
44
100
AcDbEntity
  8
MEGA_002151
  6
CONTINUOUS
 62
     7
 48
25.4
100
AcDbCircle
 10
78.6717950735
 20
64.5159463595
 30
0.0
 40
4.0
100
AcDbArc
 50
180.0
 51
193.1758245992
  0
LINE
  5
A8
330
44
100
AcDbEntity
  8
MEGA_002151
  6
CONTINUOUS
 62
     7
 48
25.4
100
AcDbLine
 10
74.6717950735
 20
64.5159463595
 30
0.0
 11
74.6717950735
 21
86.5159463595
 31
0.0
  0
SPLINE
  5
A9
330
44
100
AcDbEntity
  8
MEGA_002151
  6
CONTINUOUS
 62
     7
 48
25.4
100
AcDbSpline
210
0.0
220
0.0
230
1.0
 70
     8
 71
     3
 72
   110
 73
   106
 74
     0
 42
0.0000000001
 43
0.0000000001
 40
0.0
 40
0.0
 40
0.0
 40
0.0
 40
0.0127253150521495
 40
0.0127253150521495
 40
0.0127253150521495
 40
0.0466182736483476
 40
0.0466182736483476
 40
0.0466182736483476
 40
0.0813914769498303
 40
0.0813914769498303
 40
0.0813914769498303
 40
0.1170841766315828
 40
0.1170841766315828
 40
0.1170841766315828
 40
0.1497395845011867
 40
0.1497395845011867
 40
0.1497395845011867
 40
0.1814738599480471
 40
0.1814738599480471
 40
0.1814738599480471
 40
0.2125988170636853
 40
0.2125988170636853
 40
0.2125988170636853
 40
0.2432342353073369
 40
0.2432342353073369
 40
0.2432342353073369
 40
0.2767745688626152
 40
0.2767745688626152
 40
0.2767745688626152
 40
0.3040178764074902
 40
0.3040178764074902
 40
0.3040178764074902
 40
0.3347215006841606
 40
0.3347215006841606
 40
0.3347215006841606
 40
0.3620851583063616
 40
0.3620851583063616
 40
0.3620851583063616
 40
0.3888947415748995
 40
0.3888947415748995
 40
0.3888947415748995
 40
0.4152285363859514
 40
0.4152285363859514
 40
0.4152285363859514
 40
0.441174296064219
 40
0.441174296064219
 40
0.441174296064219
 40
0.466819845784488
 40
0.466819845784488
 40
0.466819845784488
 40
0.4922513609748516
 40
0.4922513609748516
 40
0.4922513609748516
 40
0.5196367136086327
 40
0.5196367136086327
 40
0.5196367136086327
 40
0.545467890344764
 40
0.545467890344764
 40
0.545467890344764
 40
0.5713453790225402
 40
0.5713453790225402
 40
0.5713453790225402
 40
0.5974474051928429
 40
0.5974474051928429
 40
0.5974474051928429
 40
0.6239012658403723
 40
0.6239012658403723
 40
0.6239012658403723
 40
0.6508371113239144
 40
0.6508371113239144
 40
0.6508371113239144
 40
0.6783833499896455
 40
0.6783833499896455
 40
0.6783833499896455
 40
0.7066609880965866
 40
0.7066609880965866
 40
0.7066609880965866
 40
0.7339595251635805
 40
0.7339595251635805
 40
0.7339595251635805
 40
0.7612100881965429
 40
0.7612100881965429
 40
0.7612100881965429
 40
0.7922060437081934
 40
0.7922060437081934
 40
0.7922060437081934
 40
0.8234912505119036
 40
0.8234912505119036
 40
0.8234912505119036
 40
0.8552707725128781
 40
0.8552707725128781
 40
0.8552707725128781
 40
0.8878694611483287
 40
0.8878694611483287
 40
0.8878694611483287
 40
0.9235263060508543
 40
0.9235263060508543
 40
0.9235263060508543
 40
0.9613020016129087
 40
0.9613020016129087
 40
0.9613020016129087
 40
0.9983822369423735
 40
0.9983822369423735
 40
0.9983822369423735
 40
1.0
 40
1.0
 40
1.0
 40
1.0
 10
73.05229884959621
 20
63.02179527165364
 30
0.0
 10
73.03914848831062
 20
63.09631186779857
 30
0.0
 10
73.02778328540097
 20
63.15983879170994
 30
0.0
 10
73.01413441932056
 20
63.224620681959
 30
0.0
 10
72.97778164918861
 20
63.39716257306333
 30
0.0
 10
72.92522891975844
 20
63.57860700454754
 30
0.0
 10
72.86795200914168
 20
63.7553043502746
 30
0.0
 10
72.80918754183487
 20
63.936590758434
 30
0.0
 10
72.74545032044202
 20
64.11288030276374
 30
0.0
 10
72.67416279838776
 20
64.28756781915129
 30
0.0
 10
72.60099024382963
 20
64.46687454009143
 30
0.0
 10
72.51986280909253
 20
64.64449338913147
 30
0.0
 10
72.43216138202507
 20
64.81935617112139
 30
0.0
 10
72.35192296080254
 20
64.9793388991865
 30
0.0
 10
72.26618177893739
 20
65.13701466117539
 30
0.0
 10
72.17397268960497
 20
65.29306666056478
 30
0.0
 10
72.08436460229321
 20
65.44471679926251
 30
0.0
 10
71.98864835016566
 20
65.59483348844353
 30
0.0
 10
71.88681092197894
 20
65.7421464024322
 30
0.0
 10
71.7869288373734
 20
65.88663081450447
 30
0.0
 10
71.68115838101818
 20
66.02841808627625
 30
0.0
 10
71.56942656512591
 20
66.16679375463835
 30
0.0
 10
71.4594520871446
 20
66.30299302582992
 30
0.0
 10
71.3437022975816
 20
66.43588716627713
 30
0.0
 10
71.22244341414726
 20
66.56460534621544
 30
0.0
 10
71.08968650629046
 20
66.70552885688602
 30
0.0
 10
70.95032620308481
 20
66.8414469131487
 30
0.0
 10
70.80416935400852
 20
66.97187255497073
 30
0.0
 10
70.68545270551088
 20
67.07781144988473
 30
0.0
 10
70.56225197895714
 20
67.18012667837509
 30
0.0
 10
70.43463172465565
 20
67.27763605445681
 30
0.0
 10
70.29080174616601
 20
67.38753061266112
 30
0.0
 10
70.14135824495834
 20
67.49132095267419
 30
0.0
 10
69.9869812216174
 20
67.58828175845861
 30
0.0
 10
69.84939746364235
 20
67.67469508440183
 30
0.0
 10
69.70789514936848
 20
67.75568390557008
 30
0.0
 10
69.56280336702375
 20
67.830630244194
 30
0.0
 10
69.42064948269817
 20
67.90405902823127
 30
0.0
 10
69.27505002164442
 20
67.97168755528787
 30
0.0
 10
69.12648509263788
 20
68.03291722045258
 30
0.0
 10
68.98055673868365
 20
68.09306024552852
 30
0.0
 10
68.83176723883977
 20
68.14702951398604
 30
0.0
 10
68.68065441731049
 20
68.19428800132837
 30
0.0
 10
68.53176828145976
 20
68.24085012289649
 30
0.0
 10
68.38062678893247
 20
68.28089777637014
 30
0.0
 10
68.22784041893121
 20
68.31398424948677
 30
0.0
 10
68.07682189039186
 20
68.34668788976944
 30
0.0
 10
67.92419632884744
 20
68.37259050884248
 30
0.0
 10
67.77063137453118
 20
68.39136643444394
 30
0.0
 10
67.61834805399414
 20
68.40998565853369
 30
0.0
 10
67.46514095536082
 20
68.4215966497253
 30
0.0
 10
67.31170248441654
 20
68.4259662869634
 30
0.0
 10
67.14647573316145
 20
68.43067163211292
 30
0.0
 10
66.98098069246095
 20
68.42698021263493
 30
0.0
 10
66.8161450770961
 20
68.41500222350594
 30
0.0
 10
66.66066422680953
 20
68.40370401025042
 30
0.0
 10
66.5057700782081
 20
68.38503309819905
 30
0.0
 10
66.35216196322725
 20
68.35928356300624
 30
0.0
 10
66.19827844886645
 20
68.33348786224447
 30
0.0
 10
66.04568558364218
 20
68.30058813348589
 30
0.0
 10
65.89503242558462
 20
68.2609726208936
 30
0.0
 10
65.74307205867177
 20
68.22101336675928
 30
0.0
 10
65.59308520642168
 20
68.1742212782181
 30
0.0
 10
65.44564920549168
 20
68.12108978793869
 30
0.0
 10
65.29622588495771
 20
68.06724212758152
 30
0.0
 10
65.14942264608439
 20
68.00688301353708
 30
0.0
 10
65.00573178247315
 20
67.94056541878973
 30
0.0
 10
64.85942289579694
 20
67.87303952875973
 30
0.0
 10
64.71634083146824
 20
67.79933605502913
 30
0.0
 10
64.57693590384945
 20
67.72008943792984
 30
0.0
 10
64.43437192122961
 20
67.63904701327672
 30
0.0
 10
64.2956536187928
 20
67.55220737239631
 30
0.0
 10
64.1610300383085
 20
67.4600283725127
 30
0.0
 10
64.02283197301939
 20
67.36540186355799
 30
0.0
 10
63.88894896008252
 20
67.26514869328332
 30
0.0
 10
63.7601236162596
 20
67.16030372882997
 30
0.0
 10
63.63575879448
 20
67.05908897611285
 30
0.0
 10
63.51610746602626
 20
66.95359490208652
 30
0.0
 10
63.40074111897423
 20
66.84454655414851
 30
0.0
 10
63.28557751498665
 20
66.73568984611933
 30
0.0
 10
63.1746838449122
 20
66.62329134565526
 30
0.0
 10
63.06826031005536
 20
66.50771240018733
 30
0.0
 10
62.94720963129233
 20
66.37624796594882
 30
0.0
 10
62.8319423062916
 20
66.24066874822304
 30
0.0
 10
62.72255518755929
 20
66.1018428022479
 30
0.0
 10
62.61214727869796
 20
65.96172134582379
 30
0.0
 10
62.5077298352244
 20
65.81829228209568
 30
0.0
 10
62.40923606151746
 20
65.67228998156787
 30
0.0
 10
62.30918605807284
 20
65.52398080301813
 30
0.0
 10
62.21524839457934
 20
65.37301642951083
 30
0.0
 10
62.12735197290023
 20
65.22054578926667
 30
0.0
 10
62.03718988416898
 20
65.06414498099733
 30
0.0
 10
61.95338449605769
 20
64.90615925244286
 30
0.0
 10
61.874994494421
 20
64.74573847062925
 30
0.0
 10
61.7892505504997
 20
64.57026825462641
 30
0.0
 10
61.70998571160941
 20
64.39188467945778
 30
0.0
 10
61.63926370246736
 20
64.21207392791523
 30
0.0
 10
61.564339151678
 20
64.02157821166144
 30
0.0
 10
61.49900288439603
 20
63.82948066415367
 30
0.0
 10
61.43779046772838
 20
63.63116301489047
 30
0.0
 10
61.37770498733283
 20
63.43649644435479
 30
0.0
 10
61.32159291298686
 20
63.23583669117133
 30
0.0
 10
61.29173438794933
 20
63.0475334492574
 30
0.0
 10
61.2904316988393
 20
63.03931802058788
 30
0.0
 10
61.28917898243791
 20
63.03112611210332
 30
0.0
 10
61.28772834280816
 20
63.02162279282586
 30
0.0
  0
LINE
  5
AA
330
44
100
AcDbEntity
  8
MEGA_002151
  6
CONTINUOUS
 62
     7
 48
25.4
100
AcDbLine
 10
59.6717950735
 20
102.0159463595
 30
0.0
 11
59.6717950735
 21
101.5159463595
 31
0.0
  0
LINE
  5
AB
330
44
100
AcDbEntity
  8
MEGA_002151
  6
CONTINUOUS
 62
     7
 48
25.4
100
AcDbLine
 10
57.1717950735
 20
94.5159463595
 30
0.0
 11
57.1717950735
 21
89.0159463595
 31
0.0
  0
ARC
  5
AC
330
44
100
AcDbEntity
  8
MEGA_002151
  6
CONTINUOUS
 62
     7
 48
25.4
100
AcDbCircle
 10
57.1717950735
 20
86.5159463595
 30
0.0
 40
2.5
100
AcDbArc
 50
0.0
 51
90.0
  0
ARC
  5
AD
330
44
100
AcDbEntity
  8
MEGA_002151
  6
CONTINUOUS
 62
     7
 48
25.4
100
AcDbCircle
 10
55.6717950735
 20
64.5159463595
 30
0.0
 40
4.0
100
AcDbArc
 50
346.8091864014
 51
360.0
  0
LINE
  5
AE
330
44
100
AcDbEntity
  8
MEGA_002151
  6
CONTINUOUS
 62
     7
 48
25.4
100
AcDbLine
 10
59.6717950735
 20
86.5159463595
 30
0.0
 11
59.6717950735
 21
64.5159463595
 31
0.0
  0
LINE
  5
B0
330
44
100
AcDbEntity
  8
MEGA_002304
  6
CONTINUOUS
 62
     7
 48
25.4
100
AcDbLine
 10
32.6717950735
 20
101.5159463595
 30
0.0
 11
45.6717950735
 21
101.5159463595
 31
0.0
  0
LINE
  5
B1
330
44
100
AcDbEntity
  8
MEGA_002304
  6
CONTINUOUS
 62
     7
 48
25.4
100
AcDbLine
 10
88.6717950735
 20
98.5159463595
 30
0.0
 11
88.6717950735
 21
97.5159463595
 31
0.0
  0
LINE
  5
B2
330
44
100
AcDbEntity
  8
MEGA_002304
  6
CONTINUOUS
 62
     7
 48
25.4
100
AcDbLine
 10
71.9682434637
 20
98.3682491366
 30
0.0
 11
72.0681694718
 21
97.4051734423
 31
0.0
  0
LINE
  5
B3
330
44
100
AcDbEntity
  8
MEGA_002304
  6
CONTINUOUS
 62
     7
 48
25.4
100
AcDbLine
 10
62.3753466833
 20
98.3682491366
 30
0.0
 11
62.2754206752
 21
97.4051734423
 31
0.0
  0
ARC
  5
B4
330
44
100
AcDbEntity
  8
MEGA_002304
  6
CONTINUOUS
 62
     7
 48
25.4
100
AcDbCircle
 10
100.6717950735
 20
98.5159463595
 30
0.0
 40
1.0
100
AcDbArc
 50
270.0
 51
360.0
  0
LINE
  5
B5
330
44
100
AcDbEntity
  8
MEGA_002304
  6
CONTINUOUS
 62
     7
 48
25.4
100
AcDbLine
 10
59.9606925226
 20
98.5159463595
 30
0.0
 11
59.9606925226
 21
97.5159463595
 31
0.0
  0
ARC
  5
B6
330
44
100
AcDbEntity
  8
MEGA_002304
  6
CONTINUOUS
 62
     7
 48
25.4
100
AcDbCircle
 10
81.1717950735
 20
94.5159463595
 30
0.0
 40
3.0
100
AcDbArc
 50
90.0
 51
180.0
  0
LINE
  5
B7
330
44
100
AcDbEntity
  8
MEGA_002304
  6
CONTINUOUS
 62
     7
 48
25.4
100
AcDbLine
 10
45.6717950735
 20
98.5159463595
 30
0.0
 11
45.6717950735
 21
97.5159463595
 31
0.0
  0
ARC
  5
B8
330
44
100
AcDbEntity
  8
MEGA_002304
  6
CONTINUOUS
 62
     7
 48
25.4
100
AcDbCircle
 10
53.1717950735
 20
94.5159463595
 30
0.0
 40
3.0
100
AcDbArc
 50
0.0
 51
90.0
  0
ARC
  5
B9
330
44
100
AcDbEntity
  8
MEGA_002304
  6
CONTINUOUS
 62
     7
 48
25.4
100
AcDbCircle
 10
33.6717950735
 20
98.5159463595
 30
0.0
 40
1.0
100
AcDbArc
 50
180.0
 51
270.0
  0
LINE
  5
BA
330
44
100
AcDbEntity
  8
MEGA_002304
  6
CONTINUOUS
 62
     7
 48
25.4
100
AcDbLine
 10
101.6717950735
 20
98.5159463595
 30
0.0
 11
101.6717950735
 21
101.5159463595
 31
0.0
  0
ELLIPSE
  5
BB
330
44
100
AcDbEntity
  8
MEGA_002304
  6
CONTINUOUS
 62
     7
 48
25.4
100
AcDbEllipse
 10
61.9756426508
 20
94.5159463595
 30
0.0
 11
1.083690953073356E-15
 21
2.999999999999997
 31
0.0
210
0.0
220
0.0
230
0.9999999999999999
 40
0.3711537445
 41
4.71238898038469
 42
6.01059108805239
  0
ELLIPSE
  5
BC
330
44
100
AcDbEntity
  8
MEGA_002304
  6
CONTINUOUS
 62
     7
 48
25.4
100
AcDbEllipse
 10
72.3679474962
 20
94.5159463595
 30
0.0
 11
-2.416309046926644E-15
 21
2.999999999999997
 31
0.0
210
0.0
220
0.0
230
0.9999999999999999
 40
0.3711537445
 41
0.2725942191271957
 42
1.570796326794896
  0
LINE
  5
BD
330
44
100
AcDbEntity
  8
MEGA_002304
  6
CONTINUOUS
 62
     7
 48
25.4
100
AcDbLine
 10
74.3828976244
 20
98.5159463595
 30
0.0
 11
74.3828976244
 21
97.5159463595
 31
0.0
  0
LINE
  5
BE
330
44
100
AcDbEntity
  8
MEGA_002304
  6
CONTINUOUS
 62
     7
 48
25.4
100
AcDbLine
 10
32.6717950735
 20
101.5159463595
 30
0.0
 11
32.6717950735
 21
98.5159463595
 31
0.0
  0
LINE
  5
BF
330
44
100
AcDbEntity
  8
MEGA_002304
  6
CONTINUOUS
 62
     7
 48
25.4
100
AcDbLine
 10
63.0891038842
 20
94.5159463595
 30
0.0
 11
71.2544862628
 21
94.5159463595
 31
0.0
  0
LINE
  5
C0
330
44
100
AcDbEntity
  8
MEGA_002304
  6
CONTINUOUS
 62
     7
 48
25.4
100
AcDbLine
 10
101.6717950735
 20
101.5159463595
 30
0.0
 11
88.6717950735
 21
101.5159463595
 31
0.0
  0
LINE
  5
C1
330
44
100
AcDbEntity
  8
MEGA_002304
  6
CONTINUOUS
 62
     7
 48
25.4
100
AcDbLine
 10
56.1717950735
 20
94.5159463595
 30
0.0
 11
63.0891038842
 21
94.5159463595
 31
0.0
  0
LINE
  5
C2
330
44
100
AcDbEntity
  8
MEGA_002304
  6
CONTINUOUS
 62
     7
 48
25.4
100
AcDbLine
 10
71.2544862628
 20
94.5159463595
 30
0.0
 11
78.1717950735
 21
94.5159463595
 31
0.0
  0
LINE
  5
C3
330
44
100
AcDbEntity
  8
MEGA_002304
  6
CONTINUOUS
 62
     7
 48
25.4
100
AcDbLine
 10
88.6717950735
 20
101.5159463595
 30
0.0
 11
45.6717950735
 21
101.5159463595
 31
0.0
  0
LINE
  5
C4
330
44
100
AcDbEntity
  8
MEGA_002304
  6
CONTINUOUS
 62
     7
 48
25.4
100
AcDbLine
 10
88.6717950735
 20
98.5159463595
 30
0.0
 11
88.6717950735
 21
101.5159463595
 31
0.0
  0
LINE
  5
C5
330
44
100
AcDbEntity
  8
MEGA_002304
  6
CONTINUOUS
 62
     7
 48
25.4
100
AcDbLine
 10
45.6717950735
 20
98.5159463595
 30
0.0
 11
45.6717950735
 21
101.5159463595
 31
0.0
  0
ARC
  5
C6
330
44
100
AcDbEntity
  8
MEGA_002304
  6
CONTINUOUS
 62
     7
 48
25.4
100
AcDbCircle
 10
67.1717950735
 20
42.6877894498
 30
0.0
 40
51.98871239030001
100
AcDbArc
 50
85.4959054484
 51
94.5040945516
  0
ARC
  5
C7
330
44
100
AcDbEntity
  8
MEGA_002304
  6
CONTINUOUS
 62
     7
 48
25.4
100
AcDbCircle
 10
74.6078983384
 20
68.5744496612
 30
0.0
 40
28.9423712999
100
AcDbArc
 50
90.4454272604
 51
95.0342505021
  0
ARC
  5
C8
330
44
100
AcDbEntity
  8
MEGA_002304
  6
CONTINUOUS
 62
     7
 48
25.4
100
AcDbCircle
 10
74.5869536476
 20
75.3678515556
 30
0.0
 40
23.14899418789997
100
AcDbArc
 50
90.5050629946
 51
96.495440426
  0
ARC
  5
C9
330
44
100
AcDbEntity
  8
MEGA_002304
  6
CONTINUOUS
 62
     7
 48
25.4
100
AcDbCircle
 10
59.7566364994
 20
75.3678515556
 30
0.0
 40
23.14899418789997
100
AcDbArc
 50
83.504559574
 51
89.4949370054
  0
LINE
  5
CA
330
44
100
AcDbEntity
  8
MEGA_002304
  6
CONTINUOUS
 62
     7
 48
25.4
100
AcDbLine
 10
45.6717950735
 20
98.5159463595
 30
0.0
 11
59.9606925226
 21
98.5159463595
 31
0.0
  0
ARC
  5
CB
330
44
100
AcDbEntity
  8
MEGA_002304
  6
CONTINUOUS
 62
     7
 48
25.4
100
AcDbCircle
 10
67.1717950735
 20
150.722690549
 30
0.0
 40
52.57369544520003
100
AcDbArc
 50
264.765463642
 51
275.234536358
  0
ARC
  5
CC
330
44
100
AcDbEntity
  8
MEGA_002304
  6
CONTINUOUS
 62
     7
 48
25.4
100
AcDbCircle
 10
59.7354854671
 20
68.5701379186
 30
0.0
 40
28.94668451680002
100
AcDbArc
 50
84.9660915608
 51
89.5542306767
  0
LINE
  5
CD
330
44
100
AcDbEntity
  8
MEGA_002304
  6
CONTINUOUS
 62
     7
 48
25.4
100
AcDbLine
 10
74.3828976244
 20
98.5159463595
 30
0.0
 11
88.6717950735
 21
98.5159463595
 31
0.0
  0
LINE
  5
CE
330
44
100
AcDbEntity
  8
MEGA_002304
  6
CONTINUOUS
 62
     7
 48
25.4
100
AcDbLine
 10
33.6717950735
 20
97.5159463595
 30
0.0
 11
45.6717950735
 21
97.5159463595
 31
0.0
  0
LINE
  5
CF
330
44
100
AcDbEntity
  8
MEGA_002304
  6
CONTINUOUS
 62
     7
 48
25.4
100
AcDbLine
 10
59.9606925226
 20
97.5159463595
 30
0.0
 11
45.6717950735
 21
97.5159463595
 31
0.0
  0
ARC
  5
D0
330
44
100
AcDbEntity
  8
MEGA_002304
  6
CONTINUOUS
 62
     7
 48
25.4
100
AcDbCircle
 10
67.1717950735
 20
192.1180986576
 30
0.0
 40
94.83940470650005
100
AcDbArc
 50
267.040614425
 51
272.959385575
  0
LINE
  5
D1
330
44
100
AcDbEntity
  8
MEGA_002304
  6
CONTINUOUS
 62
     7
 48
25.4
100
AcDbLine
 10
45.6717950735
 20
98.5159463595
 30
0.0
 11
32.6717950735
 21
98.5159463595
 31
0.0
  0
LINE
  5
D2
330
44
100
AcDbEntity
  8
MEGA_002304
  6
CONTINUOUS
 62
     7
 48
25.4
100
AcDbLine
 10
101.6717950735
 20
98.5159463595
 30
0.0
 11
88.6717950735
 21
98.5159463595
 31
0.0
  0
LINE
  5
D3
330
44
100
AcDbEntity
  8
MEGA_002304
  6
CONTINUOUS
 62
     7
 48
25.4
100
AcDbLine
 10
88.6717950735
 20
97.5159463595
 30
0.0
 11
74.3828976244
 21
97.5159463595
 31
0.0
  0
LINE
  5
D4
330
44
100
AcDbEntity
  8
MEGA_002304
  6
CONTINUOUS
 62
     7
 48
25.4
100
AcDbLine
 10
100.6717950735
 20
97.5159463595
 30
0.0
 11
88.6717950735
 21
97.5159463595
 31
0.0
  0
LINE
  5
D6
330
44
100
AcDbEntity
  8
MEGA_002634
  6
CONTINUOUS
 62
     7
 48
25.4
100
AcDbLine
 10
64.0117950735
 20
136.5159463595
 30
0.0
 11
70.3317950735
 21
136.5159463595
 31
0.0
  0
LINE
  5
D7
330
44
100
AcDbEntity
  8
MEGA_002634
  6
CONTINUOUS
 62
     7
 48
25.4
100
AcDbLine
 10
63.6717950735
 20
134.7261988912
 30
0.0
 11
63.6717950735
 21
102.0159463595
 31
0.0
  0
LINE
  5
D8
330
44
100
AcDbEntity
  8
MEGA_002634
  6
CONTINUOUS
 62
     7
 48
25.4
100
AcDbLine
 10
70.6717950735
 20
134.7261988912
 30
0.0
 11
70.6717950735
 21
102.0159463595
 31
0.0
  0
LINE
  5
D9
330
44
100
AcDbEntity
  8
MEGA_002634
  6
CONTINUOUS
 62
     7
 48
25.4
100
AcDbLine
 10
70.6717950735
 20
136.1759463595
 30
0.0
 11
70.3317950735
 21
136.5159463595
 31
0.0
  0
LINE
  5
DA
330
44
100
AcDbEntity
  8
MEGA_002634
  6
CONTINUOUS
 62
     7
 48
25.4
100
AcDbLine
 10
64.0117950735
 20
136.5159463595
 30
0.0
 11
63.6717950735
 21
136.1759463595
 31
0.0
  0
SPLINE
  5
DB
330
44
100
AcDbEntity
  8
MEGA_002634
  6
CONTINUOUS
 62
     7
 48
25.4
100
AcDbSpline
210
0.0
220
0.0
230
1.0
 70
     8
 71
     3
 72
    17
 73
    13
 74
     0
 42
0.0000000001
 43
0.0000000001
 40
0.0
 40
0.0
 40
0.0
 40
0.0
 40
0.2499999999999999
 40
0.2499999999999999
 40
0.2499999999999999
 40
0.4999999999999999
 40
0.4999999999999999
 40
0.4999999999999999
 40
0.7499999999999999
 40
0.7499999999999999
 40
0.7499999999999999
 40
1.0
 40
1.0
 40
1.0
 40
1.0
 10
70.67179507345526
 20
134.7261988911701
 30
0.0
 10
70.15506174303623
 20
135.0915845331747
 30
0.0
 10
69.61082116457804
 20
135.4409134750651
 30
0.0
 10
69.02982211136042
 20
135.7133380677587
 30
0.0
 10
68.44882305814282
 20
135.9857626604523
 30
0.0
 10
67.8147717393248
 20
136.1755228918903
 30
0.0
 10
67.17410433800913
 20
136.1759455976613
 30
0.0
 10
66.53343693669348
 20
136.1763683034324
 30
0.0
 10
65.90051690875126
 20
135.9881154806991
 30
0.0
 10
65.31674512496278
 20
135.7147331221709
 30
0.0
 10
64.73297334117429
 20
135.4413507636425
 30
0.0
 10
64.19212061383011
 20
135.0941246091938
 30
0.0
 10
63.67179507345522
 20
134.7261988911701
 30
0.0
  0
LINE
  5
DC
330
44
100
AcDbEntity
  8
MEGA_002634
  6
CONTINUOUS
 62
     7
 48
25.4
100
AcDbLine
 10
63.6717950735
 20
136.1759455977
 30
0.0
 11
63.6717950735
 21
134.7261988912
 31
0.0
  0
LINE
  5
DD
330
44
100
AcDbEntity
  8
MEGA_002634
  6
CONTINUOUS
 62
     7
 48
25.4
100
AcDbLine
 10
70.6717950735
 20
136.1759455977
 30
0.0
 11
70.6717950735
 21
134.7261988912
 31
0.0
  0
ENDBLK
  5
DF
330
44
100
AcDbEntity
  8
0
100
AcDbBlockEnd
  0
BLOCK
  5
186
330
E0
100
AcDbEntity
  8
0
100
AcDbBlockBegin
  2
SE5
 70
     0
 71
     0
 10
0.0
 20
0.0
 30
0.0
  3
SE5
  1

  0
LINE
  5
E2
330
E0
100
AcDbEntity
  8
MEGA_002151
  6
CONTINUOUS
 62
     7
 48
25.4
100
AcDbLine
 10
163.9090031805
 20
102.0159463595
 30
0.0
 11
148.9090031805
 21
102.0159463595
 31
0.0
  0
ELLIPSE
  5
E3
330
E0
100
AcDbEntity
  8
MEGA_002151
  6
CONTINUOUS
 62
     7
 48
25.4
100
AcDbEllipse
 10
180.600317699
 20
57.5159463595
 30
0.0
 11
1.836909530733572E-16
 21
3.00000000000001
 31
0.0
210
0.0
220
0.0
230
1.0
 40
0.1428718477
 41
4.71238898038469
 42
6.283185307179586
  0
ARC
  5
E4
330
E0
100
AcDbEntity
  8
MEGA_002151
  6
CONTINUOUS
 62
     7
 48
25.4
100
AcDbCircle
 10
132.217688662
 20
70.5159463595
 30
0.0
 40
10.0
100
AcDbArc
 50
230.5713023618
 51
270.0
  0
LINE
  5
E5
330
E0
100
AcDbEntity
  8
MEGA_002151
  6
CONTINUOUS
 62
     7
 48
25.4
100
AcDbLine
 10
186.4896526066
 20
53.6761902513
 30
0.0
 11
186.4899513264
 21
54.0267635104
 31
0.0
  0
LINE
  5
E6
330
E0
100
AcDbEntity
  8
MEGA_002151
  6
CONTINUOUS
 62
     7
 48
25.4
100
AcDbLine
 10
148.9090031805
 20
86.5159463595
 30
0.0
 11
163.9090031805
 21
86.5159463595
 31
0.0
  0
ARC
  5
E7
330
E0
100
AcDbEntity
  8
MEGA_002151
  6
CONTINUOUS
 62
     7
 48
25.4
100
AcDbCircle
 10
191.0654528382
 20
52.3426273297
 30
0.0
 40
14.3344469585
100
AcDbArc
 50
180.2020891579
 51
183.1456797322
  0
ARC
  5
E8
330
E0
100
AcDbEntity
  8
MEGA_002151
  6
CONTINUOUS
 62
     7
 48
25.4
100
AcDbCircle
 10
182.2296383852
 20
67.8200334494
 30
0.0
 40
14.41651277189999
100
AcDbArc
 50
325.1786157358
 51
346.4297111529
  0
LINE
  5
E9
330
E0
100
AcDbEntity
  8
MEGA_002151
  6
CONTINUOUS
 62
     7
 48
25.4
100
AcDbLine
 10
186.546509766
 20
54.0436653787
 30
0.0
 11
186.4899513264
 21
54.0267635104
 31
0.0
  0
ARC
  5
EA
330
E0
100
AcDbEntity
  8
MEGA_002151
  6
CONTINUOUS
 62
     7
 48
25.4
100
AcDbCircle
 10
174.8257488305
 20
91.3279856121
 30
0.0
 40
39.08241023969998
100
AcDbArc
 50
272.7944361635
 51
287.3646180954
  0
ELLIPSE
  5
EB
330
E0
100
AcDbEntity
  8
MEGA_002151
  6
CONTINUOUS
 62
     7
 48
25.4
100
AcDbEllipse
 10
190.7583026843
 20
61.825355682
 30
0.0
 11
3.296201309492054
 21
-2.266066399579442
 31
0.0
210
0.0
220
0.0
230
0.9999999999999999
 40
0.117278773
 41
0.0626020822862192
 42
1.401830148373134
  0
LINE
  5
EC
330
E0
100
AcDbEntity
  8
MEGA_002151
  6
CONTINUOUS
 62
     7
 48
25.4
100
AcDbLine
 10
170.0419456552
 20
60.5159463595
 30
0.0
 11
170.0419456552
 21
58.200184675
 31
0.0
  0
ELLIPSE
  5
ED
330
E0
100
AcDbEntity
  8
MEGA_002151
  6
CONTINUOUS
 62
     7
 48
25.4
100
AcDbEllipse
 10
166.2453202906
 20
56.3899402093
 30
0.0
 11
-0.7232460738199591
 21
2.911514230893712
 31
0.0
210
0.0
220
0.0
230
1.0
 40
0.0563845311
 41
4.698383476351397
 42
4.935589805609071
  0
ELLIPSE
  5
EE
330
E0
100
AcDbEntity
  8
MEGA_002151
  6
CONTINUOUS
 62
     7
 48
25.4
100
AcDbEllipse
 10
164.7818678699
 20
56.1777659467
 30
0.0
 11
-0.2810361446900741
 21
2.986807440290826
 31
0.0
210
0.0
220
0.0
230
1.0
 40
0.0219393107
 41
4.467572370016436
 42
4.941463641463715
  0
ELLIPSE
  5
EF
330
E0
100
AcDbEntity
  8
MEGA_002151
  6
CONTINUOUS
 62
     7
 48
25.4
100
AcDbEllipse
 10
175.8750205336
 20
56.1244631578
 30
0.0
 11
-0.1321737195882289
 21
-3.997815667067502
 31
0.0
210
0.0
220
0.0
230
1.0
 40
0.1155853401
 41
0.2785963949693869
 42
1.574617731090493
  0
ELLIPSE
  5
F0
330
E0
100
AcDbEntity
  8
MEGA_002151
  6
CONTINUOUS
 62
     7
 48
25.4
100
AcDbEllipse
 10
148.0361384911
 20
56.1777659467
 30
0.0
 11
0.2810361446903972
 21
2.986807440290701
 31
0.0
210
0.0
220
0.0
230
1.0
 40
0.0219393107
 41
1.341721665715753
 42
1.815612937163183
  0
ELLIPSE
  5
F1
330
E0
100
AcDbEntity
  8
MEGA_002151
  6
CONTINUOUS
 62
     7
 48
25.4
100
AcDbEllipse
 10
148.0800357069
 20
56.4170845278
 30
0.0
 11
0.06947065917497335
 21
-3.999396682940304
 31
0.0
210
0.0
220
0.0
230
1.0
 40
0.0494749679
 41
4.953230655018952
 42
5.945537643035746
  0
LINE
  5
F2
330
E0
100
AcDbEntity
  8
MEGA_002151
  6
CONTINUOUS
 62
     7
 48
25.4
100
AcDbLine
 10
142.7760607057
 20
58.200184675
 30
0.0
 11
142.7760607057
 21
60.5159463595
 31
0.0
  0
ELLIPSE
  5
F3
330
E0
100
AcDbEntity
  8
MEGA_002151
  6
CONTINUOUS
 62
     7
 48
25.4
100
AcDbEllipse
 10
142.7760607057
 20
57.5159463595
 30
0.0
 11
0.9779729926666566
 21
2.83611861980205
 31
0.0
210
0.0
220
0.0
230
0.9999999999999999
 40
0.0761429291
 41
1.353469489175778
 42
1.597046506463223
  0
LINE
  5
F4
330
E0
100
AcDbEntity
  8
MEGA_002151
  6
CONTINUOUS
 62
     7
 48
25.4
100
AcDbLine
 10
146.5680594063
 20
58.200184675
 30
0.0
 11
146.5680594063
 21
60.5159463595
 31
0.0
  0
ARC
  5
F5
330
E0
100
AcDbEntity
  8
MEGA_002151
  6
CONTINUOUS
 62
     7
 48
25.4
100
AcDbCircle
 10
180.600317699
 20
70.5159463595
 30
0.0
 40
10.0
100
AcDbArc
 50
270.0
 51
309.4286976382
  0
ELLIPSE
  5
F6
330
E0
100
AcDbEntity
  8
MEGA_002151
  6
CONTINUOUS
 62
     7
 48
25.4
100
AcDbEllipse
 10
142.7760607057
 20
57.5159463595
 30
0.0
 11
-1.836909530733555E-16
 21
-2.999999999999982
 31
0.0
210
0.0
220
0.0
230
1.0
 40
0.0805149997
 41
3.141592653589794
 42
4.71238898038469
  0
ELLIPSE
  5
F7
330
E0
100
AcDbEntity
  8
MEGA_002151
  6
CONTINUOUS
 62
     7
 48
25.4
100
AcDbEllipse
 10
185.2584843395
 20
57.7649259433
 30
0.0
 11
1.195860895626555
 21
-3.817056027662046
 31
0.0
210
0.0
220
0.0
230
0.9999999999999999
 40
0.1637710587
 41
0.178928507604336
 42
1.519532783824331
  0
ELLIPSE
  5
F8
330
E0
100
AcDbEntity
  8
MEGA_002151
  6
CONTINUOUS
 62
     7
 48
25.4
100
AcDbEllipse
 10
185.1794444173
 20
57.7398960941
 30
0.0
 11
1.219312218530257
 21
-3.809629603221711
 31
0.0
210
0.0
220
0.0
230
1.0
 40
0.1630118888
 41
0.1792731745366864
 42
1.518669912281113
  0
LINE
  5
F9
330
E0
100
AcDbEntity
  8
MEGA_002151
  6
CONTINUOUS
 62
     7
 48
25.4
100
AcDbLine
 10
176.3376111311
 20
56.1244631578
 30
0.0
 11
176.8633326928
 21
56.1302829871
 31
0.0
  0
LINE
  5
FA
330
E0
100
AcDbEntity
  8
MEGA_002151
  6
CONTINUOUS
 62
     7
 48
25.4
100
AcDbLine
 10
185.863145421
 20
57.7398960941
 30
0.0
 11
185.9440636486
 21
57.7649259433
 31
0.0
  0
ARC
  5
FB
330
E0
100
AcDbEntity
  8
MEGA_002151
  6
CONTINUOUS
 62
     7
 48
25.4
100
AcDbCircle
 10
182.8492833172
 20
67.9904718904
 30
0.0
 40
10.6836068449
100
AcDbArc
 50
286.8385362754
 51
324.7557531901
  0
ARC
  5
FC
330
E0
100
AcDbEntity
  8
MEGA_002151
  6
CONTINUOUS
 62
     7
 48
25.4
100
AcDbCircle
 10
174.9120020363
 20
93.0058228113
 30
0.0
 40
36.92713268929998
100
AcDbArc
 50
273.0290764723
 51
287.2511588755
  0
ARC
  5
FD
330
E0
100
AcDbEntity
  8
MEGA_002151
  6
CONTINUOUS
 62
     7
 48
25.4
100
AcDbCircle
 10
150.6500523556
 20
-718.1451710027
 30
0.0
 40
774.6956286562
100
AcDbArc
 50
88.0998233618
 51
88.8336183066
  0
ELLIPSE
  5
FE
330
E0
100
AcDbEntity
  8
MEGA_002151
  6
CONTINUOUS
 62
     7
 48
25.4
100
AcDbEllipse
 10
176.388538842
 20
56.1302829871
 30
0.0
 11
0.2230433351525089
 21
-3.993776617519325
 31
0.0
210
0.0
220
0.0
230
0.9999999999999999
 40
0.1185163822
 41
0.273463678658315
 42
1.564177553219027
  0
ARC
  5
FF
330
E0
100
AcDbEntity
  8
MEGA_002151
  6
CONTINUOUS
 62
     7
 48
25.4
100
AcDbCircle
 10
125.7987854781
 20
72.9860197882
 30
0.0
 40
12.054527603
100
AcDbArc
 50
219.2799964702
 51
247.7965776688
  0
LINE
  5
100
330
E0
100
AcDbEntity
  8
MEGA_002151
  6
CONTINUOUS
 62
     7
 48
25.4
100
AcDbLine
 10
176.7311249096
 20
52.2920491926
 30
0.0
 11
175.8750205336
 21
52.2765923574
 31
0.0
  0
ARC
  5
101
330
E0
100
AcDbEntity
  8
MEGA_002151
  6
CONTINUOUS
 62
     7
 48
25.4
100
AcDbCircle
 10
151.746542243
 20
-512.6479173287
 30
0.0
 40
565.4395503577
100
AcDbArc
 50
87.5543276548
 51
88.6834675394
  0
ARC
  5
102
330
E0
100
AcDbEntity
  8
MEGA_002151
  6
CONTINUOUS
 62
     7
 48
25.4
100
AcDbCircle
 10
196.4708620859
 20
51.4410204968
 30
0.0
 40
20.61281144999998
100
AcDbArc
 50
177.6767881965
 51
179.7917337907
  0
ARC
  5
103
330
E0
100
AcDbEntity
  8
MEGA_002151
  6
CONTINUOUS
 62
     7
 48
25.4
100
AcDbCircle
 10
116.5836998196
 20
51.446236782
 30
0.0
 40
20.3762393609
100
AcDbArc
 50
0.1960165106
 51
2.3355198934
  0
ARC
  5
104
330
E0
100
AcDbEntity
  8
MEGA_002151
  6
CONTINUOUS
 62
     7
 48
25.4
100
AcDbCircle
 10
156.4090031805
 20
-182.2958085781
 30
0.0
 40
235.0857694879
100
AcDbArc
 50
87.969615181
 51
92.030384819
  0
ARC
  5
105
330
E0
100
AcDbEntity
  8
MEGA_002151
  6
CONTINUOUS
 62
     7
 48
25.4
100
AcDbCircle
 10
161.071464118
 20
-512.6479173293
 30
0.0
 40
565.4395503583
100
AcDbArc
 50
91.3165324606
 51
92.4456723452
  0
ELLIPSE
  5
106
330
E0
100
AcDbEntity
  8
MEGA_002151
  6
CONTINUOUS
 62
     7
 48
25.4
100
AcDbEllipse
 10
122.0597036767
 20
61.825355682
 30
0.0
 11
-3.296201309484722
 21
-2.266066399590101
 31
0.0
210
0.0
220
0.0
230
1.0
 40
0.117278773
 41
4.881355158806107
 42
6.220583224893409
  0
ELLIPSE
  5
107
330
E0
100
AcDbEntity
  8
MEGA_002151
  6
CONTINUOUS
 62
     7
 48
25.4
100
AcDbEllipse
 10
136.9429858274
 20
56.1244631578
 30
0.0
 11
0.1321737195867226
 21
-3.997815667067528
 31
0.0
210
0.0
220
0.0
230
0.9999999999999999
 40
0.1155853401
 41
4.708567576089124
 42
6.004588912210208
  0
ARC
  5
108
330
E0
100
AcDbEntity
  8
MEGA_002151
  6
CONTINUOUS
 62
     7
 48
25.4
100
AcDbCircle
 10
130.5883694057
 20
67.8200340704
 30
0.0
 40
14.41651430040002
100
AcDbArc
 50
193.570289467
 51
214.8213830453
  0
ARC
  5
109
330
E0
100
AcDbEntity
  8
MEGA_002151
  6
CONTINUOUS
 62
     7
 48
25.4
100
AcDbCircle
 10
130.5165202094
 20
67.6695932981
 30
0.0
 40
14.27186523030002
100
AcDbArc
 50
214.4902922083
 51
252.6960916264
  0
LINE
  5
10A
330
E0
100
AcDbEntity
  8
MEGA_002151
  6
CONTINUOUS
 62
     7
 48
25.4
100
AcDbLine
 10
136.9429858274
 20
52.2765923574
 30
0.0
 11
136.0868814513
 21
52.2920491926
 31
0.0
  0
LINE
  5
10B
330
E0
100
AcDbEntity
  8
MEGA_002151
  6
CONTINUOUS
 62
     7
 48
25.4
100
AcDbLine
 10
196.3501641655
 20
65.3426680301
 30
0.0
 11
196.3501641655
 21
65.4219966766
 31
0.0
  0
LINE
  5
10C
330
E0
100
AcDbEntity
  8
MEGA_002151
  6
CONTINUOUS
 62
     7
 48
25.4
100
AcDbLine
 10
116.4678421955
 20
65.4219966766
 30
0.0
 11
116.4678421955
 21
65.3426686004
 31
0.0
  0
LINE
  5
10D
330
E0
100
AcDbEntity
  8
MEGA_002151
  6
CONTINUOUS
 62
     7
 48
25.4
100
AcDbLine
 10
148.9090031805
 20
64.5159463595
 30
0.0
 11
163.9090031805
 21
64.5159463595
 31
0.0
  0
LINE
  5
10E
330
E0
100
AcDbEntity
  8
MEGA_002151
  6
CONTINUOUS
 62
     7
 48
25.4
100
AcDbLine
 10
191.574579722
 20
62.4392166128
 30
0.0
 11
191.574579722
 21
61.825355682
 31
0.0
  0
SPLINE
  5
10F
330
E0
100
AcDbEntity
  8
MEGA_002151
  6
CONTINUOUS
 62
     7
 48
25.4
100
AcDbSpline
210
0.0
220
0.0
230
1.0
 70
     8
 71
     3
 72
    14
 73
    10
 74
     0
 42
0.0000000001
 43
0.0000000001
 40
0.0
 40
0.0
 40
0.0
 40
0.0
 40
0.2500000000000001
 40
0.2500000000000001
 40
0.2500000000000001
 40
0.5000000000000001
 40
0.5000000000000001
 40
0.5000000000000001
 40
1.0
 40
1.0
 40
1.0
 40
1.0
 10
156.409003180461
 20
63.60362860539765
 30
0.0
 10
157.2164990179032
 20
63.27001652832747
 30
0.0
 10
158.0449072180739
 20
62.93188393530674
 30
0.0
 10
158.8541907171428
 20
62.60428906540627
 30
0.0
 10
159.6634742162116
 20
62.27669419550585
 30
0.0
 10
160.4671961498153
 20
61.95305141276874
 30
0.0
 10
161.2756521649345
 20
61.65151638802846
 30
0.0
 10
162.8925641951727
 20
61.04844633854783
 30
0.0
 10
164.5320216400306
 20
60.51594635947593
 30
0.0
 10
166.2499469546425
 20
60.51594635947593
 30
0.0
  0
ARC
  5
110
330
E0
100
AcDbEntity
  8
MEGA_002151
  6
CONTINUOUS
 62
     7
 48
25.4
100
AcDbCircle
 10
187.0192213518
 20
72.9860191635
 30
0.0
 40
12.05452684739998
100
AcDbArc
 50
292.2034213897
 51
320.7200044003
  0
ARC
  5
111
330
E0
100
AcDbEntity
  8
MEGA_002151
  6
CONTINUOUS
 62
     7
 48
25.4
100
AcDbCircle
 10
182.3014888888
 20
67.6695895864
 30
0.0
 40
14.2718608724
100
AcDbArc
 50
287.3039023139
 51
325.509713851
  0
LINE
  5
112
330
E0
100
AcDbEntity
  8
MEGA_002151
  6
CONTINUOUS
 62
     7
 48
25.4
100
AcDbLine
 10
132.217688662
 20
60.5159463595
 30
0.0
 11
142.7760607057
 21
60.5159463595
 31
0.0
  0
LINE
  5
113
330
E0
100
AcDbEntity
  8
MEGA_002151
  6
CONTINUOUS
 62
     7
 48
25.4
100
AcDbLine
 10
163.9090031805
 20
101.5159463595
 30
0.0
 11
163.9090031805
 21
102.0159463595
 31
0.0
  0
ELLIPSE
  5
114
330
E0
100
AcDbEntity
  8
MEGA_002151
  6
CONTINUOUS
 62
     7
 48
25.4
100
AcDbEllipse
 10
127.5595220213
 20
57.7649259434
 30
0.0
 11
-1.195860895547769
 21
-3.817056027686757
 31
0.0
210
0.0
220
0.0
230
1.0
 40
0.1637710587
 41
4.763652523352152
 42
6.104256799575594
  0
ELLIPSE
  5
115
330
E0
100
AcDbEntity
  8
MEGA_002151
  6
CONTINUOUS
 62
     7
 48
25.4
100
AcDbEllipse
 10
132.217688662
 20
57.5159463595
 30
0.0
 11
-3.683690953073357E-15
 21
-3.000000000000003
 31
0.0
210
0.0
220
0.0
230
1.0
 40
0.1428718477
 41
3.141592653589802
 42
4.71238898038469
  0
ELLIPSE
  5
116
330
E0
100
AcDbEntity
  8
MEGA_002151
  6
CONTINUOUS
 62
     7
 48
25.4
100
AcDbEllipse
 10
136.429467519
 20
56.1302829871
 30
0.0
 11
-0.2230433351509932
 21
-3.993776617519402
 31
0.0
210
0.0
220
0.0
230
0.9999999999999999
 40
0.1185163822
 41
4.71900775396046
 42
6.009721628521108
  0
ELLIPSE
  5
117
330
E0
100
AcDbEntity
  8
MEGA_002151
  6
CONTINUOUS
 62
     7
 48
25.4
100
AcDbEllipse
 10
127.6385619438
 20
57.7398960941
 30
0.0
 11
-1.21931221852091
 21
-3.809629603224653
 31
0.0
210
0.0
220
0.0
230
1.0
 40
0.1630118888
 41
4.764515394897916
 42
6.103912132641505
  0
LINE
  5
118
330
E0
100
AcDbEntity
  8
MEGA_002151
  6
CONTINUOUS
 62
     7
 48
25.4
100
AcDbLine
 10
166.4090031805
 20
89.0159463595
 30
0.0
 11
166.4090031805
 21
94.5159463595
 31
0.0
  0
LINE
  5
119
330
E0
100
AcDbEntity
  8
MEGA_002151
  6
CONTINUOUS
 62
     7
 48
25.4
100
AcDbLine
 10
126.3280550347
 20
54.0267635103
 30
0.0
 11
126.271496595
 21
54.0436653787
 31
0.0
  0
ARC
  5
11A
330
E0
100
AcDbEntity
  8
MEGA_002151
  6
CONTINUOUS
 62
     7
 48
25.4
100
AcDbCircle
 10
129.9756731734
 20
68.0001094951
 30
0.0
 40
10.6948452158
100
AcDbArc
 50
215.264928036
 51
253.1407824977
  0
LINE
  5
11B
330
E0
100
AcDbEntity
  8
MEGA_002151
  6
CONTINUOUS
 62
     7
 48
25.4
100
AcDbLine
 10
126.8739427123
 20
57.7649259434
 30
0.0
 11
126.9548609401
 21
57.7398960941
 31
0.0
  0
ARC
  5
11C
330
E0
100
AcDbEntity
  8
MEGA_002151
  6
CONTINUOUS
 62
     7
 48
25.4
100
AcDbCircle
 10
137.9060043247
 20
93.0058228113
 30
0.0
 40
36.92713268929998
100
AcDbArc
 50
252.7488411246
 51
266.9709235277
  0
LINE
  5
11D
330
E0
100
AcDbEntity
  8
MEGA_002151
  6
CONTINUOUS
 62
     7
 48
25.4
100
AcDbLine
 10
135.9546736682
 20
56.1302829871
 30
0.0
 11
136.4803952299
 21
56.1244631578
 31
0.0
  0
ARC
  5
11E
330
E0
100
AcDbEntity
  8
MEGA_002151
  6
CONTINUOUS
 62
     7
 48
25.4
100
AcDbCircle
 10
162.2529124211
 20
-721.3191504788
 30
0.0
 40
777.8706801434
100
AcDbArc
 50
91.1678792871
 51
91.8986790446
  0
ELLIPSE
  5
11F
330
E0
100
AcDbEntity
  8
MEGA_002151
  6
CONTINUOUS
 62
     7
 48
25.4
100
AcDbEllipse
 10
156.4090038875
 20
777.9826337666
 30
0.0
 11
-7.479228845580927E-7
 21
-722.8133754755335
 31
0.0
210
0.0
220
0.0
230
1.0
 40
0.2384042319
 41
0.0581251790296796
 42
0.0806022490281686
  0
ARC
  5
120
330
E0
100
AcDbEntity
  8
MEGA_002151
  6
CONTINUOUS
 62
     7
 48
25.4
100
AcDbCircle
 10
131.1673278481
 20
67.8562167796
 30
0.0
 40
14.98263516690003
100
AcDbArc
 50
193.1859811953
 51
251.0337054224
  0
ARC
  5
121
330
E0
100
AcDbEntity
  8
MEGA_002151
  6
CONTINUOUS
 62
     7
 48
25.4
100
AcDbCircle
 10
139.6294985723
 20
91.3708411328
 30
0.0
 40
39.97257819600003
100
AcDbArc
 50
250.5173577023
 51
264.8861896388
  0
ELLIPSE
  5
122
330
E0
100
AcDbEntity
  8
MEGA_002151
  6
CONTINUOUS
 62
     7
 48
25.4
100
AcDbEllipse
 10
164.7379706541
 20
56.4170845278
 30
0.0
 11
-0.06947065917498425
 21
-3.99939668294029
 31
0.0
210
0.0
220
0.0
230
1.0
 40
0.0494749679
 41
0.3376476641438307
 42
1.329954652160648
  0
ARC
  5
123
330
E0
100
AcDbEntity
  8
MEGA_002151
  6
CONTINUOUS
 62
     7
 48
25.4
100
AcDbCircle
 10
181.6506717467
 20
67.8562274361
 30
0.0
 40
14.98264744390002
100
AcDbArc
 50
288.9663058031
 51
346.8141958993
  0
ARC
  5
124
330
E0
100
AcDbEntity
  8
MEGA_002151
  6
CONTINUOUS
 62
     7
 48
25.4
100
AcDbCircle
 10
173.181001721
 20
91.3975381781
 30
0.0
 40
40.00025011209999
100
AcDbArc
 50
275.1210780901
 51
289.4800242653
  0
ARC
  5
125
330
E0
100
AcDbEntity
  8
MEGA_002151
  6
CONTINUOUS
 62
     7
 48
25.4
100
AcDbCircle
 10
176.0668185619
 20
57.438426804
 30
0.0
 40
5.921061566300011
100
AcDbArc
 50
267.971312215
 51
276.6377536789
  0
LINE
  5
126
330
E0
100
AcDbEntity
  8
MEGA_002151
  6
CONTINUOUS
 62
     7
 48
25.4
100
AcDbLine
 10
142.7760607057
 20
60.5159463595
 30
0.0
 11
146.5680594063
 21
60.5159463595
 31
0.0
  0
ELLIPSE
  5
127
330
E0
100
AcDbEntity
  8
MEGA_002151
  6
CONTINUOUS
 62
     7
 48
25.4
100
AcDbEllipse
 10
156.4090025941
 20
777.9826412113
 30
0.0
 11
6.202469477419070E-7
 21
-722.8133829202716
 31
0.0
210
0.0
220
0.0
230
1.0
 40
0.2384042307
 41
6.20258305860854
 42
6.225060128491005
  0
ELLIPSE
  5
128
330
E0
100
AcDbEntity
  8
MEGA_002151
  6
CONTINUOUS
 62
     7
 48
25.4
100
AcDbEllipse
 10
146.5726860704
 20
56.3899402093
 30
0.0
 11
0.7232460738202352
 21
2.911514230898436
 31
0.0
210
0.0
220
0.0
230
1.0
 40
0.0563845311
 41
1.347595501570549
 42
1.584801830827813
  0
ARC
  5
129
330
E0
100
AcDbEntity
  8
MEGA_002151
  6
CONTINUOUS
 62
     7
 48
25.4
100
AcDbCircle
 10
149.4831861837
 20
59.7003872886
 30
0.0
 40
4.524921205599981
100
AcDbArc
 50
227.0209694339
 51
249.5800276327
  0
ARC
  5
12A
330
E0
100
AcDbEntity
  8
MEGA_002151
  6
CONTINUOUS
 62
     7
 48
25.4
100
AcDbCircle
 10
166.4090031805
 20
86.5159463595
 30
0.0
 40
2.5
100
AcDbArc
 50
90.0
 51
180.0
  0
ARC
  5
12B
330
E0
100
AcDbEntity
  8
MEGA_002151
  6
CONTINUOUS
 62
     7
 48
25.4
100
AcDbCircle
 10
156.4090031805
 20
75.344203521
 30
0.0
 40
21.62675602309997
100
AcDbArc
 50
246.843601137
 51
293.156398863
  0
LINE
  5
12C
330
E0
100
AcDbEntity
  8
MEGA_002151
  6
CONTINUOUS
 62
     7
 48
25.4
100
AcDbLine
 10
142.5345157067
 20
57.5159463595
 30
0.0
 11
131.789073119
 21
57.5159463595
 31
0.0
  0
ELLIPSE
  5
12D
330
E0
100
AcDbEntity
  8
MEGA_002151
  6
CONTINUOUS
 62
     7
 48
25.4
100
AcDbEllipse
 10
156.4090030668
 20
778.6669080166
 30
0.0
 11
1.200490079419052E-7
 21
-722.8134114101131
 31
0.0
210
0.0
220
0.0
230
0.9999999999999999
 40
0.2342537773
 41
6.202583060362195
 42
6.225060129800625
  0
ARC
  5
12E
330
E0
100
AcDbEntity
  8
MEGA_002151
  6
CONTINUOUS
 62
     7
 48
25.4
100
AcDbCircle
 10
192.6837207515
 20
65.3003804313
 30
0.0
 40
3.663012641100011
100
AcDbArc
 50
346.3693057194
 51
1.2278473983
  0
ELLIPSE
  5
12F
330
E0
100
AcDbEntity
  8
MEGA_002151
  6
CONTINUOUS
 62
     7
 48
25.4
100
AcDbEllipse
 10
170.0419456552
 20
57.5159463595
 30
0.0
 11
-1.516309046926644E-15
 21
2.999999999999996
 31
0.0
210
0.0
220
0.0
230
1.0
 40
0.0805149997
 41
4.71238898038469
 42
6.28318530717958
  0
ARC
  5
130
330
E0
100
AcDbEntity
  8
MEGA_002151
  6
CONTINUOUS
 62
     7
 48
25.4
100
AcDbCircle
 10
163.2388109931
 20
59.8558424308
 30
0.0
 40
4.704240848600023
100
AcDbArc
 50
290.8552499824
 51
312.543752951
  0
SPLINE
  5
131
330
E0
100
AcDbEntity
  8
MEGA_002151
  6
CONTINUOUS
 62
     7
 48
25.4
100
AcDbSpline
210
0.0
220
0.0
230
1.0
 70
     8
 71
     3
 72
    14
 73
    10
 74
     0
 42
0.0000000001
 43
0.0000000001
 40
0.0
 40
0.0
 40
0.0
 40
0.0
 40
0.5000000000000002
 40
0.5000000000000002
 40
0.5000000000000002
 40
0.7500000000000001
 40
0.7500000000000001
 40
0.7500000000000001
 40
1.0
 40
1.0
 40
1.0
 40
1.0
 10
146.5680594062796
 20
60.51594635947593
 30
0.0
 10
148.2859847208916
 20
60.51594635947593
 30
0.0
 10
149.9254421657494
 20
61.04844633854783
 30
0.0
 10
151.5423541959877
 20
61.65151638802846
 30
0.0
 10
152.3508102111068
 20
61.95305141276874
 30
0.0
 10
153.1545321447105
 20
62.27669419550585
 30
0.0
 10
153.9638156437794
 20
62.60428906540633
 30
0.0
 10
154.7730991428482
 20
62.93188393530674
 30
0.0
 10
155.6015073430271
 20
63.27001652830877
 30
0.0
 10
156.409003180461
 20
63.60362860539765
 30
0.0
  0
ARC
  5
132
330
E0
100
AcDbEntity
  8
MEGA_002151
  6
CONTINUOUS
 62
     7
 48
25.4
100
AcDbCircle
 10
145.9264076108
 20
71.0318436084
 30
0.0
 40
12.84769193310001
100
AcDbArc
 50
272.8627118825
 51
324.6777120942
  0
LINE
  5
133
330
E0
100
AcDbEntity
  8
MEGA_002151
  6
CONTINUOUS
 62
     7
 48
25.4
100
AcDbLine
 10
146.5680594063
 20
58.200184675
 30
0.0
 11
142.7760607057
 21
58.200184675
 31
0.0
  0
ARC
  5
134
330
E0
100
AcDbEntity
  8
MEGA_002151
  6
CONTINUOUS
 62
     7
 48
25.4
100
AcDbCircle
 10
148.9412549933
 20
68.258063143
 30
0.0
 40
11.43194619889999
100
AcDbArc
 50
258.0423523278
 51
265.4588931111
  0
LINE
  5
135
330
E0
100
AcDbEntity
  8
MEGA_002151
  6
CONTINUOUS
 62
     7
 48
25.4
100
AcDbLine
 10
166.2499469547
 20
60.5159463595
 30
0.0
 11
170.0419456552
 21
60.5159463595
 31
0.0
  0
ARC
  5
136
330
E0
100
AcDbEntity
  8
MEGA_002151
  6
CONTINUOUS
 62
     7
 48
25.4
100
AcDbCircle
 10
163.8767513682
 20
68.2580631394
 30
0.0
 40
11.4319461952
100
AcDbArc
 50
274.5411068877
 51
281.9576476734
  0
ELLIPSE
  5
137
330
E0
100
AcDbEntity
  8
MEGA_002151
  6
CONTINUOUS
 62
     7
 48
25.4
100
AcDbEllipse
 10
156.4090040455
 20
778.6668618077
 30
0.0
 11
-9.130471259580919E-7
 21
-722.8133652010574
 31
0.0
210
0.0
220
0.0
230
1.0
 40
0.2342537847
 41
0.058125179491407
 42
0.0806022496500452
  0
LINE
  5
138
330
E0
100
AcDbEntity
  8
MEGA_002151
  6
CONTINUOUS
 62
     7
 48
25.4
100
AcDbLine
 10
170.0419456552
 20
58.200184675
 30
0.0
 11
166.2499469547
 21
58.200184675
 31
0.0
  0
ARC
  5
139
330
E0
100
AcDbEntity
  8
MEGA_002151
  6
CONTINUOUS
 62
     7
 48
25.4
100
AcDbCircle
 10
166.8915987502
 20
71.0318436084
 30
0.0
 40
12.84769193310001
100
AcDbArc
 50
215.3222879058
 51
267.1372881175
  0
ARC
  5
13A
330
E0
100
AcDbEntity
  8
MEGA_002151
  6
CONTINUOUS
 62
     7
 48
25.4
100
AcDbCircle
 10
156.4090031805
 20
156.9433281179
 30
0.0
 40
100.4309526381
100
AcDbArc
 50
265.2177365149
 51
274.7822634851
  0
ELLIPSE
  5
13B
330
E0
100
AcDbEntity
  8
MEGA_002151
  6
CONTINUOUS
 62
     7
 48
25.4
100
AcDbEllipse
 10
170.0419456552
 20
57.5159463595
 30
0.0
 11
-0.9779729926670531
 21
2.836118619803222
 31
0.0
210
0.0
220
0.0
230
1.0
 40
0.0761429291
 41
4.686138800716419
 42
4.929715818003765
  0
LINE
  5
13C
330
E0
100
AcDbEntity
  8
MEGA_002151
  6
CONTINUOUS
 62
     7
 48
25.4
100
AcDbLine
 10
166.2499469547
 20
60.5159463595
 30
0.0
 11
166.2499469547
 21
58.200184675
 31
0.0
  0
ARC
  5
13D
330
E0
100
AcDbEntity
  8
MEGA_002151
  6
CONTINUOUS
 62
     7
 48
25.4
100
AcDbCircle
 10
174.9329871381
 20
94.3398322686
 30
0.0
 40
35.9804375036
100
AcDbArc
 50
297.5496958675
 51
306.530099053
  0
LINE
  5
13E
330
E0
100
AcDbEntity
  8
MEGA_002151
  6
CONTINUOUS
 62
     7
 48
25.4
100
AcDbLine
 10
181.028933242
 20
57.5159463595
 30
0.0
 11
170.2834906543
 21
57.5159463595
 31
0.0
  0
ARC
  5
13F
330
E0
100
AcDbEntity
  8
MEGA_002151
  6
CONTINUOUS
 62
     7
 48
25.4
100
AcDbCircle
 10
174.8347751623
 20
78.5461042802
 30
0.0
 40
23.23043019469998
100
AcDbArc
 50
308.9289098861
 51
316.1038852682
  0
ARC
  5
140
330
E0
100
AcDbEntity
  8
MEGA_002151
  6
CONTINUOUS
 62
     7
 48
25.4
100
AcDbCircle
 10
181.042321818
 20
70.889779261
 30
0.0
 40
13.3738396032
100
AcDbArc
 50
269.9426410778
 51
308.8512892399
  0
ARC
  5
141
330
E0
100
AcDbEntity
  8
MEGA_002151
  6
CONTINUOUS
 62
     7
 48
25.4
100
AcDbCircle
 10
174.2491429859
 20
78.2401019617
 30
0.0
 40
20.00000000019998
100
AcDbArc
 50
316.6072935255
 51
326.1479893409
  0
ELLIPSE
  5
142
330
E0
100
AcDbEntity
  8
MEGA_002151
  6
CONTINUOUS
 62
     7
 48
25.4
100
AcDbEllipse
 10
190.9623719438
 20
62.4392166128
 30
0.0
 11
-2.179986385796383
 21
2.060985045492188
 31
0.0
210
0.0
220
0.0
230
1.0
 40
0.1417618821
 41
4.56355065419058
 42
6.283185307179586
  0
ARC
  5
143
330
E0
100
AcDbEntity
  8
MEGA_002151
  6
CONTINUOUS
 62
     7
 48
25.4
100
AcDbCircle
 10
174.2610028961
 20
78.2273917709
 30
0.0
 40
19.98265004439998
100
AcDbArc
 50
309.4255771383
 51
316.6104140254
  0
ELLIPSE
  5
144
330
E0
100
AcDbEntity
  8
MEGA_002151
  6
CONTINUOUS
 62
     7
 48
25.4
100
AcDbEllipse
 10
188.8568448259
 20
60.4745440768
 30
0.0
 11
-1.905352413902026
 21
2.31724668061857
 31
0.0
210
0.0
220
0.0
230
1.0
 40
0.1491299144
 41
4.590376244046254
 42
6.283185307179586
  0
LINE
  5
145
330
E0
100
AcDbEntity
  8
MEGA_002151
  6
CONTINUOUS
 62
     7
 48
25.4
100
AcDbLine
 10
121.2434266389
 20
62.4392166128
 30
0.0
 11
121.2434266389
 21
61.825355682
 31
0.0
  0
ARC
  5
146
330
E0
100
AcDbEntity
  8
MEGA_002151
  6
CONTINUOUS
 62
     7
 48
25.4
100
AcDbCircle
 10
120.4678349139
 20
65.3541676344
 30
0.0
 40
3.99999239440001
100
AcDbArc
 50
180.1741749505
 51
193.5966563191
  0
LINE
  5
147
330
E0
100
AcDbEntity
  8
MEGA_002151
  6
CONTINUOUS
 62
     7
 48
25.4
100
AcDbLine
 10
170.0419456552
 20
60.5159463595
 30
0.0
 11
180.600317699
 21
60.5159463595
 31
0.0
  0
ARC
  5
148
330
E0
100
AcDbEntity
  8
MEGA_002151
  6
CONTINUOUS
 62
     7
 48
25.4
100
AcDbCircle
 10
131.7756864176
 20
70.8897845851
 30
0.0
 40
13.37384492540002
100
AcDbArc
 50
231.148718814
 51
270.0573508683
  0
ARC
  5
149
330
E0
100
AcDbEntity
  8
MEGA_002151
  6
CONTINUOUS
 62
     7
 48
25.4
100
AcDbCircle
 10
137.9832311986
 20
78.5461042801
 30
0.0
 40
23.2304301945
100
AcDbArc
 50
223.8961147318
 51
231.0710901139
  0
ARC
  5
14A
330
E0
100
AcDbEntity
  8
MEGA_002151
  6
CONTINUOUS
 62
     7
 48
25.4
100
AcDbCircle
 10
138.5570034647
 20
78.2273917708
 30
0.0
 40
19.98265004429999
100
AcDbArc
 50
223.3895859745
 51
230.5744228617
  0
ELLIPSE
  5
14B
330
E0
100
AcDbEntity
  8
MEGA_002151
  6
CONTINUOUS
 62
     7
 48
25.4
100
AcDbEllipse
 10
121.8556344172
 20
62.4392166128
 30
0.0
 11
-2.179986385798458
 21
-2.060985045489988
 31
0.0
210
0.0
220
0.0
230
1.0
 40
0.1417618821
 41
3.141592653589793
 42
4.861227306578902
  0
ELLIPSE
  5
14C
330
E0
100
AcDbEntity
  8
MEGA_002151
  6
CONTINUOUS
 62
     7
 48
25.4
100
AcDbEllipse
 10
123.9611615351
 20
60.4745440768
 30
0.0
 11
-1.905352413902031
 21
-2.317246680618558
 31
0.0
210
0.0
220
0.0
230
1.0
 40
0.1491299144
 41
3.141592653589793
 42
4.834401716723118
  0
ARC
  5
14D
330
E0
100
AcDbEntity
  8
MEGA_002151
  6
CONTINUOUS
 62
     7
 48
25.4
100
AcDbCircle
 10
137.8850192227
 20
94.3398322682
 30
0.0
 40
35.98043750319999
100
AcDbArc
 50
233.4699009469
 51
242.4503041325
  0
LINE
  5
14E
330
E0
100
AcDbEntity
  8
MEGA_002151
  6
CONTINUOUS
 62
     7
 48
25.4
100
AcDbLine
 10
146.4090031805
 20
89.0159463595
 30
0.0
 11
166.4090031805
 21
89.0159463595
 31
0.0
  0
LINE
  5
14F
330
E0
100
AcDbEntity
  8
MEGA_002151
  6
CONTINUOUS
 62
     7
 48
25.4
100
AcDbLine
 10
126.2712727895
 20
53.6961419523
 30
0.0
 11
126.271496595
 21
54.0436653787
 31
0.0
  0
LINE
  5
150
330
E0
100
AcDbEntity
  8
MEGA_002151
  6
CONTINUOUS
 62
     7
 48
25.4
100
AcDbLine
 10
186.546509766
 20
54.0436653787
 30
0.0
 11
186.5467335714
 21
53.6961419699
 31
0.0
  0
LINE
  5
151
330
E0
100
AcDbEntity
  8
MEGA_002151
  6
CONTINUOUS
 62
     7
 48
25.4
100
AcDbLine
 10
126.3280550347
 20
54.0267635103
 30
0.0
 11
126.3283537544
 21
53.6761902437
 31
0.0
  0
ARC
  5
152
330
E0
100
AcDbEntity
  8
MEGA_002151
  6
CONTINUOUS
 62
     7
 48
25.4
100
AcDbCircle
 10
121.6047894618
 20
52.3469598857
 30
0.0
 40
14.48222588319999
100
AcDbArc
 50
356.8692848025
 51
359.7828320704
  0
ARC
  5
153
330
E0
100
AcDbEntity
  8
MEGA_002151
  6
CONTINUOUS
 62
     7
 48
25.4
100
AcDbCircle
 10
137.9921717104
 20
91.3275028213
 30
0.0
 40
39.08192383919999
100
AcDbArc
 50
252.6352907451
 51
267.2056549961
  0
ARC
  5
154
330
E0
100
AcDbEntity
  8
MEGA_002151
  6
CONTINUOUS
 62
     7
 48
25.4
100
AcDbCircle
 10
136.7871121487
 20
57.266992438
 30
0.0
 40
5.749885058699988
100
AcDbArc
 50
262.80641834
 51
271.7288012577
  0
LINE
  5
155
330
E0
100
AcDbEntity
  8
MEGA_002151
  6
CONTINUOUS
 62
     7
 48
25.4
100
AcDbLine
 10
136.9607221413
 20
51.5159463595
 30
0.0
 11
175.857294724
 21
51.5159463595
 31
0.0
  0
ARC
  5
156
330
E0
100
AcDbEntity
  8
MEGA_002151
  6
CONTINUOUS
 62
     7
 48
25.4
100
AcDbCircle
 10
167.9090031805
 20
64.5159463595
 30
0.0
 40
4.0
100
AcDbArc
 50
180.0
 51
270.0
  0
ARC
  5
157
330
E0
100
AcDbEntity
  8
MEGA_002151
  6
CONTINUOUS
 62
     7
 48
25.4
100
AcDbCircle
 10
119.4682694675
 20
65.4284264476
 30
0.0
 40
2.999367233700014
100
AcDbArc
 50
34.9318836207
 51
180.1292297854
  0
LINE
  5
158
330
E0
100
AcDbEntity
  8
MEGA_002151
  6
CONTINUOUS
 62
     7
 48
25.4
100
AcDbLine
 10
163.9090031805
 20
64.5159463595
 30
0.0
 11
163.9090031805
 21
86.5159463595
 31
0.0
  0
ARC
  5
159
330
E0
100
AcDbEntity
  8
MEGA_002151
  6
CONTINUOUS
 62
     7
 48
25.4
100
AcDbCircle
 10
193.3485350471
 20
65.4307332671
 30
0.0
 40
2.997050534499977
100
AcDbArc
 50
359.8319847057
 51
145.0910780459
  0
LINE
  5
15A
330
E0
100
AcDbEntity
  8
MEGA_002151
  6
CONTINUOUS
 62
     7
 48
25.4
100
AcDbLine
 10
148.9090031805
 20
102.0159463595
 30
0.0
 11
148.9090031805
 21
101.5159463595
 31
0.0
  0
LINE
  5
15B
330
E0
100
AcDbEntity
  8
MEGA_002151
  6
CONTINUOUS
 62
     7
 48
25.4
100
AcDbLine
 10
146.4090031805
 20
94.5159463595
 30
0.0
 11
146.4090031805
 21
89.0159463595
 31
0.0
  0
ARC
  5
15C
330
E0
100
AcDbEntity
  8
MEGA_002151
  6
CONTINUOUS
 62
     7
 48
25.4
100
AcDbCircle
 10
146.4090031805
 20
86.5159463595
 30
0.0
 40
2.5
100
AcDbArc
 50
0.0
 51
90.0
  0
ARC
  5
15D
330
E0
100
AcDbEntity
  8
MEGA_002151
  6
CONTINUOUS
 62
     7
 48
25.4
100
AcDbCircle
 10
144.9090031805
 20
64.5159463595
 30
0.0
 40
4.0
100
AcDbArc
 50
270.0
 51
360.0
  0
LINE
  5
15E
330
E0
100
AcDbEntity
  8
MEGA_002151
  6
CONTINUOUS
 62
     7
 48
25.4
100
AcDbLine
 10
148.9090031805
 20
86.5159463595
 30
0.0
 11
148.9090031805
 21
64.5159463595
 31
0.0
  0
ELLIPSE
  5
15F
330
E0
100
AcDbEntity
  8
MEGA_002304
  6
CONTINUOUS
 62
     7
 48
25.4
100
AcDbEllipse
 10
168.4090031805
 20
98.3682491366
 30
0.0
 11
1.000000000000018
 21
6.038769682308880E-15
 31
0.0
210
0.0
220
0.0
230
1.0
 40
0.9946603
 41
4.965069235526729
 42
6.28318530717958
  0
ELLIPSE
  5
160
330
E0
100
AcDbEntity
  8
MEGA_002304
  6
CONTINUOUS
 62
     7
 48
25.4
100
AcDbEllipse
 10
144.4090031805
 20
98.3682491366
 30
0.0
 11
0.9999999999999975
 21
-7.296123031769112E-14
 31
0.0
210
0.0
220
0.0
230
1.0
 40
0.9946603
 41
3.141592653589809
 42
4.459708725242683
  0
ARC
  5
161
330
E0
100
AcDbEntity
  8
MEGA_002304
  6
CONTINUOUS
 62
     7
 48
25.4
100
AcDbCircle
 10
168.4090031805
 20
98.5159463595
 30
0.0
 40
1.0
100
AcDbArc
 50
270.0
 51
360.0
  0
ARC
  5
162
330
E0
100
AcDbEntity
  8
MEGA_002304
  6
CONTINUOUS
 62
     7
 48
25.4
100
AcDbCircle
 10
144.4090031801
 20
98.1516208746
 30
0.0
 40
0.9999999995000052
100
AcDbArc
 50
180.0000026332
 51
240.3811631308
  0
ARC
  5
163
330
E0
100
AcDbEntity
  8
MEGA_002304
  6
CONTINUOUS
 62
     7
 48
25.4
100
AcDbCircle
 10
168.4090031809
 20
98.1516208746
 30
0.0
 40
0.999999999599993
100
AcDbArc
 50
299.6068934586
 51
359.9999973668
  0
ARC
  5
164
330
E0
100
AcDbEntity
  8
MEGA_002304
  6
CONTINUOUS
 62
     7
 48
25.4
100
AcDbCircle
 10
170.4075528667
 20
94.6893006172
 30
0.0
 40
2.99768345550001
100
AcDbArc
 50
120.1236612663
 51
180.0985565168
  0
ARC
  5
165
330
E0
100
AcDbEntity
  8
MEGA_002304
  6
CONTINUOUS
 62
     7
 48
25.4
100
AcDbCircle
 10
142.414182431
 20
94.6935940658
 30
0.0
 40
2.992106856799978
100
AcDbArc
 50
359.8192594785
 51
59.8968069185
  0
LINE
  5
166
330
E0
100
AcDbEntity
  8
MEGA_002304
  6
CONTINUOUS
 62
     7
 48
25.4
100
AcDbLine
 10
167.4090031805
 20
94.5159463595
 30
0.0
 11
167.4090031805
 21
94.6836125992
 31
0.0
  0
LINE
  5
167
330
E0
100
AcDbEntity
  8
MEGA_002304
  6
CONTINUOUS
 62
     7
 48
25.4
100
AcDbLine
 10
145.4090031805
 20
94.6836125992
 30
0.0
 11
145.4090031805
 21
94.5159463595
 31
0.0
  0
ELLIPSE
  5
168
330
E0
100
AcDbEntity
  8
MEGA_002304
  6
CONTINUOUS
 62
     7
 48
25.4
100
AcDbEllipse
 10
169.4090031805
 20
94.5159463595
 30
0.0
 11
1.883690953073357E-15
 21
2.999999999999996
 31
0.0
210
0.0
220
0.0
230
0.9999999999999999
 40
0.9285714286
 41
0.2725942191271957
 42
1.570796326794897
  0
ELLIPSE
  5
169
330
E0
100
AcDbEntity
  8
MEGA_002304
  6
CONTINUOUS
 62
     7
 48
25.4
100
AcDbEllipse
 10
143.4090031805
 20
94.5159463595
 30
0.0
 11
7.128369095307335E-14
 21
3.00000000000001
 31
0.0
210
0.0
220
0.0
230
1.0
 40
0.9285714286
 41
4.712388980384712
 42
6.010591088052467
  0
ARC
  5
16A
330
E0
100
AcDbEntity
  8
MEGA_002304
  6
CONTINUOUS
 62
     7
 48
25.4
100
AcDbCircle
 10
144.4090031805
 20
98.5159463595
 30
0.0
 40
1.0
100
AcDbArc
 50
180.0
 51
270.0
  0
LINE
  5
16B
330
E0
100
AcDbEntity
  8
MEGA_002304
  6
CONTINUOUS
 62
     7
 48
25.4
100
AcDbLine
 10
166.6232888948
 20
94.5159463595
 30
0.0
 11
167.4090031805
 21
94.5159463595
 31
0.0
  0
LINE
  5
16C
330
E0
100
AcDbEntity
  8
MEGA_002304
  6
CONTINUOUS
 62
     7
 48
25.4
100
AcDbLine
 10
146.1947174662
 20
94.5159463595
 30
0.0
 11
166.6232888948
 21
94.5159463595
 31
0.0
  0
LINE
  5
16D
330
E0
100
AcDbEntity
  8
MEGA_002304
  6
CONTINUOUS
 62
     7
 48
25.4
100
AcDbLine
 10
169.4090031805
 20
101.5159463595
 30
0.0
 11
143.4090031805
 21
101.5159463595
 31
0.0
  0
LINE
  5
16E
330
E0
100
AcDbEntity
  8
MEGA_002304
  6
CONTINUOUS
 62
     7
 48
25.4
100
AcDbLine
 10
143.4090031805
 20
98.5159463595
 30
0.0
 11
143.4090031805
 21
101.5159463595
 31
0.0
  0
LINE
  5
16F
330
E0
100
AcDbEntity
  8
MEGA_002304
  6
CONTINUOUS
 62
     7
 48
25.4
100
AcDbLine
 10
169.4090031805
 20
98.5159463595
 30
0.0
 11
169.4090031805
 21
101.5159463595
 31
0.0
  0
ARC
  5
170
330
E0
100
AcDbEntity
  8
MEGA_002304
  6
CONTINUOUS
 62
     7
 48
25.4
100
AcDbCircle
 10
146.2037788052
 20
96.4423098217
 30
0.0
 40
1.926384773700022
100
AcDbArc
 50
245.6333928116
 51
269.7304908128
  0
LINE
  5
171
330
E0
100
AcDbEntity
  8
MEGA_002304
  6
CONTINUOUS
 62
     7
 48
25.4
100
AcDbLine
 10
143.4090031805
 20
98.1516208785
 30
0.0
 11
143.4090031805
 21
98.3682491366
 31
0.0
  0
ARC
  5
172
330
E0
100
AcDbEntity
  8
MEGA_002304
  6
CONTINUOUS
 62
     7
 48
25.4
100
AcDbCircle
 10
166.6142275558
 20
96.4423098217
 30
0.0
 40
1.926384773700022
100
AcDbArc
 50
270.2695091872
 51
294.3666071884
  0
LINE
  5
173
330
E0
100
AcDbEntity
  8
MEGA_002304
  6
CONTINUOUS
 62
     7
 48
25.4
100
AcDbLine
 10
169.4090031805
 20
98.3682491366
 30
0.0
 11
169.4090031805
 21
98.1516208785
 31
0.0
  0
ARC
  5
174
330
E0
100
AcDbEntity
  8
MEGA_002304
  6
CONTINUOUS
 62
     7
 48
25.4
100
AcDbCircle
 10
143.6774708796
 20
98.0907814032
 30
0.0
 40
0.8378136027000097
100
AcDbArc
 50
286.0426664529
 51
305.0820372332
  0
ARC
  5
175
330
E0
100
AcDbEntity
  8
MEGA_002304
  6
CONTINUOUS
 62
     7
 48
25.4
100
AcDbCircle
 10
169.1405354814
 20
98.0907814032
 30
0.0
 40
0.8378136027000097
100
AcDbArc
 50
234.9179627668
 51
253.9573335471
  0
ARC
  5
176
330
E0
100
AcDbEntity
  8
MEGA_002304
  6
CONTINUOUS
 62
     7
 48
25.4
100
AcDbCircle
 10
168.3810980505
 20
97.1154730017
 30
0.0
 40
0.4014444004000097
100
AcDbArc
 50
46.1904820761
 51
86.0140518598
  0
ARC
  5
177
330
E0
100
AcDbEntity
  8
MEGA_002304
  6
CONTINUOUS
 62
     7
 48
25.4
100
AcDbCircle
 10
144.4368843704
 20
97.1155270314
 30
0.0
 40
0.401388837699983
100
AcDbArc
 50
93.9830752052
 51
133.8123908588
  0
LINE
  5
178
330
E0
100
AcDbEntity
  8
MEGA_002304
  6
CONTINUOUS
 62
     7
 48
25.4
100
AcDbLine
 10
168.4090031805
 20
97.5159463595
 30
0.0
 11
144.4090031805
 21
97.5159463595
 31
0.0
  0
LINE
  5
179
330
E0
100
AcDbEntity
  8
MEGA_002304
  6
CONTINUOUS
 62
     7
 48
25.4
100
AcDbLine
 10
143.4090031805
 20
98.5159463595
 30
0.0
 11
169.4090031805
 21
98.5159463595
 31
0.0
  0
LINE
  5
17A
330
E0
100
AcDbEntity
  8
MEGA_002304
  6
CONTINUOUS
 62
     7
 48
25.4
100
AcDbLine
 10
146.1947174662
 20
94.5159463595
 30
0.0
 11
145.4090031805
 21
94.5159463595
 31
0.0
  0
LINE
  5
17B
330
E0
100
AcDbEntity
  8
MEGA_002634
  6
CONTINUOUS
 62
     7
 48
25.4
100
AcDbLine
 10
152.9090031805
 20
134.7261988912
 30
0.0
 11
152.9090031805
 21
102.0159463595
 31
0.0
  0
LINE
  5
17C
330
E0
100
AcDbEntity
  8
MEGA_002634
  6
CONTINUOUS
 62
     7
 48
25.4
100
AcDbLine
 10
159.9090031805
 20
134.7261988912
 30
0.0
 11
159.9090031805
 21
102.0159463595
 31
0.0
  0
LINE
  5
17D
330
E0
100
AcDbEntity
  8
MEGA_002634
  6
CONTINUOUS
 62
     7
 48
25.4
100
AcDbLine
 10
159.9090031805
 20
136.1759463595
 30
0.0
 11
159.5690031805
 21
136.5159463595
 31
0.0
  0
LINE
  5
17E
330
E0
100
AcDbEntity
  8
MEGA_002634
  6
CONTINUOUS
 62
     7
 48
25.4
100
AcDbLine
 10
159.9090031805
 20
136.1759455977
 30
0.0
 11
159.9090031805
 21
134.7261988912
 31
0.0
  0
LINE
  5
17F
330
E0
100
AcDbEntity
  8
MEGA_002634
  6
CONTINUOUS
 62
     7
 48
25.4
100
AcDbLine
 10
153.2490031805
 20
136.5159463595
 30
0.0
 11
152.9090031805
 21
136.1759463595
 31
0.0
  0
LINE
  5
180
330
E0
100
AcDbEntity
  8
MEGA_002634
  6
CONTINUOUS
 62
     7
 48
25.4
100
AcDbLine
 10
153.2490031805
 20
136.5159463595
 30
0.0
 11
159.5690031805
 21
136.5159463595
 31
0.0
  0
LINE
  5
181
330
E0
100
AcDbEntity
  8
MEGA_002634
  6
CONTINUOUS
 62
     7
 48
25.4
100
AcDbLine
 10
152.9090031805
 20
134.7261988912
 30
0.0
 11
152.9090031805
 21
136.1759455977
 31
0.0
  0
SPLINE
  5
182
330
E0
100
AcDbEntity
  8
MEGA_002634
  6
CONTINUOUS
 62
     7
 48
25.4
100
AcDbSpline
210
0.0
220
0.0
230
1.0
 70
     8
 71
     3
 72
    17
 73
    13
 74
     0
 42
0.0000000001
 43
0.0000000001
 40
0.0
 40
0.0
 40
0.0
 40
0.0
 40
0.25
 40
0.25
 40
0.25
 40
0.5
 40
0.5
 40
0.5
 40
0.75
 40
0.75
 40
0.75
 40
1.0
 40
1.0
 40
1.0
 40
1.0
 10
159.9090031804611
 20
134.7261988911701
 30
0.0
 10
159.3886776400862
 20
135.0941246091938
 30
0.0
 10
158.8478249127421
 20
135.4413507636425
 30
0.0
 10
158.2640531289536
 20
135.7147331221708
 30
0.0
 10
157.6802813451651
 20
135.9881154806991
 30
0.0
 10
157.0473613172229
 20
136.1763683034324
 30
0.0
 10
156.4066939159072
 20
136.1759455976613
 30
0.0
 10
155.7660265145915
 20
136.1755228918903
 30
0.0
 10
155.1319751957736
 20
135.9857626604524
 30
0.0
 10
154.5509761425559
 20
135.7133380677587
 30
0.0
 10
153.9699770893383
 20
135.4409134750651
 30
0.0
 10
153.4257365108801
 20
135.0915845331747
 30
0.0
 10
152.9090031804611
 20
134.7261988911701
 30
0.0
  0
LINE
  5
184
330
E0
100
AcDbEntity
  8
STANDARD
  6
CONTINUOUS
 62
     7
 48
25.4
100
AcDbLine
 10
116.4689098629
 20
65.4284264476
 30
0.0
 11
116.4689098629
 21
64.1891518788
 31
0.0
  0
LINE
  5
185
330
E0
100
AcDbEntity
  8
STANDARD
  6
CONTINUOUS
 62
     7
 48
25.4
100
AcDbLine
 10
196.3455855816
 20
65.4307332671
 30
0.0
 11
196.3455855816
 21
63.5206413231
 31
0.0
  0
ENDBLK
  5
187
330
E0
100
AcDbEntity
  8
0
100
AcDbBlockEnd
  0
BLOCK
  5
202
330
188
100
AcDbEntity
  8
0
100
AcDbBlockBegin
  2
SE6
 70
     0
 71
     0
 10
0.0
 20
0.0
 30
0.0
  3
SE6
  1

  0
ARC
  5
18A
330
188
100
AcDbEntity
  8
MEGA_002151
  6
CONTINUOUS
 62
     7
 48
25.4
100
AcDbCircle
 10
-95.649977642
 20
198.2531544665
 30
0.0
 40
172.3217727155
100
AcDbArc
 50
348.2249801878
 51
350.1310732361
  0
ARC
  5
18B
330
188
100
AcDbEntity
  8
MEGA_002151
  6
CONTINUOUS
 62
     7
 48
25.4
100
AcDbCircle
 10
-95.6499776421
 20
198.2531544665
 30
0.0
 40
172.3217727156001
100
AcDbArc
 50
9.8689267638
 51
11.7750198122
  0
LINE
  5
18C
330
188
100
AcDbEntity
  8
MEGA_002151
  6
CONTINUOUS
 62
     7
 48
25.4
100
AcDbLine
 10
74.1218504826
 20
227.7882137528
 30
0.0
 11
74.135907893
 21
227.7072955147
 31
0.0
  0
LINE
  5
18D
330
188
100
AcDbEntity
  8
MEGA_002151
  6
CONTINUOUS
 62
     7
 48
25.4
100
AcDbLine
 10
75.4535431127
 20
218.7074581006
 30
0.0
 11
75.5155710259
 21
218.1817344715
 31
0.0
  0
ARC
  5
18E
330
188
100
AcDbEntity
  8
MEGA_002151
  6
CONTINUOUS
 62
     7
 48
25.4
100
AcDbCircle
 10
-95.649977642
 20
198.2531544665
 30
0.0
 40
172.3217727155
100
AcDbArc
 50
6.8169844573
 51
9.8416190441
  0
ARC
  5
18F
330
188
100
AcDbEntity
  8
MEGA_002151
  6
CONTINUOUS
 62
     7
 48
25.4
100
AcDbCircle
 10
-95.6184666848
 20
198.2559033657
 30
0.0
 40
172.2901552858
100
AcDbArc
 50
3.3300234719
 51
6.6412763746
  0
LINE
  5
190
330
188
100
AcDbEntity
  8
MEGA_002151
  6
CONTINUOUS
 62
     7
 48
25.4
100
AcDbLine
 10
74.1359078931
 20
168.7990134184
 30
0.0
 11
74.1218504826
 21
168.7180951801
 31
0.0
  0
LINE
  5
191
330
188
100
AcDbEntity
  8
MEGA_002151
  6
CONTINUOUS
 62
     7
 48
25.4
100
AcDbLine
 10
75.5155710259
 20
178.3245744615
 30
0.0
 11
75.4535431127
 21
177.7988508324
 31
0.0
  0
ARC
  5
192
330
188
100
AcDbEntity
  8
MEGA_002151
  6
CONTINUOUS
 62
     7
 48
25.4
100
AcDbCircle
 10
-95.649977642
 20
198.2531544665
 30
0.0
 40
172.3217727155
100
AcDbArc
 50
350.158380956
 51
353.1830155427
  0
ARC
  5
193
330
188
100
AcDbEntity
  8
MEGA_002151
  6
CONTINUOUS
 62
     7
 48
25.4
100
AcDbCircle
 10
-95.6499776419
 20
198.2531544665
 30
0.0
 40
172.3217727154
100
AcDbArc
 50
353.3590274827
 51
356.6696726709
  0
ARC
  5
194
330
188
100
AcDbEntity
  8
MEGA_002151
  6
CONTINUOUS
 62
     7
 48
25.4
100
AcDbCircle
 10
61.0305334127
 20
188.6353222374
 30
0.0
 40
15.35526985820002
100
AcDbArc
 50
358.534309494
 51
4.157662115
  0
SPLINE
  5
195
330
188
100
AcDbEntity
  8
MEGA_002151
  6
CONTINUOUS
 62
     7
 48
25.4
100
AcDbSpline
210
0.0
220
0.0
230
1.0
 70
     8
 71
     3
 72
    14
 73
    10
 74
     0
 42
0.0000000001
 43
0.0000000001
 40
0.0
 40
0.0
 40
0.0
 40
0.0
 40
0.5
 40
0.5
 40
0.5
 40
0.75
 40
0.75
 40
0.75
 40
1.0
 40
1.0
 40
1.0
 40
1.0
 10
70.89846983765125
 20
228.3341025983966
 30
0.0
 10
69.67082916756317
 20
228.3339019171284
 30
0.0
 10
68.42113967277386
 20
228.3338039278676
 30
0.0
 10
67.17229839191965
 20
228.3338038926375
 30
0.0
 10
66.54787775149256
 20
228.3338038750225
 30
0.0
 10
65.92189474375671
 20
228.333828820933
 30
0.0
 10
65.3001698930929
 20
228.3338783984119
 30
0.0
 10
64.67844504242909
 20
228.333927975891
 30
0.0
 10
64.05955281513582
 20
228.3340021826759
 30
0.0
 10
63.44510114359614
 20
228.3341026123866
 30
0.0
  0
ARC
  5
196
330
188
100
AcDbEntity
  8
MEGA_002151
  6
CONTINUOUS
 62
     7
 48
25.4
100
AcDbCircle
 10
67.1698363095
 20
-500.4101147654
 30
0.0
 40
719.0055247339
100
AcDbArc
 50
89.5709015143
 51
90.4287805849
  0
SPLINE
  5
197
330
188
100
AcDbEntity
  8
MEGA_002151
  6
CONTINUOUS
 62
     7
 48
25.4
100
AcDbSpline
210
0.0
220
0.0
230
1.0
 70
     8
 71
     3
 72
    35
 73
    31
 74
     0
 42
0.0000000001
 43
0.0000000001
 40
0.0
 40
0.0
 40
0.0
 40
0.0
 40
0.2500000000000021
 40
0.2500000000000021
 40
0.2500000000000021
 40
0.3750000000000032
 40
0.3750000000000032
 40
0.3750000000000032
 40
0.4375000000000032
 40
0.4375000000000032
 40
0.4375000000000032
 40
0.4687500000000027
 40
0.4687500000000027
 40
0.4687500000000027
 40
0.5000000000000022
 40
0.5000000000000022
 40
0.5000000000000022
 40
0.5312500000000018
 40
0.5312500000000018
 40
0.5312500000000018
 40
0.5625000000000013
 40
0.5625000000000013
 40
0.5625000000000013
 40
0.6250000000000003
 40
0.6250000000000003
 40
0.6250000000000003
 40
0.75
 40
0.75
 40
0.75
 40
1.0
 40
1.0
 40
1.0
 40
1.0
 10
69.37820715452293
 20
235.9088261179737
 30
0.0
 10
69.2534622456003
 20
236.473839967081
 30
0.0
 10
69.00892678443971
 20
236.9384193462155
 30
0.0
 10
68.68530007491869
 20
237.3123829913472
 30
0.0
 10
68.52348672015815
 20
237.499364813913
 30
0.0
 10
68.34156579456877
 20
237.66363040547
 30
0.0
 10
68.12108971057023
 20
237.8009456241994
 30
0.0
 10
68.01085166857097
 20
237.869603233564
 30
0.0
 10
67.89137365186399
 20
237.9320867457781
 30
0.0
 10
67.74440386875969
 20
237.985206224741
 30
0.0
 10
67.67091897720754
 20
238.0117659642225
 30
0.0
 10
67.59008019515547
 20
238.0362466420693
 30
0.0
 10
67.49306787501224
 20
238.0557002236387
 30
0.0
 10
67.39605555486905
 20
238.0751538052082
 30
0.0
 10
67.27714546293365
 20
238.0893545952663
 30
0.0
 10
67.15077630740757
 20
238.0877032942453
 30
0.0
 10
67.02440715188152
 20
238.0860519932243
 30
0.0
 10
66.91073942138954
 20
238.0693473079327
 30
0.0
 10
66.81792326173913
 20
238.0488260077668
 30
0.0
 10
66.72510710208867
 20
238.0283047076008
 30
0.0
 10
66.64759159718095
 20
238.0036283854705
 30
0.0
 10
66.57563561143013
 20
237.9765099464589
 30
0.0
 10
66.43172363992844
 20
237.9222730684357
 30
0.0
 10
66.31562060571358
 20
237.8600717953768
 30
0.0
 10
66.20755051888142
 20
237.7915491523042
 30
0.0
 10
65.99141034521711
 20
237.6545038661588
 30
0.0
 10
65.81128951179177
 20
237.4905802120721
 30
0.0
 10
65.65128123655568
 20
237.3042594973854
 30
0.0
 10
65.33126468608344
 20
236.9316180680124
 30
0.0
 10
65.0891891876672
 20
236.4696579556839
 30
0.0
 10
64.96536429611996
 20
235.9088248060024
 30
0.0
  0
ARC
  5
198
330
188
100
AcDbEntity
  8
MEGA_002151
  6
CONTINUOUS
 62
     7
 48
25.4
100
AcDbCircle
 10
-112.8801239145
 20
195.5117828581
 30
0.0
 40
186.6816015258
100
AcDbArc
 50
10.1440021996
 51
12.4974063111
  0
LINE
  5
199
330
188
100
AcDbEntity
  8
MEGA_002151
  6
CONTINUOUS
 62
     7
 48
25.4
100
AcDbLine
 10
63.4602602242
 20
228.390661052
 30
0.0
 11
63.4451011436
 21
228.3341026124
 31
0.0
  0
LINE
  5
19A
330
188
100
AcDbEntity
  8
MEGA_002151
  6
CONTINUOUS
 62
     7
 48
25.4
100
AcDbLine
 10
70.8984698377
 20
228.3341025984
 30
0.0
 11
70.8833101963
 21
228.3906610629
 31
0.0
  0
ARC
  5
19B
330
188
100
AcDbEntity
  8
MEGA_002151
  6
CONTINUOUS
 62
     7
 48
25.4
100
AcDbCircle
 10
223.2403867989
 20
196.1983142435
 30
0.0
 40
162.9946079223
100
AcDbArc
 50
168.6291494573
 51
172.1091410712
  0
ARC
  5
19C
330
188
100
AcDbEntity
  8
MEGA_002151
  6
CONTINUOUS
 62
     7
 48
25.4
100
AcDbCircle
 10
-88.8988245071
 20
196.1965384826
 30
0.0
 40
162.9969272938
100
AcDbArc
 50
7.8913655045
 51
11.371323281
  0
ELLIPSE
  5
19D
330
188
100
AcDbEntity
  8
MEGA_002151
  6
CONTINUOUS
 62
     7
 48
25.4
100
AcDbEllipse
 10
69.12970798
 20
232.6024539703
 30
0.0
 11
-3.915825812992297
 21
-0.8162770377165146
 31
0.0
210
0.0
220
0.0
230
1.0
 40
0.8183639993
 41
3.141592653589798
 42
4.480825352099141
  0
ELLIPSE
  5
19E
330
188
100
AcDbEntity
  8
MEGA_002151
  6
CONTINUOUS
 62
     7
 48
25.4
100
AcDbEllipse
 10
70.181040788
 20
227.1026344712
 30
0.0
 11
-3.940809694545317
 21
-0.6855792816133803
 31
0.0
210
0.0
220
0.0
230
1.0
 40
0.2949295354
 41
3.141592653589809
 42
4.482201921629975
  0
ELLIPSE
  5
19F
330
188
100
AcDbEntity
  8
MEGA_002151
  6
CONTINUOUS
 62
     7
 48
25.4
100
AcDbEllipse
 10
71.5424097481
 20
217.7191445227
 30
0.0
 11
3.973161277780724
 21
0.4625899488142279
 31
0.0
210
0.0
220
0.0
230
1.0
 40
0.0328219379
 41
4.987164181408761
 42
6.283185307179586
  0
ELLIPSE
  5
1A0
330
188
100
AcDbEntity
  8
MEGA_002151
  6
CONTINUOUS
 62
     7
 48
25.4
100
AcDbEllipse
 10
65.213882167
 20
232.6024539703
 30
0.0
 11
3.915825812992296
 21
-0.8162770377164941
 31
0.0
210
0.0
220
0.0
230
1.0
 40
0.8183635833
 41
1.802364587502846
 42
3.141592653589791
  0
ELLIPSE
  5
1A1
330
188
100
AcDbEntity
  8
MEGA_002151
  6
CONTINUOUS
 62
     7
 48
25.4
100
AcDbEllipse
 10
72.4656000744
 20
189.9241869929
 30
0.0
 11
3.995099980334266
 21
-0.1979296519804416
 31
0.0
210
0.0
220
0.0
230
1.0
 40
0.0173463957
 41
0.2417010687030138
 42
1.234008056718971
  0
ELLIPSE
  5
1A2
330
188
100
AcDbEntity
  8
MEGA_002151
  6
CONTINUOUS
 62
     7
 48
25.4
100
AcDbEllipse
 10
60.9080418002
 20
206.6260191559
 30
0.0
 11
2.999271522470616
 21
-0.06610850546246418
 31
0.0
210
0.0
220
0.0
230
1.0
 40
0.0936561668
 41
2.898840364632968
 42
3.1442564406501
  0
ELLIPSE
  5
1A3
330
188
100
AcDbEntity
  8
MEGA_002151
  6
CONTINUOUS
 62
     7
 48
25.4
100
AcDbEllipse
 10
60.9080418002
 20
189.8802897771
 30
0.0
 11
2.999271522470434
 21
0.066108505462528
 31
0.0
210
0.0
220
0.0
230
1.0
 40
0.0936561668
 41
3.140174472703253
 42
3.384344942546607
  0
ELLIPSE
  5
1A4
330
188
100
AcDbEntity
  8
MEGA_002151
  6
CONTINUOUS
 62
     7
 48
25.4
100
AcDbEllipse
 10
70.1947718924
 20
169.4827143944
 30
0.0
 11
3.941136000623332
 21
-0.6837009760053798
 31
0.0
210
0.0
220
0.0
230
1.0
 40
0.3007515057
 41
4.943783716531681
 42
6.283185307179586
  0
ELLIPSE
  5
1A5
330
188
100
AcDbEntity
  8
MEGA_002151
  6
CONTINUOUS
 62
     7
 48
25.4
100
AcDbEllipse
 10
62.801183577
 20
217.7191718196
 30
0.0
 11
3.973161202255229
 21
-0.4625905974984043
 31
0.0
210
0.0
220
0.0
230
1.0
 40
0.0328219581
 41
3.141592653589793
 42
4.437613989710906
  0
ELLIPSE
  5
1A6
330
188
100
AcDbEntity
  8
MEGA_002151
  6
CONTINUOUS
 62
     7
 48
25.4
100
AcDbEllipse
 10
69.12970798
 20
163.9038549627
 30
0.0
 11
3.915825812992321
 21
-0.8162770377164316
 31
0.0
210
0.0
220
0.0
230
1.0
 40
0.8183639993
 41
4.943952608670172
 42
6.283185307179582
  0
ELLIPSE
  5
1A7
330
188
100
AcDbEntity
  8
MEGA_002151
  6
CONTINUOUS
 62
     7
 48
25.4
100
AcDbEllipse
 10
61.8779900726
 20
189.9241869929
 30
0.0
 11
-3.99509998033429
 21
-0.197929651980422
 31
0.0
210
0.0
220
0.0
230
1.0
 40
0.0173463957
 41
5.049177250460644
 42
6.04148423847684
  0
ARC
  5
1A8
330
188
100
AcDbEntity
  8
MEGA_002151
  6
CONTINUOUS
 62
     7
 48
25.4
100
AcDbCircle
 10
130.82240267
 20
198.2531544665
 30
0.0
 40
55.1368483247
100
AcDbArc
 50
171.1270168567
 51
188.8729831433
  0
ARC
  5
1A9
330
188
100
AcDbEntity
  8
MEGA_002151
  6
CONTINUOUS
 62
     7
 48
25.4
100
AcDbCircle
 10
62.2705250521
 20
207.8418515961
 30
0.0
 40
14.11656026200001
100
AcDbArc
 50
355.5953918473
 51
1.7126365438
  0
ELLIPSE
  5
1AA
330
188
100
AcDbEntity
  8
MEGA_002151
  6
CONTINUOUS
 62
     7
 48
25.4
100
AcDbEllipse
 10
73.4355483468
 20
189.8802897771
 30
0.0
 11
-2.999271522470219
 21
0.06610850546280772
 31
0.0
210
0.0
220
0.0
230
1.0
 40
0.0936561668
 41
2.898840364632962
 42
3.144395897494324
  0
ELLIPSE
  5
1AB
330
188
100
AcDbEntity
  8
MEGA_002151
  6
CONTINUOUS
 62
     7
 48
25.4
100
AcDbEllipse
 10
72.4656000744
 20
206.5821219401
 30
0.0
 11
3.995099980334268
 21
0.1979296519805019
 31
0.0
210
0.0
220
0.0
230
1.0
 40
0.0173463957
 41
5.049177250461041
 42
6.041484238477332
  0
ELLIPSE
  5
1AC
330
188
100
AcDbEntity
  8
MEGA_002151
  6
CONTINUOUS
 62
     7
 48
25.4
100
AcDbEllipse
 10
64.1625495598
 20
227.1026356255
 30
0.0
 11
3.940809689772188
 21
-0.6855793090500139
 31
0.0
210
0.0
220
0.0
230
1.0
 40
0.294928707
 41
1.800988377369848
 42
3.141592653589793
  0
ELLIPSE
  5
1AD
330
188
100
AcDbEntity
  8
MEGA_002151
  6
CONTINUOUS
 62
     7
 48
25.4
100
AcDbEllipse
 10
64.1488184566
 20
227.0235957033
 30
0.0
 11
3.941135995821866
 21
-0.6837010036833058
 31
0.0
210
0.0
220
0.0
230
1.0
 40
0.3007507065
 41
1.802195915845304
 42
3.141592653589778
  0
ELLIPSE
  5
1AE
330
188
100
AcDbEntity
  8
MEGA_002151
  6
CONTINUOUS
 62
     7
 48
25.4
100
AcDbEllipse
 10
71.5424097481
 20
178.7871644103
 30
0.0
 11
3.973161277780702
 21
-0.4625899488142697
 31
0.0
210
0.0
220
0.0
230
1.0
 40
0.0328219379
 41
0.0000000000000056
 42
1.296021125769801
  0
ARC
  5
1AF
330
188
100
AcDbEntity
  8
MEGA_002151
  6
CONTINUOUS
 62
     7
 48
25.4
100
AcDbCircle
 10
229.9935677888
 20
198.2531544665
 30
0.0
 40
172.3217727153
100
AcDbArc
 50
168.2249801878
 51
170.1310728373
  0
LINE
  5
1B0
330
188
100
AcDbEntity
  8
MEGA_002151
  6
CONTINUOUS
 62
     7
 48
25.4
100
AcDbLine
 10
60.2076824608
 20
227.707296707
 30
0.0
 11
60.22173987
 21
227.7882149346
 31
0.0
  0
LINE
  5
1B1
330
188
100
AcDbEntity
  8
MEGA_002151
  6
CONTINUOUS
 62
     7
 48
25.4
100
AcDbLine
 10
58.8280223747
 20
218.1817624171
 30
0.0
 11
58.8900501278
 21
218.7074839788
 31
0.0
  0
ARC
  5
1B2
330
188
100
AcDbEntity
  8
MEGA_002151
  6
CONTINUOUS
 62
     7
 48
25.4
100
AcDbCircle
 10
229.993567789
 20
198.2531544665
 30
0.0
 40
172.3217727155
100
AcDbArc
 50
170.1583805536
 51
173.1830068771
  0
ARC
  5
1B3
330
188
100
AcDbEntity
  8
MEGA_002151
  6
CONTINUOUS
 62
     7
 48
25.4
100
AcDbCircle
 10
229.9935677889
 20
198.2531544665
 30
0.0
 40
172.3217727154
100
AcDbArc
 50
173.3590181282
 51
176.6696726709
  0
ELLIPSE
  5
1B4
330
188
100
AcDbEntity
  8
MEGA_002151
  6
CONTINUOUS
 62
     7
 48
25.4
100
AcDbEllipse
 10
71.481821651
 20
178.2736440825
 30
0.0
 11
3.971721461737676
 21
-0.4747932501335437
 31
0.0
210
0.0
220
0.0
230
1.0
 40
0.0553648547
 41
4.992489022562332
 42
6.283185307179586
  0
ELLIPSE
  5
1B5
330
188
100
AcDbEntity
  8
MEGA_002151
  6
CONTINUOUS
 62
     7
 48
25.4
100
AcDbEllipse
 10
62.8617715178
 20
218.232690128
 30
0.0
 11
3.971721389928486
 21
-0.4747938508284993
 31
0.0
210
0.0
220
0.0
230
1.0
 40
0.0553678368
 41
1.850878779029074
 42
3.141592653589793
  0
ELLIPSE
  5
1B6
330
188
100
AcDbEntity
  8
MEGA_002151
  6
CONTINUOUS
 62
     7
 48
25.4
100
AcDbEllipse
 10
71.481821651
 20
218.2326648504
 30
0.0
 11
3.971721461737678
 21
0.4747932501335503
 31
0.0
210
0.0
220
0.0
230
0.9999999999999999
 40
0.0553648547
 41
0.0
 42
1.290696284616604
  0
ELLIPSE
  5
1B7
330
188
100
AcDbEntity
  8
MEGA_002151
  6
CONTINUOUS
 62
     7
 48
25.4
100
AcDbEllipse
 10
70.1947718924
 20
227.0235945387
 30
0.0
 11
-3.941136000623206
 21
-0.6837009760063614
 31
0.0
210
0.0
220
0.0
230
1.0
 40
0.3007515057
 41
3.14159265358983
 42
4.480994244237969
  0
ARC
  5
1B8
330
188
100
AcDbEntity
  8
MEGA_002151
  6
CONTINUOUS
 62
     7
 48
25.4
100
AcDbCircle
 10
67.1717950735
 20
164.3119934815
 30
0.0
 40
6.0
100
AcDbArc
 50
191.7750198122
 51
348.2249801878
  0
ARC
  5
1B9
330
188
100
AcDbEntity
  8
MEGA_002151
  6
CONTINUOUS
 62
     7
 48
25.4
100
AcDbCircle
 10
195.7201198937
 20
198.2049309026
 30
0.0
 40
135.4249298911
100
AcDbArc
 50
171.7150444662
 51
176.4535014079
  0
LINE
  5
1BA
330
188
100
AcDbEntity
  8
MEGA_002151
  6
CONTINUOUS
 62
     7
 48
25.4
100
AcDbLine
 10
61.7891130798
 20
218.5752761956
 30
0.0
 11
61.7085307028
 21
217.7191718196
 31
0.0
  0
LINE
  5
1BB
330
188
100
AcDbEntity
  8
MEGA_002151
  6
CONTINUOUS
 62
     7
 48
25.4
100
AcDbLine
 10
72.6350634168
 20
217.7191445227
 30
0.0
 11
72.5545487692
 21
218.5752463301
 31
0.0
  0
ARC
  5
1BC
330
188
100
AcDbEntity
  8
MEGA_002151
  6
CONTINUOUS
 62
     7
 48
25.4
100
AcDbCircle
 10
145.4938100994
 20
198.2531544665
 30
0.0
 40
85.34665490959998
100
AcDbArc
 50
174.3995997204
 51
185.6004002796
  0
ARC
  5
1BD
330
188
100
AcDbEntity
  8
MEGA_002151
  6
CONTINUOUS
 62
     7
 48
25.4
100
AcDbCircle
 10
67.1737742074
 20
-612.6348134665
 30
0.0
 40
791.440820748
100
AcDbArc
 50
89.6046308233
 51
90.3956554518
  0
ARC
  5
1BE
330
188
100
AcDbEntity
  8
MEGA_002151
  6
CONTINUOUS
 62
     7
 48
25.4
100
AcDbCircle
 10
67.1737721592
 20
1008.3212758424
 30
0.0
 40
790.6209937445001
100
AcDbArc
 50
269.6039344189
 51
270.395779306
  0
ARC
  5
1BF
330
188
100
AcDbEntity
  8
MEGA_002151
  6
CONTINUOUS
 62
     7
 48
25.4
100
AcDbCircle
 10
195.7201198938
 20
198.3013780304
 30
0.0
 40
135.4249298913001
100
AcDbArc
 50
183.5464985921
 51
188.2849555337
  0
ARC
  5
1C0
330
188
100
AcDbEntity
  8
MEGA_002151
  6
CONTINUOUS
 62
     7
 48
25.4
100
AcDbCircle
 10
-61.3765282693
 20
198.3013779035
 30
0.0
 40
135.4249284087
100
AcDbArc
 50
351.7150560998
 51
356.4535014228
  0
ARC
  5
1C1
330
188
100
AcDbEntity
  8
MEGA_002151
  6
CONTINUOUS
 62
     7
 48
25.4
100
AcDbCircle
 10
-11.1502199524
 20
198.2531544665
 30
0.0
 40
85.34665490950005
100
AcDbArc
 50
354.3995997203
 51
5.6004002797
  0
ARC
  5
1C2
330
188
100
AcDbEntity
  8
MEGA_002151
  6
CONTINUOUS
 62
     7
 48
25.4
100
AcDbCircle
 10
-61.3765282674
 20
198.2049310296
 30
0.0
 40
135.4249284068
100
AcDbArc
 50
3.5464985772
 51
8.2849439003
  0
ELLIPSE
  5
1C3
330
188
100
AcDbEntity
  8
MEGA_002151
  6
CONTINUOUS
 62
     7
 48
25.4
100
AcDbEllipse
 10
65.213882167
 20
163.9038549627
 30
0.0
 11
-3.91582581299231
 21
-0.8162770377164523
 31
0.0
210
0.0
220
0.0
230
1.0
 40
0.8183635833
 41
0.0
 42
1.339228066087006
  0
ELLIPSE
  5
1C4
330
188
100
AcDbEntity
  8
MEGA_002151
  6
CONTINUOUS
 62
     7
 48
25.4
100
AcDbEllipse
 10
62.801183577
 20
178.7871371134
 30
0.0
 11
3.973161202255257
 21
0.4625905974979839
 31
0.0
210
0.0
220
0.0
230
1.0
 40
0.0328219581
 41
1.845571317468797
 42
3.141592653589793
  0
ARC
  5
1C5
330
188
100
AcDbEntity
  8
MEGA_002151
  6
CONTINUOUS
 62
     7
 48
25.4
100
AcDbCircle
 10
247.1780454152
 20
200.9854193313
 30
0.0
 40
186.6350622757
100
AcDbArc
 50
190.1437183576
 51
192.4977090659
  0
SPLINE
  5
1C6
330
188
100
AcDbEntity
  8
MEGA_002151
  6
CONTINUOUS
 62
     7
 48
25.4
100
AcDbSpline
210
0.0
220
0.0
230
1.0
 70
     8
 71
     3
 72
    35
 73
    31
 74
     0
 42
0.0000000001
 43
0.0000000001
 40
0.0
 40
0.0
 40
0.0
 40
0.0
 40
0.2500000000000007
 40
0.2500000000000007
 40
0.2500000000000007
 40
0.3750000000000011
 40
0.3750000000000011
 40
0.3750000000000011
 40
0.4375000000000015
 40
0.4375000000000015
 40
0.4375000000000015
 40
0.4687500000000015
 40
0.4687500000000015
 40
0.4687500000000015
 40
0.5000000000000016
 40
0.5000000000000016
 40
0.5000000000000016
 40
0.5312500000000016
 40
0.5312500000000016
 40
0.5312500000000016
 40
0.5625000000000016
 40
0.5625000000000016
 40
0.5625000000000016
 40
0.6250000000000012
 40
0.6250000000000012
 40
0.6250000000000012
 40
0.7500000000000006
 40
0.7500000000000006
 40
0.7500000000000006
 40
1.0
 40
1.0
 40
1.0
 40
1.0
 10
64.96536429611857
 20
160.5974841269683
 30
0.0
 10
65.09011237783857
 20
160.0324696237162
 30
0.0
 10
65.33465249155849
 20
159.5678896570661
 30
0.0
 10
65.65828436534591
 20
159.193925979385
 30
0.0
 10
65.82010030223961
 20
159.0069441405444
 30
0.0
 10
66.00202388255421
 20
158.8426787353972
 30
0.0
 10
66.22250208949909
 20
158.7053638619901
 30
0.0
 10
66.33274119297155
 20
158.6367064252866
 30
0.0
 10
66.45222024503919
 20
158.5742231297824
 30
0.0
 10
66.59919026268166
 20
158.5211038961994
 30
0.0
 10
66.67267527150287
 20
158.494544279408
 30
0.0
 10
66.75351372293881
 20
158.4700638031019
 30
0.0
 10
66.85052550594841
 20
158.4506101424522
 30
0.0
 10
66.94753728895806
 20
158.4311564818025
 30
0.0
 10
67.06644356364174
 20
158.4169552606848
 30
0.0
 10
67.19281385785284
 20
158.418605447483
 30
0.0
 10
67.3191841520639
 20
158.4202556342813
 30
0.0
 10
67.43285342452438
 20
158.4369601396646
 30
0.0
 10
67.52567035465931
 20
158.4574814890619
 30
0.0
 10
67.61848728479424
 20
158.4780028384593
 30
0.0
 10
67.69600247673435
 20
158.502679214959
 30
0.0
 10
67.76795835005167
 20
158.5297977917234
 30
0.0
 10
67.91187009668626
 20
158.5840349452524
 30
0.0
 10
68.02797207289235
 20
158.6462364207599
 30
0.0
 10
68.13604106854221
 20
158.7147592081817
 30
0.0
 10
68.35217905984192
 20
158.8518047830254
 30
0.0
 10
68.53229717675386
 20
159.0157284911417
 30
0.0
 10
68.69230297785553
 20
159.202049264345
 30
0.0
 10
69.01231458005894
 20
159.5746908107518
 30
0.0
 10
69.25438544598775
 20
160.0366504672284
 30
0.0
 10
69.37820715452415
 20
160.597482814997
 30
0.0
  0
ARC
  5
1C7
330
188
100
AcDbEntity
  8
MEGA_002151
  6
CONTINUOUS
 62
     7
 48
25.4
100
AcDbCircle
 10
-119.5972640658
 20
202.3392675103
 30
0.0
 40
193.5306314579
100
AcDbArc
 50
347.5442426072
 51
349.8143488825
  0
LINE
  5
1C8
330
188
100
AcDbEntity
  8
MEGA_002151
  6
CONTINUOUS
 62
     7
 48
25.4
100
AcDbLine
 10
61.7085307028
 20
178.7871371134
 30
0.0
 11
61.7891130798
 21
177.9310327373
 31
0.0
  0
LINE
  5
1C9
330
188
100
AcDbEntity
  8
MEGA_002151
  6
CONTINUOUS
 62
     7
 48
25.4
100
AcDbLine
 10
72.5545487692
 20
177.9310626029
 30
0.0
 11
72.6350634168
 21
178.7871644103
 31
0.0
  0
ELLIPSE
  5
1CA
330
188
100
AcDbEntity
  8
MEGA_002151
  6
CONTINUOUS
 62
     7
 48
25.4
100
AcDbEllipse
 10
73.4355483468
 20
206.6260191559
 30
0.0
 11
-2.999271522470901
 21
-0.06610850546235111
 31
0.0
210
0.0
220
0.0
230
1.0
 40
0.0936561668
 41
3.139974564073655
 42
3.384344942546591
  0
ARC
  5
1CB
330
188
100
AcDbEntity
  8
MEGA_002151
  6
CONTINUOUS
 62
     7
 48
25.4
100
AcDbCircle
 10
67.1717950735
 20
232.1943154515
 30
0.0
 40
6.0
100
AcDbArc
 50
11.7750198122
 51
168.2249801878
  0
ARC
  5
1CC
330
188
100
AcDbEntity
  8
MEGA_002151
  6
CONTINUOUS
 62
     7
 48
25.4
100
AcDbCircle
 10
253.889128297
 20
194.1773596514
 30
0.0
 40
193.4779155051
100
AcDbArc
 50
167.5439240068
 51
169.8146485695
  0
ELLIPSE
  5
1CD
330
188
100
AcDbEntity
  8
MEGA_002151
  6
CONTINUOUS
 62
     7
 48
25.4
100
AcDbEllipse
 10
64.1625495598
 20
169.4036733073
 30
0.0
 11
-3.940809689771787
 21
-0.6855793090524452
 31
0.0
210
0.0
220
0.0
230
1.0
 40
0.294928707
 41
0.0
 42
1.340604276223415
  0
ELLIPSE
  5
1CE
330
188
100
AcDbEntity
  8
MEGA_002151
  6
CONTINUOUS
 62
     7
 48
25.4
100
AcDbEllipse
 10
62.8617715178
 20
178.273618805
 30
0.0
 11
3.971721389928501
 21
0.4747938508284332
 31
0.0
210
0.0
220
0.0
230
0.9999999999999999
 40
0.0553678368
 41
3.141592653589793
 42
4.432306528150425
  0
ELLIPSE
  5
1CF
330
188
100
AcDbEntity
  8
MEGA_002151
  6
CONTINUOUS
 62
     7
 48
25.4
100
AcDbEllipse
 10
64.1488184566
 20
169.4827132298
 30
0.0
 11
-3.94113599582231
 21
-0.6837010036804881
 31
0.0
210
0.0
220
0.0
230
1.0
 40
0.3007507065
 41
0.0
 42
1.339396737743593
  0
ARC
  5
1D0
330
188
100
AcDbEntity
  8
MEGA_002151
  6
CONTINUOUS
 62
     7
 48
25.4
100
AcDbCircle
 10
229.9935677889
 20
198.2531544665
 30
0.0
 40
172.3217727154
100
AcDbArc
 50
189.8689271627
 51
191.7750198122
  0
LINE
  5
1D1
330
188
100
AcDbEntity
  8
MEGA_002151
  6
CONTINUOUS
 62
     7
 48
25.4
100
AcDbLine
 10
60.22173987
 20
168.7180939983
 30
0.0
 11
60.2076824607
 21
168.7990122261
 31
0.0
  0
LINE
  5
1D2
330
188
100
AcDbEntity
  8
MEGA_002151
  6
CONTINUOUS
 62
     7
 48
25.4
100
AcDbLine
 10
63.4451011436
 20
168.1722063207
 30
0.0
 11
63.4602602243
 21
168.115647881
 31
0.0
  0
LINE
  5
1D3
330
188
100
AcDbEntity
  8
MEGA_002151
  6
CONTINUOUS
 62
     7
 48
25.4
100
AcDbLine
 10
70.8833101963
 20
168.11564787
 30
0.0
 11
70.8984698377
 21
168.1722063347
 31
0.0
  0
LINE
  5
1D4
330
188
100
AcDbEntity
  8
MEGA_002151
  6
CONTINUOUS
 62
     7
 48
25.4
100
AcDbLine
 10
58.8900501278
 20
177.7988249542
 30
0.0
 11
58.8280223747
 21
178.3245465159
 31
0.0
  0
ARC
  5
1D5
330
188
100
AcDbEntity
  8
MEGA_002151
  6
CONTINUOUS
 62
     7
 48
25.4
100
AcDbCircle
 10
229.993567789
 20
198.2531544665
 30
0.0
 40
172.3217727155
100
AcDbArc
 50
186.8169931229
 51
189.8416194464
  0
ARC
  5
1D6
330
188
100
AcDbEntity
  8
MEGA_002151
  6
CONTINUOUS
 62
     7
 48
25.4
100
AcDbCircle
 10
229.9620566491
 20
198.2504055488
 30
0.0
 40
172.2901551025
100
AcDbArc
 50
183.3300234692
 51
186.6412857317
  0
ELLIPSE
  5
1D7
330
188
100
AcDbEntity
  8
MEGA_002151
  6
CONTINUOUS
 62
     7
 48
25.4
100
AcDbEllipse
 10
70.181040788
 20
169.4036744617
 30
0.0
 11
3.940809694544184
 21
-0.6855792816199346
 31
0.0
210
0.0
220
0.0
230
1.0
 40
0.2949295354
 41
4.942576039131882
 42
6.283185307179585
  0
ELLIPSE
  5
1D8
330
188
100
AcDbEntity
  8
MEGA_002151
  6
CONTINUOUS
 62
     7
 48
25.4
100
AcDbEllipse
 10
61.8779900726
 20
206.5821219401
 30
0.0
 11
-3.995099980334291
 21
0.1979296519804538
 31
0.0
210
0.0
220
0.0
230
1.0
 40
0.0173463957
 41
0.2417010687023964
 42
1.23400805671873
  0
ARC
  5
1D9
330
188
100
AcDbEntity
  8
MEGA_002151
  6
CONTINUOUS
 62
     7
 48
25.4
100
AcDbCircle
 10
3.521187477
 20
198.2531544665
 30
0.0
 40
55.13684832479999
100
AcDbArc
 50
351.1270168567
 51
8.8729831433
  0
ARC
  5
1DA
330
188
100
AcDbEntity
  8
MEGA_002151
  6
CONTINUOUS
 62
     7
 48
25.4
100
AcDbCircle
 10
72.0730650949
 20
188.6644573369
 30
0.0
 40
14.11656026200001
100
AcDbArc
 50
175.5953918473
 51
181.7126365438
  0
ARC
  5
1DB
330
188
100
AcDbEntity
  8
MEGA_002151
  6
CONTINUOUS
 62
     7
 48
25.4
100
AcDbCircle
 10
73.3130567343
 20
207.8709866956
 30
0.0
 40
15.35526985820002
100
AcDbArc
 50
178.534309494
 51
184.157662115
  0
ARC
  5
1DC
330
188
100
AcDbEntity
  8
MEGA_002151
  6
CONTINUOUS
 62
     7
 48
25.4
100
AcDbCircle
 10
38.5203772689
 20
190.3569336053
 30
0.0
 40
37.91831173700001
100
AcDbArc
 50
356.8369550224
 51
359.1798886342
  0
ARC
  5
1DD
330
188
100
AcDbEntity
  8
MEGA_002151
  6
CONTINUOUS
 62
     7
 48
25.4
100
AcDbCircle
 10
95.823124755
 20
206.1493799106
 30
0.0
 40
37.91822349529997
100
AcDbArc
 50
176.8369545896
 51
179.1798804737
  0
ARC
  5
1DE
330
188
100
AcDbEntity
  8
MEGA_002151
  6
CONTINUOUS
 62
     7
 48
25.4
100
AcDbCircle
 10
487.6505139848
 20
198.2309334569
 30
0.0
 40
429.8231015661
100
AcDbArc
 50
178.8721512969
 51
181.1219734811
  0
ARC
  5
1DF
330
188
100
AcDbEntity
  8
MEGA_002151
  6
CONTINUOUS
 62
     7
 48
25.4
100
AcDbCircle
 10
89.889068285
 20
190.1718354892
 30
0.0
 40
31.98198003149998
100
AcDbArc
 50
180.6404486579
 51
183.4572481928
  0
ARC
  5
1E0
330
188
100
AcDbEntity
  8
MEGA_002151
  6
CONTINUOUS
 62
     7
 48
25.4
100
AcDbCircle
 10
67.1717950735
 20
198.2531544665
 30
0.0
 40
10.0
100
AcDbArc
 50
159.0779034244
 51
201.0363675855
  0
ARC
  5
1E1
330
188
100
AcDbEntity
  8
MEGA_002151
  6
CONTINUOUS
 62
     7
 48
25.4
100
AcDbCircle
 10
67.1717950735
 20
198.2531544665
 30
0.0
 40
10.0
100
AcDbArc
 50
339.2430421958
 51
20.8769740262
  0
SPLINE
  5
1E2
330
188
100
AcDbEntity
  8
MEGA_002151
  6
CONTINUOUS
 62
     7
 48
25.4
100
AcDbSpline
210
0.0
220
0.0
230
1.0
 70
     8
 71
     3
 72
    17
 73
    13
 74
     0
 42
0.0000000001
 43
0.0000000001
 40
0.0
 40
0.0
 40
0.0
 40
0.0
 40
0.2500000000000001
 40
0.2500000000000001
 40
0.2500000000000001
 40
0.5000000000000001
 40
0.5000000000000001
 40
0.5000000000000001
 40
0.7500000000000002
 40
0.7500000000000002
 40
0.7500000000000002
 40
1.0
 40
1.0
 40
1.0
 40
1.0
 10
70.88331019627425
 20
168.115647870025
 30
0.0
 10
70.27054862112384
 20
168.1155724402259
 30
0.0
 10
69.65436449406495
 20
168.1155169195869
 30
0.0
 10
69.03547051710073
 20
168.1154798255303
 30
0.0
 10
68.41657654013656
 20
168.1154427314737
 30
0.0
 10
67.79328976576262
 20
168.1154240543168
 30
0.0
 10
67.17058410146184
 20
168.1154240754806
 30
0.0
 10
66.54787843716109
 20
168.1154240966444
 30
0.0
 10
65.9272527621233
 20
168.1154427293163
 30
0.0
 10
65.30867606442831
 20
168.1154797995302
 30
0.0
 10
64.69009936673334
 20
168.1155168697442
 30
0.0
 10
64.07188534300215
 20
168.1155726013739
 30
0.0
 10
63.46026022423454
 20
168.1156478809428
 30
0.0
  0
SPLINE
  5
1E3
330
188
100
AcDbEntity
  8
MEGA_002151
  6
CONTINUOUS
 62
     7
 48
25.4
100
AcDbSpline
210
0.0
220
0.0
230
1.0
 70
     8
 71
     3
 72
    17
 73
    13
 74
     0
 42
0.0000000001
 43
0.0000000001
 40
0.0
 40
0.0
 40
0.0
 40
0.0
 40
0.2500000000000001
 40
0.2500000000000001
 40
0.2500000000000001
 40
0.5000000000000001
 40
0.5000000000000001
 40
0.5000000000000001
 40
0.75
 40
0.75
 40
0.75
 40
1.0
 40
1.0
 40
1.0
 40
1.0
 10
63.46026022420617
 20
228.3906610519406
 30
0.0
 10
64.07302208725862
 20
228.390736471423
 30
0.0
 10
64.68920228642308
 20
228.3907919976753
 30
0.0
 10
65.30809629570491
 20
228.3908290986047
 30
0.0
 10
65.92699030498672
 20
228.3908661995342
 30
0.0
 10
66.55028123752135
 20
228.3908848844268
 30
0.0
 10
67.17298455958135
 20
228.3908848573946
 30
0.0
 10
67.79568788164131
 20
228.3908848303623
 30
0.0
 10
68.41631310575066
 20
228.3908662054991
 30
0.0
 10
69.03489071944033
 20
228.3908291420994
 30
0.0
 10
69.65346833312994
 20
228.3907920786996
 30
0.0
 10
70.27168568517381
 20
228.3907363526879
 30
0.0
 10
70.88331019632
 20
228.3906610628579
 30
0.0
  0
SPLINE
  5
1E4
330
188
100
AcDbEntity
  8
MEGA_002151
  6
CONTINUOUS
 62
     7
 48
25.4
100
AcDbSpline
210
0.0
220
0.0
230
1.0
 70
     8
 71
     3
 72
    14
 73
    10
 74
     0
 42
0.0000000001
 43
0.0000000001
 40
0.0
 40
0.0
 40
0.0
 40
0.0
 40
0.5
 40
0.5
 40
0.5
 40
0.75
 40
0.75
 40
0.75
 40
1.0
 40
1.0
 40
1.0
 40
1.0
 10
63.44510114357593
 20
168.1722063206685
 30
0.0
 10
64.67274103498313
 20
168.1724069735862
 30
0.0
 10
65.92242978583494
 20
168.1725050208307
 30
0.0
 10
67.17127092173739
 20
168.1725050404307
 30
0.0
 10
67.79569148968859
 20
168.1725050502307
 30
0.0
 10
68.42167391007544
 20
168.1724801146164
 30
0.0
 10
69.04339916265923
 20
168.1724305461734
 30
0.0
 10
69.66512441524294
 20
168.1723809777303
 30
0.0
 10
70.28401757658791
 20
168.1723067785927
 30
0.0
 10
70.89846983766799
 20
168.1722063346557
 30
0.0
  0
ARC
  5
1E5
330
188
100
AcDbEntity
  8
MEGA_002151
  6
CONTINUOUS
 62
     7
 48
25.4
100
AcDbCircle
 10
67.1698344151
 20
897.5992802008
 30
0.0
 40
719.6883621187002
100
AcDbArc
 50
269.5716263988
 51
270.4286915021
  0
ARC
  5
1E6
330
188
100
AcDbEntity
  8
MEGA_002151
  6
CONTINUOUS
 62
     7
 48
25.4
100
AcDbCircle
 10
-88.8952972488
 20
200.3091718743
 30
0.0
 40
162.9933512563
100
AcDbArc
 50
348.6286385326
 51
352.108672682
  0
ARC
  5
1E7
330
188
100
AcDbEntity
  8
MEGA_002151
  6
CONTINUOUS
 62
     7
 48
25.4
100
AcDbCircle
 10
-353.3068864378
 20
198.2753745542
 30
0.0
 40
429.8230641580001
100
AcDbArc
 50
358.8721514627
 51
1.1219747004
  0
ARC
  5
1E8
330
188
100
AcDbEntity
  8
MEGA_002151
  6
CONTINUOUS
 62
     7
 48
25.4
100
AcDbCircle
 10
223.2438954372
 20
200.3085900749
 30
0.0
 40
162.998165077
100
AcDbArc
 50
187.8908969129
 51
191.3708125586
  0
ARC
  5
1E9
330
188
100
AcDbEntity
  8
MEGA_002151
  6
CONTINUOUS
 62
     7
 48
25.4
100
AcDbCircle
 10
44.4541665298
 20
206.3344568938
 30
0.0
 40
31.98233571499998
100
AcDbArc
 50
0.6404248405
 51
3.4572394001
  0
CIRCLE
  5
1EA
330
188
100
AcDbEntity
  8
MEGA_002304
  6
CONTINUOUS
 62
     7
 48
25.4
100
AcDbCircle
 10
45.6717950735
 20
198.2531544665
 30
0.0
 40
2.399999999999977
  0
LINE
  5
1EB
330
188
100
AcDbEntity
  8
MEGA_002304
  6
CONTINUOUS
 62
     7
 48
25.4
100
AcDbLine
 10
88.6717950735
 20
211.2531544665
 30
0.0
 11
88.6717950735
 21
210.2531544665
 31
0.0
  0
LINE
  5
1EC
330
188
100
AcDbEntity
  8
MEGA_002304
  6
CONTINUOUS
 62
     7
 48
25.4
100
AcDbLine
 10
45.6717950735
 20
211.2531544665
 30
0.0
 11
45.6717950735
 21
210.2531544665
 31
0.0
  0
LINE
  5
1ED
330
188
100
AcDbEntity
  8
MEGA_002304
  6
CONTINUOUS
 62
     7
 48
25.4
100
AcDbLine
 10
45.6717950735
 20
186.2531544665
 30
0.0
 11
45.6717950735
 21
185.2531544665
 31
0.0
  0
LINE
  5
1EE
330
188
100
AcDbEntity
  8
MEGA_002304
  6
CONTINUOUS
 62
     7
 48
25.4
100
AcDbLine
 10
88.6717950735
 20
186.2531544665
 30
0.0
 11
88.6717950735
 21
185.2531544665
 31
0.0
  0
CIRCLE
  5
1EF
330
188
100
AcDbEntity
  8
MEGA_002304
  6
CONTINUOUS
 62
     7
 48
25.4
100
AcDbCircle
 10
45.6717950735
 20
198.2531544665
 30
0.0
 40
4.550000000000068
  0
CIRCLE
  5
1F0
330
188
100
AcDbEntity
  8
MEGA_002304
  6
CONTINUOUS
 62
     7
 48
25.4
100
AcDbCircle
 10
88.6717950735
 20
198.2531544665
 30
0.0
 40
4.550000000000068
  0
CIRCLE
  5
1F1
330
188
100
AcDbEntity
  8
MEGA_002304
  6
CONTINUOUS
 62
     7
 48
25.4
100
AcDbCircle
 10
88.6717950735
 20
198.2531544665
 30
0.0
 40
2.399999999999977
  0
LINE
  5
1F2
330
188
100
AcDbEntity
  8
MEGA_002304
  6
CONTINUOUS
 62
     7
 48
25.4
100
AcDbLine
 10
58.1801579989
 20
185.2531544665
 30
0.0
 11
45.6717950735
 21
185.2531544665
 31
0.0
  0
LINE
  5
1F3
330
188
100
AcDbEntity
  8
MEGA_002304
  6
CONTINUOUS
 62
     7
 48
25.4
100
AcDbLine
 10
88.6717950735
 20
185.2531544665
 30
0.0
 11
76.1737910802
 21
185.2531544665
 31
0.0
  0
LINE
  5
1F4
330
188
100
AcDbEntity
  8
MEGA_002304
  6
CONTINUOUS
 62
     7
 48
25.4
100
AcDbLine
 10
45.6717950735
 20
211.2531544665
 30
0.0
 11
58.1697993199
 21
211.2531544665
 31
0.0
  0
LINE
  5
1F5
330
188
100
AcDbEntity
  8
MEGA_002304
  6
CONTINUOUS
 62
     7
 48
25.4
100
AcDbLine
 10
45.6717950735
 20
186.2531544665
 30
0.0
 11
58.1074521727
 21
186.2531544665
 31
0.0
  0
LINE
  5
1F6
330
188
100
AcDbEntity
  8
MEGA_002304
  6
CONTINUOUS
 62
     7
 48
25.4
100
AcDbLine
 10
58.0914703747
 20
210.2531544665
 30
0.0
 11
45.6717950735
 21
210.2531544665
 31
0.0
  0
ARC
  5
1F7
330
188
100
AcDbEntity
  8
MEGA_002304
  6
CONTINUOUS
 62
     7
 48
25.4
100
AcDbCircle
 10
45.6717950735
 20
198.2531544665
 30
0.0
 40
12.0
100
AcDbArc
 50
90.0
 51
270.0
  0
LINE
  5
1F8
330
188
100
AcDbEntity
  8
MEGA_002304
  6
CONTINUOUS
 62
     7
 48
25.4
100
AcDbLine
 10
76.163432271
 20
211.2531544665
 30
0.0
 11
88.6717950735
 21
211.2531544665
 31
0.0
  0
ARC
  5
1F9
330
188
100
AcDbEntity
  8
MEGA_002304
  6
CONTINUOUS
 62
     7
 48
25.4
100
AcDbCircle
 10
45.6717950735
 20
198.2531544665
 30
0.0
 40
13.0
100
AcDbArc
 50
90.0
 51
270.0
  0
ARC
  5
1FA
330
188
100
AcDbEntity
  8
MEGA_002304
  6
CONTINUOUS
 62
     7
 48
25.4
100
AcDbCircle
 10
88.6717950735
 20
198.2531544665
 30
0.0
 40
13.0
100
AcDbArc
 50
270.0
 51
90.0
  0
LINE
  5
1FB
330
188
100
AcDbEntity
  8
MEGA_002304
  6
CONTINUOUS
 62
     7
 48
25.4
100
AcDbLine
 10
76.2521196093
 20
186.2531544665
 30
0.0
 11
88.6717950735
 21
186.2531544665
 31
0.0
  0
ARC
  5
1FC
330
188
100
AcDbEntity
  8
MEGA_002304
  6
CONTINUOUS
 62
     7
 48
25.4
100
AcDbCircle
 10
88.6717950735
 20
198.2531544665
 30
0.0
 40
12.0
100
AcDbArc
 50
270.0
 51
90.0
  0
LINE
  5
1FD
330
188
100
AcDbEntity
  8
MEGA_002304
  6
CONTINUOUS
 62
     7
 48
25.4
100
AcDbLine
 10
88.6717950735
 20
210.2531544665
 30
0.0
 11
76.236138056
 21
210.2531544665
 31
0.0
  0
LINE
  5
1FE
330
188
100
AcDbEntity
  8
STANDARD
  6
CENTER2
 62
     7
 48
25.4
100
AcDbLine
 10
67.1717950735
 20
155.5031833606
 30
0.0
 11
67.1717950735
 21
240.8125111206
 31
0.0
  0
LINE
  5
1FF
330
188
100
AcDbEntity
  8
STANDARD
  6
CENTER2
 62
     7
 48
25.4
100
AcDbLine
 10
30.9329936227
 20
198.2531544665
 30
0.0
 11
102.8353774536
 21
198.2531544665
 31
0.0
  0
LINE
  5
200
330
188
100
AcDbEntity
  8
STANDARD
  6
CENTER2
 62
     7
 48
25.4
100
AcDbLine
 10
45.6717950735
 20
190.9100869504
 30
0.0
 11
45.6717950735
 21
204.9454322742
 31
0.0
  0
LINE
  5
201
330
188
100
AcDbEntity
  8
STANDARD
  6
CENTER2
 62
     7
 48
25.4
100
AcDbLine
 10
88.6717950735
 20
191.7153936493
 30
0.0
 11
88.6717950735
 21
205.0604760883
 31
0.0
  0
ENDBLK
  5
203
330
188
100
AcDbEntity
  8
0
100
AcDbBlockEnd
  0
BLOCK
  5
20C
330
204
100
AcDbEntity
  8
0
100
AcDbBlockBegin
  2
SE7
 70
     0
 71
     0
 10
0.0
 20
0.0
 30
0.0
  3
SE7
  1

  0
POLYLINE
  5
206
330
204
100
AcDbEntity
  8
DEFAULT
  6
CONTINUOUS
 62
     7
 48
25.4
100
AcDb2dPolyline
 66
     1
 10
0.0
 20
0.0
 30
0.0
 70
     1
  0
VERTEX
  5
24D
330
206
100
AcDbEntity
  8
DEFAULT
  6
CONTINUOUS
 62
     7
100
AcDbVertex
100
AcDb2dVertex
 10
21.4709405292
 20
98.5159463334
 30
0.0
  0
VERTEX
  5
24E
330
206
100
AcDbEntity
  8
DEFAULT
  6
CONTINUOUS
 62
     7
100
AcDbVertex
100
AcDb2dVertex
 10
21.9709405336
 20
101.5159463595
 30
0.0
  0
VERTEX
  5
24F
330
206
100
AcDbEntity
  8
DEFAULT
  6
CONTINUOUS
 62
     7
100
AcDbVertex
100
AcDb2dVertex
 10
22.4709405379
 20
98.5159463334
 30
0.0
  0
VERTEX
  5
250
330
206
100
AcDbEntity
  8
DEFAULT
  6
CONTINUOUS
 62
     7
100
AcDbVertex
100
AcDb2dVertex
 10
21.4709405292
 20
98.5159463334
 30
0.0
  0
SEQEND
  5
24C
330
206
100
AcDbEntity
  8
DEFAULT
  6
CONTINUOUS
 62
     7
 48
25.4
  0
LINE
  5
207
330
204
100
AcDbEntity
  8
DEFAULT
  6
CONTINUOUS
 62
     7
 48
25.4
100
AcDbLine
 10
67.1717950735
 20
51.5159463595
 30
0.0
 11
20.4709405206
 21
51.5159463595
 31
0.0
  0
LINE
  5
208
330
204
100
AcDbEntity
  8
DEFAULT
  6
CONTINUOUS
 62
     7
 48
25.4
100
AcDbLine
 10
32.6717950735
 20
101.5159463595
 30
0.0
 11
20.4709405206
 21
101.5159463595
 31
0.0
  0
LINE
  5
209
330
204
100
AcDbEntity
  8
DEFAULT
  6
CONTINUOUS
 62
     7
 48
25.4
100
AcDbLine
 10
21.9709405336
 20
51.5159463595
 30
0.0
 11
21.9709405336
 21
101.5159471045
 31
0.0
  0
TEXT
  5
20B
330
204
100
AcDbEntity
  8
DEFAULT
  6
CONTINUOUS
 62
     7
 48
25.4
100
AcDbText
 10
21.2209405336
 20
74.7773103684
 30
0.0
 40
3.0
  1
50
 50
90.0
  7
SEACAD_SEISO_TTF
 11
18.2209405336
 21
74.7773103684
 31
0.0
100
AcDbText
 73
     3
  0
ENDBLK
  5
20D
330
204
100
AcDbEntity
  8
0
100
AcDbBlockEnd
  0
BLOCK
  5
216
330
20E
100
AcDbEntity
  8
0
100
AcDbBlockBegin
  2
SE8
 70
     0
 71
     0
 10
0.0
 20
0.0
 30
0.0
  3
SE8
  1

  0
POLYLINE
  5
210
330
20E
100
AcDbEntity
  8
DEFAULT
  6
CONTINUOUS
 62
     7
 48
25.4
100
AcDb2dPolyline
 66
     1
 10
0.0
 20
0.0
 30
0.0
 70
     1
  0
VERTEX
  5
252
330
210
100
AcDbEntity
  8
DEFAULT
  6
CONTINUOUS
 62
     7
100
AcDbVertex
100
AcDb2dVertex
 10
21.5285780681
 20
133.5159463334
 30
0.0
  0
VERTEX
  5
253
330
210
100
AcDbEntity
  8
DEFAULT
  6
CONTINUOUS
 62
     7
100
AcDbVertex
100
AcDb2dVertex
 10
22.0285780725
 20
136.5159463595
 30
0.0
  0
VERTEX
  5
254
330
210
100
AcDbEntity
  8
DEFAULT
  6
CONTINUOUS
 62
     7
100
AcDbVertex
100
AcDb2dVertex
 10
22.5285780768
 20
133.5159463334
 30
0.0
  0
VERTEX
  5
255
330
210
100
AcDbEntity
  8
DEFAULT
  6
CONTINUOUS
 62
     7
100
AcDbVertex
100
AcDb2dVertex
 10
21.5285780681
 20
133.5159463334
 30
0.0
  0
SEQEND
  5
251
330
210
100
AcDbEntity
  8
DEFAULT
  6
CONTINUOUS
 62
     7
 48
25.4
  0
POLYLINE
  5
211
330
20E
100
AcDbEntity
  8
DEFAULT
  6
CONTINUOUS
 62
     7
 48
25.4
100
AcDb2dPolyline
 66
     1
 10
0.0
 20
0.0
 30
0.0
 70
     1
  0
VERTEX
  5
257
330
211
100
AcDbEntity
  8
DEFAULT
  6
CONTINUOUS
 62
     7
100
AcDbVertex
100
AcDb2dVertex
 10
21.5285780681
 20
104.5159463856
 30
0.0
  0
VERTEX
  5
258
330
211
100
AcDbEntity
  8
DEFAULT
  6
CONTINUOUS
 62
     7
100
AcDbVertex
100
AcDb2dVertex
 10
22.0285780725
 20
101.5159463595
 30
0.0
  0
VERTEX
  5
259
330
211
100
AcDbEntity
  8
DEFAULT
  6
CONTINUOUS
 62
     7
100
AcDbVertex
100
AcDb2dVertex
 10
22.5285780768
 20
104.5159463856
 30
0.0
  0
VERTEX
  5
25A
330
211
100
AcDbEntity
  8
DEFAULT
  6
CONTINUOUS
 62
     7
100
AcDbVertex
100
AcDb2dVertex
 10
21.5285780681
 20
104.5159463856
 30
0.0
  0
SEQEND
  5
256
330
211
100
AcDbEntity
  8
DEFAULT
  6
CONTINUOUS
 62
     7
 48
25.4
  0
LINE
  5
212
330
20E
100
AcDbEntity
  8
DEFAULT
  6
CONTINUOUS
 62
     7
 48
25.4
100
AcDbLine
 10
64.0117950735
 20
136.5159463595
 30
0.0
 11
20.5285780595
 21
136.5159463595
 31
0.0
  0
LINE
  5
213
330
20E
100
AcDbEntity
  8
DEFAULT
  6
CONTINUOUS
 62
     7
 48
25.4
100
AcDbLine
 10
32.6717950735
 20
101.5159463595
 30
0.0
 11
20.5285780595
 21
101.5159463595
 31
0.0
  0
LINE
  5
214
330
20E
100
AcDbEntity
  8
DEFAULT
  6
CONTINUOUS
 62
     7
 48
25.4
100
AcDbLine
 10
22.0285780725
 20
136.5159463595
 30
0.0
 11
22.0285780725
 21
101.5159462105
 31
0.0
  0
TEXT
  5
215
330
20E
100
AcDbEntity
  8
DEFAULT
  6
CONTINUOUS
 62
     7
 48
25.4
100
AcDbText
 10
21.2785780725
 20
117.3795826486
 30
0.0
 40
3.0
  1
35
 50
90.0
  7
SEACAD_SEISO_TTF
 11
18.2785780725
 21
117.3795826486
 31
0.0
100
AcDbText
 73
     3
  0
ENDBLK
  5
217
330
20E
100
AcDbEntity
  8
0
100
AcDbBlockEnd
  0
BLOCK
  5
222
330
218
100
AcDbEntity
  8
0
100
AcDbBlockBegin
  2
SE9
 70
     0
 71
     0
 10
0.0
 20
0.0
 30
0.0
  3
SE9
  1

  0
POLYLINE
  5
21A
330
218
100
AcDbEntity
  8
DEFAULT
  6
CONTINUOUS
 62
     7
 48
25.4
100
AcDb2dPolyline
 66
     1
 10
0.0
 20
0.0
 30
0.0
 70
     1
  0
VERTEX
  5
25C
330
21A
100
AcDbEntity
  8
DEFAULT
  6
CONTINUOUS
 62
     7
100
AcDbVertex
100
AcDb2dVertex
 10
149.9090031544
 20
150.0541180881
 30
0.0
  0
VERTEX
  5
25D
330
21A
100
AcDbEntity
  8
DEFAULT
  6
CONTINUOUS
 62
     7
100
AcDbVertex
100
AcDb2dVertex
 10
152.9090031805
 20
149.5541180838
 30
0.0
  0
VERTEX
  5
25E
330
21A
100
AcDbEntity
  8
DEFAULT
  6
CONTINUOUS
 62
     7
100
AcDbVertex
100
AcDb2dVertex
 10
149.9090031544
 20
149.0541180794
 30
0.0
  0
VERTEX
  5
25F
330
21A
100
AcDbEntity
  8
DEFAULT
  6
CONTINUOUS
 62
     7
100
AcDbVertex
100
AcDb2dVertex
 10
149.9090031544
 20
150.0541180881
 30
0.0
  0
SEQEND
  5
25B
330
21A
100
AcDbEntity
  8
DEFAULT
  6
CONTINUOUS
 62
     7
 48
25.4
  0
POLYLINE
  5
21B
330
218
100
AcDbEntity
  8
DEFAULT
  6
CONTINUOUS
 62
     7
 48
25.4
100
AcDb2dPolyline
 66
     1
 10
0.0
 20
0.0
 30
0.0
 70
     1
  0
VERTEX
  5
261
330
21B
100
AcDbEntity
  8
DEFAULT
  6
CONTINUOUS
 62
     7
100
AcDbVertex
100
AcDb2dVertex
 10
162.9090032065
 20
150.0541180881
 30
0.0
  0
VERTEX
  5
262
330
21B
100
AcDbEntity
  8
DEFAULT
  6
CONTINUOUS
 62
     7
100
AcDbVertex
100
AcDb2dVertex
 10
159.9090031805
 20
149.5541180838
 30
0.0
  0
VERTEX
  5
263
330
21B
100
AcDbEntity
  8
DEFAULT
  6
CONTINUOUS
 62
     7
100
AcDbVertex
100
AcDb2dVertex
 10
162.9090032065
 20
149.0541180794
 30
0.0
  0
VERTEX
  5
264
330
21B
100
AcDbEntity
  8
DEFAULT
  6
CONTINUOUS
 62
     7
100
AcDbVertex
100
AcDb2dVertex
 10
162.9090032065
 20
150.0541180881
 30
0.0
  0
SEQEND
  5
260
330
21B
100
AcDbEntity
  8
DEFAULT
  6
CONTINUOUS
 62
     7
 48
25.4
  0
LINE
  5
21C
330
218
100
AcDbEntity
  8
DEFAULT
  6
CONTINUOUS
 62
     7
 48
25.4
100
AcDbLine
 10
152.9090031805
 20
134.7261988912
 30
0.0
 11
152.9090031805
 21
151.0541180968
 31
0.0
  0
LINE
  5
21D
330
218
100
AcDbEntity
  8
DEFAULT
  6
CONTINUOUS
 62
     7
 48
25.4
100
AcDbLine
 10
159.9090031805
 20
134.7261988912
 30
0.0
 11
159.9090031805
 21
151.0541180968
 31
0.0
  0
LINE
  5
21E
330
218
100
AcDbEntity
  8
DEFAULT
  6
CONTINUOUS
 62
     7
 48
25.4
100
AcDbLine
 10
141.8338585468
 20
149.5541180838
 30
0.0
 11
165.9090034487
 21
149.5541180838
 31
0.0
  0
TEXT
  5
21F
330
218
100
AcDbEntity
  8
DEFAULT
  6
CONTINUOUS
 62
     7
 48
25.4
100
AcDbText
 10
144.7929495075
 20
148.8041180838
 30
0.0
 40
3.0
  1
7
 50
180.0
  7
SEACAD_SEISO_TTF
 11
144.7929495075
 21
145.8041180838
 31
0.0
100
AcDbText
 73
     3
  0
TEXT
  5
221
330
218
100
AcDbEntity
  8
DEFAULT
  6
CONTINUOUS
 62
     7
 48
25.4
100
AcDbText
 10
148.4990630446
 20
148.8041180838
 30
0.0
 40
3.0
  1
q
 50
180.0
  7
SEACAD_SEMECI1_TTF
 11
148.4990630446
 21
145.8041180838
 31
0.0
100
AcDbText
 73
     3
  0
ENDBLK
  5
223
330
218
100
AcDbEntity
  8
0
100
AcDbBlockEnd
  0
BLOCK
  5
22C
330
224
100
AcDbEntity
  8
0
100
AcDbBlockBegin
  2
SE10
 70
     0
 71
     0
 10
0.0
 20
0.0
 30
0.0
  3
SE10
  1

  0
POLYLINE
  5
226
330
224
100
AcDbEntity
  8
DEFAULT
  6
CONTINUOUS
 62
     7
 48
25.4
100
AcDb2dPolyline
 66
     1
 10
0.0
 20
0.0
 30
0.0
 70
     1
  0
VERTEX
  5
266
330
226
100
AcDbEntity
  8
DEFAULT
  6
CONTINUOUS
 62
     7
100
AcDbVertex
100
AcDb2dVertex
 10
119.468909889
 20
38.5119226786
 30
0.0
  0
VERTEX
  5
267
330
226
100
AcDbEntity
  8
DEFAULT
  6
CONTINUOUS
 62
     7
100
AcDbVertex
100
AcDb2dVertex
 10
116.4689098629
 20
39.0119226829
 30
0.0
  0
VERTEX
  5
268
330
226
100
AcDbEntity
  8
DEFAULT
  6
CONTINUOUS
 62
     7
100
AcDbVertex
100
AcDb2dVertex
 10
119.468909889
 20
39.5119226873
 30
0.0
  0
VERTEX
  5
269
330
226
100
AcDbEntity
  8
DEFAULT
  6
CONTINUOUS
 62
     7
100
AcDbVertex
100
AcDb2dVertex
 10
119.468909889
 20
38.5119226786
 30
0.0
  0
SEQEND
  5
265
330
226
100
AcDbEntity
  8
DEFAULT
  6
CONTINUOUS
 62
     7
 48
25.4
  0
POLYLINE
  5
227
330
224
100
AcDbEntity
  8
DEFAULT
  6
CONTINUOUS
 62
     7
 48
25.4
100
AcDb2dPolyline
 66
     1
 10
0.0
 20
0.0
 30
0.0
 70
     1
  0
VERTEX
  5
26B
330
227
100
AcDbEntity
  8
DEFAULT
  6
CONTINUOUS
 62
     7
100
AcDbVertex
100
AcDb2dVertex
 10
193.3455855555
 20
38.5119226786
 30
0.0
  0
VERTEX
  5
26C
330
227
100
AcDbEntity
  8
DEFAULT
  6
CONTINUOUS
 62
     7
100
AcDbVertex
100
AcDb2dVertex
 10
196.3455855816
 20
39.0119226829
 30
0.0
  0
VERTEX
  5
26D
330
227
100
AcDbEntity
  8
DEFAULT
  6
CONTINUOUS
 62
     7
100
AcDbVertex
100
AcDb2dVertex
 10
193.3455855555
 20
39.5119226873
 30
0.0
  0
VERTEX
  5
26E
330
227
100
AcDbEntity
  8
DEFAULT
  6
CONTINUOUS
 62
     7
100
AcDbVertex
100
AcDb2dVertex
 10
193.3455855555
 20
38.5119226786
 30
0.0
  0
SEQEND
  5
26A
330
227
100
AcDbEntity
  8
DEFAULT
  6
CONTINUOUS
 62
     7
 48
25.4
  0
LINE
  5
228
330
224
100
AcDbEntity
  8
DEFAULT
  6
CONTINUOUS
 62
     7
 48
25.4
100
AcDbLine
 10
116.4689098629
 20
64.1891518788
 30
0.0
 11
116.4689098629
 21
37.5119226699
 31
0.0
  0
LINE
  5
229
330
224
100
AcDbEntity
  8
DEFAULT
  6
CONTINUOUS
 62
     7
 48
25.4
100
AcDbLine
 10
196.3455855816
 20
63.5206413231
 30
0.0
 11
196.3455855816
 21
37.5119226699
 31
0.0
  0
LINE
  5
22A
330
224
100
AcDbEntity
  8
DEFAULT
  6
CONTINUOUS
 62
     7
 48
25.4
100
AcDbLine
 10
116.4689098629
 20
39.0119226829
 30
0.0
 11
196.3455860648
 21
39.0119226829
 31
0.0
  0
TEXT
  5
22B
330
224
100
AcDbEntity
  8
DEFAULT
  6
CONTINUOUS
 62
     7
 48
25.4
100
AcDbText
 10
158.2481570548
 20
38.2619226829
 30
0.0
 40
3.0
  1
80
 50
180.0
  7
SEACAD_SEISO_TTF
 11
158.2481570548
 21
35.2619226829
 31
0.0
100
AcDbText
 73
     3
  0
ENDBLK
  5
22D
330
224
100
AcDbEntity
  8
0
100
AcDbBlockEnd
  0
BLOCK
  5
236
330
22E
100
AcDbEntity
  8
0
100
AcDbBlockBegin
  2
SE11
 70
     0
 71
     0
 10
0.0
 20
0.0
 30
0.0
  3
SE11
  1

  0
POLYLINE
  5
230
330
22E
100
AcDbEntity
  8
DEFAULT
  6
CONTINUOUS
 62
     7
 48
25.4
100
AcDb2dPolyline
 66
     1
 10
0.0
 20
0.0
 30
0.0
 70
     1
  0
VERTEX
  5
270
330
230
100
AcDbEntity
  8
DEFAULT
  6
CONTINUOUS
 62
     7
100
AcDbVertex
100
AcDb2dVertex
 10
35.6717950995
 20
262.7760233425
 30
0.0
  0
VERTEX
  5
271
330
230
100
AcDbEntity
  8
DEFAULT
  6
CONTINUOUS
 62
     7
100
AcDbVertex
100
AcDb2dVertex
 10
32.6717950735
 20
262.2760233382
 30
0.0
  0
VERTEX
  5
272
330
230
100
AcDbEntity
  8
DEFAULT
  6
CONTINUOUS
 62
     7
100
AcDbVertex
100
AcDb2dVertex
 10
35.6717950995
 20
261.7760233338
 30
0.0
  0
VERTEX
  5
273
330
230
100
AcDbEntity
  8
DEFAULT
  6
CONTINUOUS
 62
     7
100
AcDbVertex
100
AcDb2dVertex
 10
35.6717950995
 20
262.7760233425
 30
0.0
  0
SEQEND
  5
26F
330
230
100
AcDbEntity
  8
DEFAULT
  6
CONTINUOUS
 62
     7
 48
25.4
  0
POLYLINE
  5
231
330
22E
100
AcDbEntity
  8
DEFAULT
  6
CONTINUOUS
 62
     7
 48
25.4
100
AcDb2dPolyline
 66
     1
 10
0.0
 20
0.0
 30
0.0
 70
     1
  0
VERTEX
  5
275
330
231
100
AcDbEntity
  8
DEFAULT
  6
CONTINUOUS
 62
     7
100
AcDbVertex
100
AcDb2dVertex
 10
98.6717950474
 20
262.7760233425
 30
0.0
  0
VERTEX
  5
276
330
231
100
AcDbEntity
  8
DEFAULT
  6
CONTINUOUS
 62
     7
100
AcDbVertex
100
AcDb2dVertex
 10
101.6717950735
 20
262.2760233382
 30
0.0
  0
VERTEX
  5
277
330
231
100
AcDbEntity
  8
DEFAULT
  6
CONTINUOUS
 62
     7
100
AcDbVertex
100
AcDb2dVertex
 10
98.6717950474
 20
261.7760233338
 30
0.0
  0
VERTEX
  5
278
330
231
100
AcDbEntity
  8
DEFAULT
  6
CONTINUOUS
 62
     7
100
AcDbVertex
100
AcDb2dVertex
 10
98.6717950474
 20
262.7760233425
 30
0.0
  0
SEQEND
  5
274
330
231
100
AcDbEntity
  8
DEFAULT
  6
CONTINUOUS
 62
     7
 48
25.4
  0
LINE
  5
232
330
22E
100
AcDbEntity
  8
DEFAULT
  6
CONTINUOUS
 62
     7
 48
25.4
100
AcDbLine
 10
32.6717950735
 20
198.2531544665
 30
0.0
 11
32.6717950735
 21
263.7760233512
 31
0.0
  0
LINE
  5
233
330
22E
100
AcDbEntity
  8
DEFAULT
  6
CONTINUOUS
 62
     7
 48
25.4
100
AcDbLine
 10
101.6717950735
 20
198.2531544665
 30
0.0
 11
101.6717950735
 21
263.7760233512
 31
0.0
  0
LINE
  5
234
330
22E
100
AcDbEntity
  8
DEFAULT
  6
CONTINUOUS
 62
     7
 48
25.4
100
AcDbLine
 10
32.6717950735
 20
262.2760233382
 30
0.0
 11
101.671793345
 21
262.2760233382
 31
0.0
  0
TEXT
  5
235
330
22E
100
AcDbEntity
  8
DEFAULT
  6
CONTINUOUS
 62
     7
 48
25.4
100
AcDbText
 10
69.0127033001
 20
261.5260233382
 30
0.0
 40
3.0
  1
69
 50
180.0
  7
SEACAD_SEISO_TTF
 11
69.0127033001
 21
258.5260233382
 31
0.0
100
AcDbText
 73
     3
  0
ENDBLK
  5
237
330
22E
100
AcDbEntity
  8
0
100
AcDbBlockEnd
  0
BLOCK
  5
240
330
238
100
AcDbEntity
  8
0
100
AcDbBlockBegin
  2
SE12
 70
     0
 71
     0
 10
0.0
 20
0.0
 30
0.0
  3
SE12
  1

  0
POLYLINE
  5
23A
330
238
100
AcDbEntity
  8
DEFAULT
  6
CONTINUOUS
 62
     7
 48
25.4
100
AcDb2dPolyline
 66
     1
 10
0.0
 20
0.0
 30
0.0
 70
     1
  0
VERTEX
  5
27A
330
23A
100
AcDbEntity
  8
DEFAULT
  6
CONTINUOUS
 62
     7
100
AcDbVertex
100
AcDb2dVertex
 10
48.6717950995
 20
254.5079017126
 30
0.0
  0
VERTEX
  5
27B
330
23A
100
AcDbEntity
  8
DEFAULT
  6
CONTINUOUS
 62
     7
100
AcDbVertex
100
AcDb2dVertex
 10
45.6717950735
 20
254.0079017082
 30
0.0
  0
VERTEX
  5
27C
330
23A
100
AcDbEntity
  8
DEFAULT
  6
CONTINUOUS
 62
     7
100
AcDbVertex
100
AcDb2dVertex
 10
48.6717950995
 20
253.5079017039
 30
0.0
  0
VERTEX
  5
27D
330
23A
100
AcDbEntity
  8
DEFAULT
  6
CONTINUOUS
 62
     7
100
AcDbVertex
100
AcDb2dVertex
 10
48.6717950995
 20
254.5079017126
 30
0.0
  0
SEQEND
  5
279
330
23A
100
AcDbEntity
  8
DEFAULT
  6
CONTINUOUS
 62
     7
 48
25.4
  0
POLYLINE
  5
23B
330
238
100
AcDbEntity
  8
DEFAULT
  6
CONTINUOUS
 62
     7
 48
25.4
100
AcDb2dPolyline
 66
     1
 10
0.0
 20
0.0
 30
0.0
 70
     1
  0
VERTEX
  5
27F
330
23B
100
AcDbEntity
  8
DEFAULT
  6
CONTINUOUS
 62
     7
100
AcDbVertex
100
AcDb2dVertex
 10
85.6717950474
 20
254.5079017126
 30
0.0
  0
VERTEX
  5
280
330
23B
100
AcDbEntity
  8
DEFAULT
  6
CONTINUOUS
 62
     7
100
AcDbVertex
100
AcDb2dVertex
 10
88.6717950735
 20
254.0079017082
 30
0.0
  0
VERTEX
  5
281
330
23B
100
AcDbEntity
  8
DEFAULT
  6
CONTINUOUS
 62
     7
100
AcDbVertex
100
AcDb2dVertex
 10
85.6717950474
 20
253.5079017039
 30
0.0
  0
VERTEX
  5
282
330
23B
100
AcDbEntity
  8
DEFAULT
  6
CONTINUOUS
 62
     7
100
AcDbVertex
100
AcDb2dVertex
 10
85.6717950474
 20
254.5079017126
 30
0.0
  0
SEQEND
  5
27E
330
23B
100
AcDbEntity
  8
DEFAULT
  6
CONTINUOUS
 62
     7
 48
25.4
  0
LINE
  5
23C
330
238
100
AcDbEntity
  8
DEFAULT
  6
CONTINUOUS
 62
     7
 48
25.4
100
AcDbLine
 10
45.6717950735
 20
198.2531544665
 30
0.0
 11
45.6717950735
 21
255.5079017213
 31
0.0
  0
LINE
  5
23D
330
238
100
AcDbEntity
  8
DEFAULT
  6
CONTINUOUS
 62
     7
 48
25.4
100
AcDbLine
 10
88.6717950735
 20
198.2531544665
 30
0.0
 11
88.6717950735
 21
255.5079017213
 31
0.0
  0
LINE
  5
23E
330
238
100
AcDbEntity
  8
DEFAULT
  6
CONTINUOUS
 62
     7
 48
25.4
100
AcDbLine
 10
45.6717950735
 20
254.0079017082
 30
0.0
 11
88.6717965338
 21
254.0079017082
 31
0.0
  0
TEXT
  5
23F
330
238
100
AcDbEntity
  8
DEFAULT
  6
CONTINUOUS
 62
     7
 48
25.4
100
AcDbText
 10
68.8422503491
 20
253.2579017082
 30
0.0
 40
3.0
  1
43
 50
180.0
  7
SEACAD_SEISO_TTF
 11
68.8422503491
 21
250.2579017082
 31
0.0
100
AcDbText
 73
     3
  0
ENDBLK
  5
241
330
238
100
AcDbEntity
  8
0
100
AcDbBlockEnd
  0
BLOCK
  5
24A
330
242
100
AcDbEntity
  8
0
100
AcDbBlockBegin
  2
SE13
 70
     0
 71
     0
 10
0.0
 20
0.0
 30
0.0
  3
SE13
  1

  0
POLYLINE
  5
244
330
242
100
AcDbEntity
  8
DEFAULT
  6
CONTINUOUS
 62
     7
 48
25.4
100
AcDb2dPolyline
 66
     1
 10
0.0
 20
0.0
 30
0.0
 70
     1
  0
VERTEX
  5
284
330
244
100
AcDbEntity
  8
DEFAULT
  6
CONTINUOUS
 62
     7
100
AcDbVertex
100
AcDb2dVertex
 10
21.5511169572
 20
188.2531544926
 30
0.0
  0
VERTEX
  5
285
330
244
100
AcDbEntity
  8
DEFAULT
  6
CONTINUOUS
 62
     7
100
AcDbVertex
100
AcDb2dVertex
 10
22.0511169615
 20
185.2531544665
 30
0.0
  0
VERTEX
  5
286
330
244
100
AcDbEntity
  8
DEFAULT
  6
CONTINUOUS
 62
     7
100
AcDbVertex
100
AcDb2dVertex
 10
22.5511169659
 20
188.2531544926
 30
0.0
  0
VERTEX
  5
287
330
244
100
AcDbEntity
  8
DEFAULT
  6
CONTINUOUS
 62
     7
100
AcDbVertex
100
AcDb2dVertex
 10
21.5511169572
 20
188.2531544926
 30
0.0
  0
SEQEND
  5
283
330
244
100
AcDbEntity
  8
DEFAULT
  6
CONTINUOUS
 62
     7
 48
25.4
  0
POLYLINE
  5
245
330
242
100
AcDbEntity
  8
DEFAULT
  6
CONTINUOUS
 62
     7
 48
25.4
100
AcDb2dPolyline
 66
     1
 10
0.0
 20
0.0
 30
0.0
 70
     1
  0
VERTEX
  5
289
330
245
100
AcDbEntity
  8
DEFAULT
  6
CONTINUOUS
 62
     7
100
AcDbVertex
100
AcDb2dVertex
 10
21.5511169572
 20
208.2531544404
 30
0.0
  0
VERTEX
  5
28A
330
245
100
AcDbEntity
  8
DEFAULT
  6
CONTINUOUS
 62
     7
100
AcDbVertex
100
AcDb2dVertex
 10
22.0511169615
 20
211.2531544665
 30
0.0
  0
VERTEX
  5
28B
330
245
100
AcDbEntity
  8
DEFAULT
  6
CONTINUOUS
 62
     7
100
AcDbVertex
100
AcDb2dVertex
 10
22.5511169659
 20
208.2531544404
 30
0.0
  0
VERTEX
  5
28C
330
245
100
AcDbEntity
  8
DEFAULT
  6
CONTINUOUS
 62
     7
100
AcDbVertex
100
AcDb2dVertex
 10
21.5511169572
 20
208.2531544404
 30
0.0
  0
SEQEND
  5
288
330
245
100
AcDbEntity
  8
DEFAULT
  6
CONTINUOUS
 62
     7
 48
25.4
  0
LINE
  5
246
330
242
100
AcDbEntity
  8
DEFAULT
  6
CONTINUOUS
 62
     7
 48
25.4
100
AcDbLine
 10
45.6717950735
 20
185.2531544665
 30
0.0
 11
20.5511169485
 21
185.2531544665
 31
0.0
  0
LINE
  5
247
330
242
100
AcDbEntity
  8
DEFAULT
  6
CONTINUOUS
 62
     7
 48
25.4
100
AcDbLine
 10
45.6717950735
 20
211.2531544665
 30
0.0
 11
20.5511169485
 21
211.2531544665
 31
0.0
  0
LINE
  5
248
330
242
100
AcDbEntity
  8
DEFAULT
  6
CONTINUOUS
 62
     7
 48
25.4
100
AcDbLine
 10
22.0511169616
 20
185.2531544665
 30
0.0
 11
22.0511169616
 21
211.2531550029
 31
0.0
  0
TEXT
  5
249
330
242
100
AcDbEntity
  8
DEFAULT
  6
CONTINUOUS
 62
     7
 48
25.4
100
AcDbText
 10
21.3011169616
 20
196.4122456438
 30
0.0
 40
3.0
  1
26
 50
90.0
  7
SEACAD_SEISO_TTF
 11
18.3011169616
 21
196.4122456438
 31
0.0
100
AcDbText
 73
     3
  0
ENDBLK
  5
24B
330
242
100
AcDbEntity
  8
0
100
AcDbBlockEnd
  0
ENDSEC
  0
SECTION
  2
ENTITIES
  0
INSERT
  5
2F
330
1F
100
AcDbEntity
  8
0
100
AcDbBlockReference
  2
SE
 10
0.0
 20
0.0
 30
0.0
  0
INSERT
  5
36
330
1F
100
AcDbEntity
  8
0
100
AcDbBlockReference
  2
SE1
 10
0.0
 20
0.0
 30
0.0
  0
INSERT
  5
3B
330
1F
100
AcDbEntity
  8
0
100
AcDbBlockReference
  2
SE2
 10
0.0
 20
0.0
 30
0.0
  0
INSERT
  5
40
330
1F
100
AcDbEntity
  8
0
100
AcDbBlockReference
  2
SE3
 10
0.0
 20
0.0
 30
0.0
  0
INSERT
  5
45
330
1F
100
AcDbEntity
  8
0
100
AcDbBlockReference
  2
SE4
 10
0.0
 20
0.0
 30
0.0
  0
INSERT
  5
E1
330
1F
100
AcDbEntity
  8
0
100
AcDbBlockReference
  2
SE5
 10
0.0
 20
0.0
 30
0.0
  0
INSERT
  5
189
330
1F
100
AcDbEntity
  8
0
100
AcDbBlockReference
  2
SE6
 10
0.0
 20
0.0
 30
0.0
  0
INSERT
  5
205
330
1F
100
AcDbEntity
  8
0
100
AcDbBlockReference
  2
SE7
 10
0.0
 20
0.0
 30
0.0
  0
INSERT
  5
20F
330
1F
100
AcDbEntity
  8
0
100
AcDbBlockReference
  2
SE8
 10
0.0
 20
0.0
 30
0.0
  0
INSERT
  5
219
330
1F
100
AcDbEntity
  8
0
100
AcDbBlockReference
  2
SE9
 10
0.0
 20
0.0
 30
0.0
  0
INSERT
  5
225
330
1F
100
AcDbEntity
  8
0
100
AcDbBlockReference
  2
SE10
 10
0.0
 20
0.0
 30
0.0
  0
INSERT
  5
22F
330
1F
100
AcDbEntity
  8
0
100
AcDbBlockReference
  2
SE11
 10
0.0
 20
0.0
 30
0.0
  0
INSERT
  5
239
330
1F
100
AcDbEntity
  8
0
100
AcDbBlockReference
  2
SE12
 10
0.0
 20
0.0
 30
0.0
  0
INSERT
  5
243
330
1F
100
AcDbEntity
  8
0
100
AcDbBlockReference
  2
SE13
 10
0.0
 20
0.0
 30
0.0
  0
ENDSEC
  0
SECTION
  2
OBJECTS
  0
DICTIONARY
  5
C
330
0
100
AcDbDictionary
  3
ACAD_GROUP
350
D
  3
ACAD_LAYOUT
350
1A
  3
ACAD_MLINESTYLE
350
17
  3
ACAD_PLOTSETTINGS
350
19
  3
ACAD_TABLESTYLE
350
2A
  3
ACDBVARIABLEDICTIONARY
350
2C
1001
ACAD
1000
TREAT_AS_HARD
1070
     0
  0
DICTIONARY
  5
28D
330
29
100
AcDbDictionary
  3
ACAD_XREC_ROUNDTRIP
360
28E
  0
DICTIONARY
  5
D
102
{ACAD_REACTORS
330
C
102
}
330
C
100
AcDbDictionary
1001
ACAD
1000
TREAT_AS_HARD
1070
     0
  0
DICTIONARY
  5
1A
102
{ACAD_REACTORS
330
C
102
}
330
C
100
AcDbDictionary
1001
ACAD
1000
TREAT_AS_HARD
1070
     0
  0
DICTIONARY
  5
17
102
{ACAD_REACTORS
330
C
102
}
330
C
100
AcDbDictionary
  3
STANDARD
350
18
1001
ACAD
1000
TREAT_AS_HARD
1070
     0
  0
DICTIONARY
  5
19
102
{ACAD_REACTORS
330
C
102
}
330
C
100
AcDbDictionary
1001
ACAD
1000
TREAT_AS_HARD
1070
     0
  0
DICTIONARY
  5
2A
102
{ACAD_REACTORS
330
C
102
}
330
C
100
AcDbDictionary
  3
STANDARD
350
2B
1001
ACAD
1000
TREAT_AS_HARD
1070
     0
  0
DICTIONARY
  5
2C
102
{ACAD_REACTORS
330
C
102
}
330
C
100
AcDbDictionary
  3
CTABLESTYLE
350
2D
1001
ACAD
1000
TREAT_AS_HARD
1070
     0
  0
XRECORD
  5
28E
102
{ACAD_REACTORS
330
28D
102
}
330
28D
100
AcDbXrecord
102
UCS
 74
     0
 71
     1
 10
0.0
 20
0.0
 30
0.0
 10
1.0
 20
0.0
 30
0.0
 10
0.0
 20
1.0
 30
0.0
146
0.0
 79
     0
102
VIEW
281
     0
  0
MLINESTYLE
  5
18
102
{ACAD_REACTORS
330
17
102
}
330
17
100
AcDbMlineStyle
  2
Standard
 70
     0
  3

 62
   256
 51
90.0
 52
90.0
 71
     2
 49
0.5
 62
   256
  6
BYLAYER
 49
-0.5
 62
   256
  6
BYLAYER
  0
TABLESTYLE
  5
2B
102
{ACAD_REACTORS
330
2A
102
}
330
2A
100
AcDbTableStyle
  3
Standard
 70
     0
 71
     0
 40
0.06
 41
0.06
280
     0
281
     0
  7
STANDARD
140
0.18
170
     2
 62
     0
 63
     7
283
     0
274
    -2
284
     1
 64
     0
275
    -2
285
     1
 65
     0
276
    -2
286
     1
 66
     0
277
    -2
287
     1
 67
     0
278
    -2
288
     1
 68
     0
279
    -2
289
     1
 69
     0
  7
STANDARD
140
0.25
170
     5
 62
     0
 63
     7
283
     0
274
    -2
284
     1
 64
     0
275
    -2
285
     1
 65
     0
276
    -2
286
     1
 66
     0
277
    -2
287
     1
 67
     0
278
    -2
288
     1
 68
     0
279
    -2
289
     1
 69
     0
  7
STANDARD
140
0.18
170
     5
 62
     0
 63
     7
283
     0
274
    -2
284
     1
 64
     0
275
    -2
285
     1
 65
     0
276
    -2
286
     1
 66
     0
277
    -2
287
     1
 67
     0
278
    -2
288
     1
 68
     0
279
    -2
289
     1
 69
     0
  0
DICTIONARYVAR
  5
2D
102
{ACAD_REACTORS
330
2C
102
}
330
2C
100
DictionaryVariables
280
     0
  1
Standard
  0
ENDSEC
  0
EOF
