  0
SECTION
  2
HEADER
  9
$ACADVER
  1
AC1012
  9
$DWGCODEPAGE
  3
ansi_1252
  9
$INSBASE
 10
0.0
 20
0.0
 30
0.0
  9
$EXTMIN
 10
0.0
 20
0.0
 30
0.0
  9
$EXTMAX
 10
210.0
 20
297.0
 30
0.0
  9
$LIMMIN
 10
0.0
 20
0.0
  9
$LIMMAX
 10
210.0
 20
297.0
  9
$ORTHOMODE
 70
     0
  9
$REGENMODE
 70
     1
  9
$FILLMODE
 70
     1
  9
$QTEXTMODE
 70
     0
  9
$MIRRTEXT
 70
     1
  9
$DRAGMODE
 70
     2
  9
$LTSCALE
 40
1.0
  9
$OSMODE
 70
    37
  9
$ATTMODE
 70
     1
  9
$TEXTSIZE
 40
0.2
  9
$TRACEWID
 40
0.05
  9
$TEXTSTYLE
  7
STANDARD
  9
$CLAYER
  8
0
  9
$CELTYPE
  6
BYLAYER
  9
$CECOLOR
 62
   256
  9
$CELTSCALE
 40
25.4
  9
$DELOBJ
 70
     1
  9
$DISPSILH
 70
     0
  9
$DIMSCALE
 40
1.0
  9
$DIMASZ
 40
0.18
  9
$DIMEXO
 40
0.0625
  9
$DIMDLI
 40
0.38
  9
$DIMRND
 40
0.0
  9
$DIMDLE
 40
0.0
  9
$DIMEXE
 40
0.18
  9
$DIMTP
 40
0.0
  9
$DIMTM
 40
0.0
  9
$DIMTXT
 40
0.18
  9
$DIMCEN
 40
0.09
  9
$DIMTSZ
 40
0.0
  9
$DIMTOL
 70
     0
  9
$DIMLIM
 70
     0
  9
$DIMTIH
 70
     1
  9
$DIMTOH
 70
     1
  9
$DIMSE1
 70
     0
  9
$DIMSE2
 70
     0
  9
$DIMTAD
 70
     0
  9
$DIMZIN
 70
     0
  9
$DIMBLK
  1

  9
$DIMASO
 70
     1
  9
$DIMSHO
 70
     1
  9
$DIMPOST
  1

  9
$DIMAPOST
  1

  9
$DIMALT
 70
     0
  9
$DIMALTD
 70
     2
  9
$DIMALTF
 40
25.4
  9
$DIMLFAC
 40
1.0
  9
$DIMTOFL
 70
     0
  9
$DIMTVP
 40
0.0
  9
$DIMTIX
 70
     0
  9
$DIMSOXD
 70
     0
  9
$DIMSAH
 70
     0
  9
$DIMBLK1
  1

  9
$DIMBLK2
  1

  9
$DIMSTYLE
  2
STANDARD
  9
$DIMCLRD
 70
     0
  9
$DIMCLRE
 70
     0
  9
$DIMCLRT
 70
     0
  9
$DIMTFAC
 40
1.0
  9
$DIMGAP
 40
0.09
  9
$DIMJUST
 70
     0
  9
$DIMSD1
 70
     0
  9
$DIMSD2
 70
     0
  9
$DIMTOLJ
 70
     1
  9
$DIMTZIN
 70
     0
  9
$DIMALTZ
 70
     0
  9
$DIMALTTZ
 70
     0
  9
$DIMFIT
 70
     3
  9
$DIMUPT
 70
     0
  9
$DIMUNIT
 70
     2
  9
$DIMDEC
 70
     4
  9
$DIMTDEC
 70
     4
  9
$DIMALTU
 70
     2
  9
$DIMALTTD
 70
     2
  9
$DIMTXSTY
  7
STANDARD
  9
$DIMAUNIT
 70
     0
  9
$LUNITS
 70
     2
  9
$LUPREC
 70
     4
  9
$SKETCHINC
 40
0.1
  9
$FILLETRAD
 40
0.5
  9
$AUNITS
 70
     0
  9
$AUPREC
 70
     0
  9
$MENU
  1
.
  9
$ELEVATION
 40
0.0
  9
$PELEVATION
 40
0.0
  9
$THICKNESS
 40
0.0
  9
$LIMCHECK
 70
     0
  9
$CHAMFERA
 40
0.5
  9
$CHAMFERB
 40
0.5
  9
$CHAMFERC
 40
1.0
  9
$CHAMFERD
 40
0.0
  9
$SKPOLY
 70
     0
  9
$TDCREATE
 40
2453762.545336296
  9
$TDUPDATE
 40
2453762.545336308
  9
$TDINDWG
 40
0.0000000116
  9
$TDUSRTIMER
 40
0.0000000116
  9
$USRTIMER
 70
     1
  9
$ANGBASE
 50
0.0
  9
$ANGDIR
 70
     0
  9
$PDMODE
 70
     0
  9
$PDSIZE
 40
0.0
  9
$PLINEWID
 40
0.0
  9
$COORDS
 70
     1
  9
$SPLFRAME
 70
     0
  9
$SPLINETYPE
 70
     6
  9
$SPLINESEGS
 70
     8
  9
$ATTDIA
 70
     0
  9
$ATTREQ
 70
     1
  9
$HANDLING
 70
     1
  9
$HANDSEED
  5
B8
  9
$SURFTAB1
 70
     6
  9
$SURFTAB2
 70
     6
  9
$SURFTYPE
 70
     6
  9
$SURFU
 70
     6
  9
$SURFV
 70
     6
  9
$UCSNAME
  2

  9
$UCSORG
 10
0.0
 20
0.0
 30
0.0
  9
$UCSXDIR
 10
1.0
 20
0.0
 30
0.0
  9
$UCSYDIR
 10
0.0
 20
1.0
 30
0.0
  9
$PUCSNAME
  2

  9
$PUCSORG
 10
0.0
 20
0.0
 30
0.0
  9
$PUCSXDIR
 10
1.0
 20
0.0
 30
0.0
  9
$PUCSYDIR
 10
0.0
 20
1.0
 30
0.0
  9
$USERI1
 70
     0
  9
$USERI2
 70
     0
  9
$USERI3
 70
     0
  9
$USERI4
 70
     0
  9
$USERI5
 70
     0
  9
$USERR1
 40
0.0
  9
$USERR2
 40
0.0
  9
$USERR3
 40
0.0
  9
$USERR4
 40
0.0
  9
$USERR5
 40
0.0
  9
$WORLDVIEW
 70
     1
  9
$SHADEDGE
 70
     3
  9
$SHADEDIF
 70
    70
  9
$TILEMODE
 70
     1
  9
$MAXACTVP
 70
    64
  9
$PINSBASE
 10
0.0
 20
0.0
 30
0.0
  9
$PLIMCHECK
 70
     0
  9
$PEXTMIN
 10
0.0
 20
0.0
 30
0.0
  9
$PEXTMAX
 10
210.0
 20
297.0
 30
0.0
  9
$PLIMMIN
 10
0.0
 20
0.0
  9
$PLIMMAX
 10
12.0
 20
9.0
  9
$UNITMODE
 70
     0
  9
$VISRETAIN
 70
     1
  9
$PLINEGEN
 70
     0
  9
$PSLTSCALE
 70
     1
  9
$TREEDEPTH
 70
  3020
  9
$PICKSTYLE
 70
     1
  9
$CMLSTYLE
  2
STANDARD
  9
$CMLJUST
 70
     0
  9
$CMLSCALE
 40
1.0
  9
$SAVEIMAGES
 70
     1
  0
ENDSEC
  0
SECTION
  2
CLASSES
  0
CLASS
  1
ACDBDICTIONARYWDFLT
  2
AcDbDictionaryWithDefault
  3
ObjectDBX Classes
 90
        0
280
     0
281
     0
  0
CLASS
  1
TABLESTYLE
  2
AcDbTableStyle
  3
ObjectDBX Classes
 90
     2047
280
     0
281
     0
  0
CLASS
  1
DICTIONARYVAR
  2
AcDbDictionaryVar
  3
ObjectDBX Classes
 90
        0
280
     0
281
     0
  0
CLASS
  1
XRECORD
  2
AcDbXrecord
  3
AutoCAD 2000
 90
    32768
280
     0
281
     0
  0
CLASS
  1
LWPOLYLINE
  2
AcDbPolyline
  3
AutoCAD 2000
 90
    32768
280
     0
281
     1
  0
CLASS
  1
HATCH
  2
AcDbHatch
  3
AutoCAD 2000
 90
    32768
280
     0
281
     1
  0
CLASS
  1
ACDBPLACEHOLDER
  2
AcDbPlaceHolder
  3
ObjectDBX Classes
 90
        0
280
     0
281
     0
  0
CLASS
  1
LAYOUT
  2
AcDbLayout
  3
ObjectDBX Classes
 90
        0
280
     0
281
     0
  0
ENDSEC
  0
SECTION
  2
TABLES
  0
TABLE
  2
VPORT
  5
8
330
0
100
AcDbSymbolTable
 70
     2
  0
VPORT
  5
29
102
{ACAD_XDICTIONARY
360
B6
102
}
330
8
100
AcDbSymbolTableRecord
100
AcDbViewportTableRecord
  2
*ACTIVE
 70
     0
 10
0.0
 20
0.0
 11
1.0
 21
1.0
 12
10.4299065421
 22
4.5
 13
0.0
 23
0.0
 14
0.5
 24
0.5
 15
0.5
 25
0.5
 16
0.0
 26
0.0
 36
1.0
 17
0.0
 27
0.0
 37
0.0
 40
9.0
 41
1.9729729729
 42
50.0
 43
0.0
 44
0.0
 50
0.0
 51
0.0
 71
     0
 72
   100
 73
     1
 74
     3
 75
     0
 76
     0
 77
     0
 78
     0
  0
ENDTAB
  0
TABLE
  2
LTYPE
  5
5
330
0
100
AcDbSymbolTable
 70
     2
  0
LTYPE
  5
14
330
5
100
AcDbSymbolTableRecord
100
AcDbLinetypeTableRecord
  2
BYBLOCK
 70
     0
  3

 72
    65
 73
     0
 40
0.0
  0
LTYPE
  5
15
330
5
100
AcDbSymbolTableRecord
100
AcDbLinetypeTableRecord
  2
BYLAYER
 70
     0
  3

 72
    65
 73
     0
 40
0.0
  0
LTYPE
  5
16
330
5
100
AcDbSymbolTableRecord
100
AcDbLinetypeTableRecord
  2
CONTINUOUS
 70
     0
  3
Solid line
 72
    65
 73
     0
 40
0.0
  0
LTYPE
  5
33
330
5
100
AcDbSymbolTableRecord
100
AcDbLinetypeTableRecord
  2
CENTER2
 70
     0
  3
___ _ ___ _ ___ _ ___ _ ___ _ ___ _ ___ _ ___ _
 72
    65
 73
     4
 40
1.125
 49
0.75
 74
     4
 75
     0
340
0
 46
0.0
 50
0.0
 44
0.0
 45
0.0
 49
-0.125
 74
     4
 75
     0
340
0
 46
0.0
 50
0.0
 44
0.0
 45
0.0
 49
0.125
 74
     4
 75
     0
340
0
 46
0.0
 50
0.0
 44
0.0
 45
0.0
 49
-0.125
 74
     4
 75
     0
340
0
 46
0.0
 50
0.0
 44
0.0
 45
0.0
  0
ENDTAB
  0
TABLE
  2
LAYER
  5
2
330
0
100
AcDbSymbolTable
 70
     3
  0
LAYER
  5
10
330
2
100
AcDbSymbolTableRecord
100
AcDbLayerTableRecord
  2
0
 70
     0
 62
     7
  6
CONTINUOUS
  0
LAYER
  5
30
330
2
100
AcDbSymbolTableRecord
100
AcDbLayerTableRecord
  2
DEFAULT
 70
     0
 62
     7
  6
CONTINUOUS
  0
LAYER
  5
39
330
2
100
AcDbSymbolTableRecord
100
AcDbLayerTableRecord
  2
MEGA_002155
 70
     0
 62
     7
  6
CONTINUOUS
  0
ENDTAB
  0
TABLE
  2
STYLE
  5
3
330
0
100
AcDbSymbolTable
 70
     3
  0
STYLE
  5
11
330
3
100
AcDbSymbolTableRecord
100
AcDbTextStyleTableRecord
  2
STANDARD
 70
     0
 40
0.0
 41
1.0
 50
0.0
 71
     0
 42
0.2
  3
txt
  4

  0
STYLE
  5
2E
330
3
100
AcDbSymbolTableRecord
100
AcDbTextStyleTableRecord
  2
SEACAD_SEISO_TTF
 70
     0
 40
0.2
 41
1.0
 50
0.0
 71
     0
 42
0.2
  3
seiso.ttf
  4

  0
STYLE
  5
84
330
3
100
AcDbSymbolTableRecord
100
AcDbTextStyleTableRecord
  2
SEACAD_SEMECI1_TTF
 70
     0
 40
0.2
 41
1.0
 50
0.0
 71
     0
 42
0.2
  3
semeci1.ttf
  4

  0
ENDTAB
  0
TABLE
  2
VIEW
  5
6
330
0
100
AcDbSymbolTable
 70
     0
  0
ENDTAB
  0
TABLE
  2
UCS
  5
7
330
0
100
AcDbSymbolTable
 70
     0
  0
ENDTAB
  0
TABLE
  2
APPID
  5
9
330
0
100
AcDbSymbolTable
 70
     1
  0
APPID
  5
12
330
9
100
AcDbSymbolTableRecord
100
AcDbRegAppTableRecord
  2
ACAD
 70
     0
  0
ENDTAB
  0
TABLE
  2
DIMSTYLE
  5
A
330
0
100
AcDbSymbolTable
 70
     1
  0
DIMSTYLE
105
27
330
A
100
AcDbSymbolTableRecord
100
AcDbDimStyleTableRecord
  2
STANDARD
 70
     0
  3

  4

  5

  6

  7

 40
1.0
 41
0.18
 42
0.0625
 43
0.38
 44
0.18
 45
0.0
 46
0.0
 47
0.0
 48
0.0
140
0.18
141
0.09
142
0.0
143
25.4
144
1.0
145
0.0
146
1.0
147
0.09
 71
     0
 72
     0
 73
     1
 74
     1
 75
     0
 76
     0
 77
     0
 78
     0
170
     0
171
     2
172
     0
173
     0
174
     0
175
     0
176
     0
177
     0
178
     0
270
     2
271
     4
272
     4
273
     2
274
     2
340
11
275
     0
280
     0
281
     0
282
     0
283
     1
284
     0
285
     0
286
     0
287
     3
288
     0
  0
ENDTAB
  0
TABLE
  2
BLOCK_RECORD
  5
1
330
0
100
AcDbSymbolTable
 70
     7
  0
BLOCK_RECORD
  5
1F
330
1
100
AcDbSymbolTableRecord
100
AcDbBlockTableRecord
  2
*MODEL_SPACE
  0
BLOCK_RECORD
  5
1B
330
1
100
AcDbSymbolTableRecord
100
AcDbBlockTableRecord
  2
*PAPER_SPACE
  0
BLOCK_RECORD
  5
31
330
1
100
AcDbSymbolTableRecord
100
AcDbBlockTableRecord
  2
SE
  0
BLOCK_RECORD
  5
37
330
1
100
AcDbSymbolTableRecord
100
AcDbBlockTableRecord
  2
SE1
  0
BLOCK_RECORD
  5
69
330
1
100
AcDbSymbolTableRecord
100
AcDbBlockTableRecord
  2
SE2
  0
BLOCK_RECORD
  5
72
330
1
100
AcDbSymbolTableRecord
100
AcDbBlockTableRecord
  2
SE3
  0
BLOCK_RECORD
  5
7C
330
1
100
AcDbSymbolTableRecord
100
AcDbBlockTableRecord
  2
SE4
  0
BLOCK_RECORD
  5
88
330
1
100
AcDbSymbolTableRecord
100
AcDbBlockTableRecord
  2
SE5
  0
ENDTAB
  0
ENDSEC
  0
SECTION
  2
BLOCKS
  0
BLOCK
  5
20
330
1F
100
AcDbEntity
  8
0
100
AcDbBlockBegin
  2
*MODEL_SPACE
 70
     0
 71
     0
 10
0.0
 20
0.0
 30
0.0
  3
*MODEL_SPACE
  1

  0
ENDBLK
  5
21
330
1F
100
AcDbEntity
  8
0
100
AcDbBlockEnd
  0
BLOCK
  5
1C
330
1B
100
AcDbEntity
 67
     1
  8
0
100
AcDbBlockBegin
  2
*PAPER_SPACE
 70
     0
 71
     0
 10
0.0
 20
0.0
 30
0.0
  3
*PAPER_SPACE
  1

  0
ENDBLK
  5
1D
330
1B
100
AcDbEntity
 67
     1
  8
0
100
AcDbBlockEnd
  0
BLOCK
  5
35
330
31
100
AcDbEntity
  8
0
100
AcDbBlockBegin
  2
SE
 70
     0
 71
     0
 10
0.0
 20
0.0
 30
0.0
  3
SE
  1

  0
LINE
  5
34
330
31
100
AcDbEntity
  8
DEFAULT
  6
CENTER2
 62
     7
 48
25.4
100
AcDbLine
 10
100.534535658
 20
151.2147205752
 30
0.0
 11
100.534535658
 21
208.8573951801
 31
0.0
  0
ENDBLK
  5
36
330
31
100
AcDbEntity
  8
0
100
AcDbBlockEnd
  0
BLOCK
  5
67
330
37
100
AcDbEntity
  8
0
100
AcDbBlockBegin
  2
SE1
 70
     0
 71
     0
 10
0.0
 20
0.0
 30
0.0
  3
SE1
  1

  0
LINE
  5
3A
330
37
100
AcDbEntity
  8
MEGA_002155
  6
CONTINUOUS
 62
     7
 48
25.4
100
AcDbLine
 10
93.034535658
 20
205.9912500924
 30
0.0
 11
108.034535658
 21
205.9912500924
 31
0.0
  0
LINE
  5
3B
330
37
100
AcDbEntity
  8
MEGA_002155
  6
CONTINUOUS
 62
     7
 48
25.4
100
AcDbLine
 10
93.534535658
 20
206.4912500924
 30
0.0
 11
107.534535658
 21
206.4912500924
 31
0.0
  0
LINE
  5
3C
330
37
100
AcDbEntity
  8
MEGA_002155
  6
CONTINUOUS
 62
     7
 48
25.4
100
AcDbLine
 10
93.034535658
 20
205.1912500924
 30
0.0
 11
108.034535658
 21
205.1912500924
 31
0.0
  0
LINE
  5
3D
330
37
100
AcDbEntity
  8
MEGA_002155
  6
CONTINUOUS
 62
     7
 48
25.4
100
AcDbLine
 10
90.5608335021
 20
198.9912500924
 30
0.0
 11
110.5082378139
 21
198.9912500924
 31
0.0
  0
ARC
  5
3E
330
37
100
AcDbEntity
  8
MEGA_002155
  6
CONTINUOUS
 62
     7
 48
25.4
100
AcDbCircle
 10
73.1090599477
 20
189.8309436493
 30
0.0
 40
25.0
100
AcDbArc
 50
279.3240689972
 51
311.5145227744
  0
ARC
  5
3F
330
37
100
AcDbEntity
  8
MEGA_002155
  6
CONTINUOUS
 62
     7
 48
25.4
100
AcDbCircle
 10
127.9600113682
 20
189.8309436493
 30
0.0
 40
25.00000000000001
100
AcDbArc
 50
228.4854772256
 51
230.5573087933
  0
ARC
  5
40
330
37
100
AcDbEntity
  8
MEGA_002155
  6
CONTINUOUS
 62
     7
 48
25.4
100
AcDbCircle
 10
118.0178633946
 20
178.5991275151
 30
0.0
 40
10.0
100
AcDbArc
 50
177.0
 51
228.4854772256
  0
LINE
  5
41
330
37
100
AcDbEntity
  8
MEGA_002155
  6
CONTINUOUS
 62
     7
 48
25.4
100
AcDbLine
 10
108.034535658
 20
205.1912500924
 30
0.0
 11
108.034535658
 21
205.9912500924
 31
0.0
  0
ARC
  5
42
330
37
100
AcDbEntity
  8
MEGA_002155
  6
CONTINUOUS
 62
     7
 48
25.4
100
AcDbCircle
 10
60.034535658
 20
167.3170039521
 30
0.0
 40
3.5
100
AcDbArc
 50
180.0
 51
206.5785195487
  0
LINE
  5
43
330
37
100
AcDbEntity
  8
MEGA_002155
  6
CONTINUOUS
 62
     7
 48
25.4
100
AcDbLine
 10
108.034535658
 20
205.9912500924
 30
0.0
 11
107.534535658
 21
206.4912500924
 31
0.0
  0
ARC
  5
44
330
37
100
AcDbEntity
  8
MEGA_002155
  6
CONTINUOUS
 62
     7
 48
25.4
100
AcDbCircle
 10
74.9642386374
 20
184.5696397551
 30
0.0
 40
19.63284345849999
100
AcDbArc
 50
269.1696203325
 51
278.6720971378
  0
LINE
  5
45
330
37
100
AcDbEntity
  8
MEGA_002155
  6
CONTINUOUS
 62
     7
 48
25.4
100
AcDbLine
 10
74.6794926039
 20
164.9388545801
 30
0.0
 11
74.6797125614
 21
164.9388581309
 31
0.0
  0
ELLIPSE
  5
46
330
37
100
AcDbEntity
  8
MEGA_002155
  6
CONTINUOUS
 62
     7
 48
25.4
100
AcDbEllipse
 10
59.5873746375
 20
167.0932920352
 30
0.0
 11
2.682966122814171
 21
1.342271501525473
 31
0.0
210
0.0
220
0.0
230
1.0
 40
0.9851195686
 41
3.141592653587701
 42
3.350469420689231
  0
ARC
  5
47
330
37
100
AcDbEntity
  8
MEGA_002155
  6
CONTINUOUS
 62
     7
 48
25.4
100
AcDbCircle
 10
76.826550062
 20
180.743777662
 30
0.0
 40
25.0
100
AcDbArc
 50
218.6455954688
 51
263.9515834519
  0
ARC
  5
48
330
37
100
AcDbEntity
  8
MEGA_002155
  6
CONTINUOUS
 62
     7
 48
25.4
100
AcDbCircle
 10
83.0512079213
 20
178.5991275151
 30
0.0
 40
10.0
100
AcDbArc
 50
311.5145227744
 51
3.0
  0
ARC
  5
49
330
37
100
AcDbEntity
  8
MEGA_002155
  6
CONTINUOUS
 62
     7
 48
25.4
100
AcDbCircle
 10
100.534535658
 20
404.4912500926
 30
0.0
 40
250.0000000002001
100
AcDbArc
 50
263.9515834519
 51
276.0484165481
  0
LINE
  5
4A
330
37
100
AcDbEntity
  8
MEGA_002155
  6
CONTINUOUS
 62
     7
 48
25.4
100
AcDbLine
 10
93.034535658
 20
205.9912500924
 30
0.0
 11
93.034535658
 21
205.1912500924
 31
0.0
  0
LINE
  5
4B
330
37
100
AcDbEntity
  8
MEGA_002155
  6
CONTINUOUS
 62
     7
 48
25.4
100
AcDbLine
 10
126.1262941648
 20
164.9366626952
 30
0.0
 11
126.1270379975
 21
164.9366395585
 31
0.0
  0
LINE
  5
4C
330
37
100
AcDbEntity
  8
MEGA_002155
  6
CONTINUOUS
 62
     7
 48
25.4
100
AcDbLine
 10
93.534535658
 20
206.4912500924
 30
0.0
 11
93.034535658
 21
205.9912500924
 31
0.0
  0
ARC
  5
4D
330
37
100
AcDbEntity
  8
MEGA_002155
  6
CONTINUOUS
 62
     7
 48
25.4
100
AcDbCircle
 10
141.034535658
 20
167.3173251805
 30
0.0
 40
3.5
100
AcDbArc
 50
90.7854713634
 51
134.5419579092
  0
ARC
  5
4E
330
37
100
AcDbEntity
  8
MEGA_002155
  6
CONTINUOUS
 62
     7
 48
25.4
100
AcDbCircle
 10
141.034535658
 20
167.3173251805
 30
0.0
 40
3.5
100
AcDbArc
 50
0.0
 51
89.2237281134
  0
LINE
  5
4F
330
37
100
AcDbEntity
  8
MEGA_002155
  6
CONTINUOUS
 62
     7
 48
25.4
100
AcDbLine
 10
140.9865554457
 20
170.8169962935
 30
0.0
 11
140.9928402156
 21
170.8170039521
 31
0.0
  0
LINE
  5
50
330
37
100
AcDbEntity
  8
MEGA_002155
  6
CONTINUOUS
 62
     7
 48
25.4
100
AcDbLine
 10
140.9928402156
 20
170.8170039521
 30
0.0
 11
141.0819539583
 21
170.8170039521
 31
0.0
  0
ARC
  5
51
330
37
100
AcDbEntity
  8
MEGA_002155
  6
CONTINUOUS
 62
     7
 48
25.4
100
AcDbCircle
 10
141.0189646186
 20
167.3177186425
 30
0.0
 40
3.51557106140001
100
AcDbArc
 50
357.1114336717
 51
359.9935874682
  0
ARC
  5
52
330
37
100
AcDbEntity
  8
MEGA_002155
  6
CONTINUOUS
 62
     7
 48
25.4
100
AcDbCircle
 10
60.034535658
 20
167.3170039521
 30
0.0
 40
3.5
100
AcDbArc
 50
45.4920396084
 51
180.0
  0
ARC
  5
53
330
37
100
AcDbEntity
  8
MEGA_002155
  6
CONTINUOUS
 62
     7
 48
25.4
100
AcDbCircle
 10
74.4052068948
 20
181.9366417111
 30
0.0
 40
17.0
100
AcDbArc
 50
225.4920396084
 51
233.064316762
  0
ARC
  5
54
330
37
100
AcDbEntity
  8
MEGA_002155
  6
CONTINUOUS
 62
     7
 48
25.4
100
AcDbCircle
 10
74.4052068948
 20
181.9366417111
 30
0.0
 40
17.0
100
AcDbArc
 50
233.064316762
 51
270.924476202
  0
ARC
  5
55
330
37
100
AcDbEntity
  8
MEGA_002155
  6
CONTINUOUS
 62
     7
 48
25.4
100
AcDbCircle
 10
126.6552099898
 20
181.9284302715
 30
0.0
 40
16.9999999993
100
AcDbArc
 50
260.5065640436
 51
268.2195597837
  0
LINE
  5
56
330
37
100
AcDbEntity
  8
MEGA_002155
  6
CONTINUOUS
 62
     7
 48
25.4
100
AcDbLine
 10
108.034535658
 20
198.9912500924
 30
0.0
 11
108.034535658
 21
203.9912500924
 31
0.0
  0
LINE
  5
57
330
37
100
AcDbEntity
  8
MEGA_002155
  6
CONTINUOUS
 62
     7
 48
25.4
100
AcDbLine
 10
110.5082378139
 20
195.0129073081
 30
0.0
 11
110.5082378139
 21
198.9912500924
 31
0.0
  0
ARC
  5
58
330
37
100
AcDbEntity
  8
MEGA_002155
  6
CONTINUOUS
 62
     7
 48
25.4
100
AcDbCircle
 10
110.5356710403
 20
193.2517024652
 30
0.0
 40
1.761205208899995
100
AcDbArc
 50
90.0369364234
 51
177.0
  0
LINE
  5
59
330
37
100
AcDbEntity
  8
MEGA_002155
  6
CONTINUOUS
 62
     7
 48
25.4
100
AcDbLine
 10
107.434535658
 20
203.9912500924
 30
0.0
 11
107.434535658
 21
205.1912500924
 31
0.0
  0
LINE
  5
5A
330
37
100
AcDbEntity
  8
MEGA_002155
  6
CONTINUOUS
 62
     7
 48
25.4
100
AcDbLine
 10
93.034535658
 20
203.9912500924
 30
0.0
 11
93.034535658
 21
198.9912500924
 31
0.0
  0
LINE
  5
5B
330
37
100
AcDbEntity
  8
MEGA_002155
  6
CONTINUOUS
 62
     7
 48
25.4
100
AcDbLine
 10
90.5608335021
 20
198.9912500924
 30
0.0
 11
90.5608335021
 21
195.0129073081
 31
0.0
  0
ARC
  5
5C
330
37
100
AcDbEntity
  8
MEGA_002155
  6
CONTINUOUS
 62
     7
 48
25.4
100
AcDbCircle
 10
90.5334002756
 20
193.2517024652
 30
0.0
 40
1.761205208899995
100
AcDbArc
 50
3.0
 51
89.9630635766
  0
LINE
  5
5D
330
37
100
AcDbEntity
  8
MEGA_002155
  6
CONTINUOUS
 62
     7
 48
25.4
100
AcDbLine
 10
93.634535658
 20
205.1912500924
 30
0.0
 11
93.634535658
 21
203.9912500924
 31
0.0
  0
LINE
  5
5E
330
37
100
AcDbEntity
  8
MEGA_002155
  6
CONTINUOUS
 62
     7
 48
25.4
100
AcDbLine
 10
92.2921918139
 20
193.343876824
 30
0.0
 11
93.0375032689
 21
179.1224870776
 31
0.0
  0
ARC
  5
5F
330
37
100
AcDbEntity
  8
MEGA_002155
  6
CONTINUOUS
 62
     7
 48
25.4
100
AcDbCircle
 10
141.034535658
 20
167.3173251805
 30
0.0
 40
3.5
100
AcDbArc
 50
324.2163342436
 51
357.1050211398
  0
LINE
  5
60
330
37
100
AcDbEntity
  8
MEGA_002155
  6
CONTINUOUS
 62
     7
 48
25.4
100
AcDbLine
 10
108.0315680471
 20
179.1224870776
 30
0.0
 11
108.776879502
 21
193.343876824
 31
0.0
  0
ARC
  5
61
330
37
100
AcDbEntity
  8
MEGA_002155
  6
CONTINUOUS
 62
     7
 48
25.4
100
AcDbCircle
 10
124.242240633
 20
180.743747928
 30
0.0
 40
25.0
100
AcDbArc
 50
276.0490632842
 51
321.3556184169
  0
ARC
  5
62
330
37
100
AcDbEntity
  8
MEGA_002155
  6
CONTINUOUS
 62
     7
 48
25.4
100
AcDbCircle
 10
126.6551921172
 20
181.9284332609
 30
0.0
 40
16.99999999999999
100
AcDbArc
 50
268.2196545784
 51
306.9667351516
  0
LINE
  5
63
330
37
100
AcDbEntity
  8
MEGA_002155
  6
CONTINUOUS
 62
     7
 48
25.4
100
AcDbLine
 10
90.534535658
 20
195.0129073081
 30
0.0
 11
110.534535658
 21
195.0129073081
 31
0.0
  0
ARC
  5
64
330
37
100
AcDbEntity
  8
MEGA_002155
  6
CONTINUOUS
 62
     7
 48
25.4
100
AcDbCircle
 10
141.034535658
 20
167.3173251805
 30
0.0
 40
3.5
100
AcDbArc
 50
321.3556184169
 51
324.2163342436
  0
ARC
  5
65
330
37
100
AcDbEntity
  8
MEGA_002155
  6
CONTINUOUS
 62
     7
 48
25.4
100
AcDbCircle
 10
126.6551921172
 20
181.9284332609
 30
0.0
 40
16.99999999999999
100
AcDbArc
 50
306.9667351516
 51
314.5419579092
  0
LINE
  5
66
330
37
100
AcDbEntity
  8
MEGA_002155
  6
CONTINUOUS
 62
     7
 48
25.4
100
AcDbLine
 10
93.034535658
 20
203.9912500924
 30
0.0
 11
108.034535658
 21
203.9912500924
 31
0.0
  0
ENDBLK
  5
68
330
37
100
AcDbEntity
  8
0
100
AcDbBlockEnd
  0
BLOCK
  5
70
330
69
100
AcDbEntity
  8
0
100
AcDbBlockBegin
  2
SE2
 70
     0
 71
     0
 10
0.0
 20
0.0
 30
0.0
  3
SE2
  1

  0
POLYLINE
  5
6B
330
69
100
AcDbEntity
  8
DEFAULT
  6
CONTINUOUS
 62
     7
 48
25.4
100
AcDb2dPolyline
 66
     1
 10
0.0
 20
0.0
 30
0.0
 70
     1
  0
VERTEX
  5
94
330
6B
100
AcDbEntity
  8
DEFAULT
  6
CONTINUOUS
 62
     7
100
AcDbVertex
100
AcDb2dVertex
 10
167.4925272855
 20
157.4912501185
 30
0.0
  0
VERTEX
  5
95
330
6B
100
AcDbEntity
  8
DEFAULT
  6
CONTINUOUS
 62
     7
100
AcDbVertex
100
AcDb2dVertex
 10
166.9925272812
 20
154.4912500924
 30
0.0
  0
VERTEX
  5
96
330
6B
100
AcDbEntity
  8
DEFAULT
  6
CONTINUOUS
 62
     7
100
AcDbVertex
100
AcDb2dVertex
 10
166.4925272769
 20
157.4912501185
 30
0.0
  0
VERTEX
  5
97
330
6B
100
AcDbEntity
  8
DEFAULT
  6
CONTINUOUS
 62
     7
100
AcDbVertex
100
AcDb2dVertex
 10
167.4925272855
 20
157.4912501185
 30
0.0
  0
SEQEND
  5
93
330
6B
100
AcDbEntity
  8
DEFAULT
  6
CONTINUOUS
 62
     7
 48
25.4
  0
LINE
  5
6C
330
69
100
AcDbEntity
  8
DEFAULT
  6
CONTINUOUS
 62
     7
 48
25.4
100
AcDbLine
 10
110.5082378139
 20
198.9912500924
 30
0.0
 11
168.4925272942
 21
198.9912500924
 31
0.0
  0
LINE
  5
6D
330
69
100
AcDbEntity
  8
DEFAULT
  6
CONTINUOUS
 62
     7
 48
25.4
100
AcDbLine
 10
100.534535658
 20
154.4912500924
 30
0.0
 11
168.4925272942
 21
154.4912500924
 31
0.0
  0
LINE
  5
6E
330
69
100
AcDbEntity
  8
DEFAULT
  6
CONTINUOUS
 62
     7
 48
25.4
100
AcDbLine
 10
166.9925272812
 20
198.9912500924
 30
0.0
 11
166.9925272812
 21
154.4912493175
 31
0.0
  0
TEXT
  5
6F
330
69
100
AcDbEntity
  8
DEFAULT
  6
CONTINUOUS
 62
     7
 48
25.4
100
AcDbText
 10
166.2425272812
 20
173.8435224322
 30
0.0
 40
3.0
  1
44,5
 50
90.0
  7
SEACAD_SEISO_TTF
 11
163.2425272812
 21
173.8435224322
 31
0.0
100
AcDbText
 73
     3
  0
ENDBLK
  5
71
330
69
100
AcDbEntity
  8
0
100
AcDbBlockEnd
  0
BLOCK
  5
7A
330
72
100
AcDbEntity
  8
0
100
AcDbBlockBegin
  2
SE3
 70
     0
 71
     0
 10
0.0
 20
0.0
 30
0.0
  3
SE3
  1

  0
POLYLINE
  5
74
330
72
100
AcDbEntity
  8
DEFAULT
  6
CONTINUOUS
 62
     7
 48
25.4
100
AcDb2dPolyline
 66
     1
 10
0.0
 20
0.0
 30
0.0
 70
     1
  0
VERTEX
  5
99
330
74
100
AcDbEntity
  8
DEFAULT
  6
CONTINUOUS
 62
     7
100
AcDbVertex
100
AcDb2dVertex
 10
59.5346728931
 20
131.2237888006
 30
0.0
  0
VERTEX
  5
9A
330
74
100
AcDbEntity
  8
DEFAULT
  6
CONTINUOUS
 62
     7
100
AcDbVertex
100
AcDb2dVertex
 10
56.5346709663
 20
131.7237774004
 30
0.0
  0
VERTEX
  5
9B
330
74
100
AcDbEntity
  8
DEFAULT
  6
CONTINUOUS
 62
     7
100
AcDbVertex
100
AcDb2dVertex
 10
59.5346690916
 20
132.2237888093
 30
0.0
  0
VERTEX
  5
9C
330
74
100
AcDbEntity
  8
DEFAULT
  6
CONTINUOUS
 62
     7
100
AcDbVertex
100
AcDb2dVertex
 10
59.5346728931
 20
131.2237888006
 30
0.0
  0
SEQEND
  5
98
330
74
100
AcDbEntity
  8
DEFAULT
  6
CONTINUOUS
 62
     7
 48
25.4
  0
POLYLINE
  5
75
330
72
100
AcDbEntity
  8
DEFAULT
  6
CONTINUOUS
 62
     7
 48
25.4
100
AcDb2dPolyline
 66
     1
 10
0.0
 20
0.0
 30
0.0
 70
     1
  0
VERTEX
  5
9E
330
75
100
AcDbEntity
  8
DEFAULT
  6
CONTINUOUS
 62
     7
100
AcDbVertex
100
AcDb2dVertex
 10
141.534672841
 20
131.2241005251
 30
0.0
  0
VERTEX
  5
9F
330
75
100
AcDbEntity
  8
DEFAULT
  6
CONTINUOUS
 62
     7
100
AcDbVertex
100
AcDb2dVertex
 10
144.5346709663
 20
131.724111934
 30
0.0
  0
VERTEX
  5
A0
330
75
100
AcDbEntity
  8
DEFAULT
  6
CONTINUOUS
 62
     7
100
AcDbVertex
100
AcDb2dVertex
 10
141.5346690395
 20
132.2241005338
 30
0.0
  0
VERTEX
  5
A1
330
75
100
AcDbEntity
  8
DEFAULT
  6
CONTINUOUS
 62
     7
100
AcDbVertex
100
AcDb2dVertex
 10
141.534672841
 20
131.2241005251
 30
0.0
  0
SEQEND
  5
9D
330
75
100
AcDbEntity
  8
DEFAULT
  6
CONTINUOUS
 62
     7
 48
25.4
  0
LINE
  5
76
330
72
100
AcDbEntity
  8
DEFAULT
  6
CONTINUOUS
 62
     7
 48
25.4
100
AcDbLine
 10
56.534535658
 20
167.3170039521
 30
0.0
 11
56.5346766686
 21
130.2237773873
 31
0.0
  0
LINE
  5
77
330
72
100
AcDbEntity
  8
DEFAULT
  6
CONTINUOUS
 62
     7
 48
25.4
100
AcDbLine
 10
144.534535658
 20
167.3173384858
 30
0.0
 11
144.5346766686
 21
130.224111921
 31
0.0
  0
LINE
  5
78
330
72
100
AcDbEntity
  8
DEFAULT
  6
CONTINUOUS
 62
     7
 48
25.4
100
AcDbLine
 10
56.5346709663
 20
131.7237774004
 30
0.0
 11
144.5346704888
 21
131.724111934
 31
0.0
  0
TEXT
  5
79
330
72
100
AcDbEntity
  8
DEFAULT
  6
CONTINUOUS
 62
     7
 48
25.4
100
AcDbText
 10
98.6255769674
 20
132.4739374097
 30
0.0
 40
3.0
  1
88
 50
0.000217811
  7
SEACAD_SEISO_TTF
 11
98.6255655628
 21
135.4739374097
 31
0.0
100
AcDbText
 73
     3
  0
ENDBLK
  5
7B
330
72
100
AcDbEntity
  8
0
100
AcDbBlockEnd
  0
BLOCK
  5
86
330
7C
100
AcDbEntity
  8
0
100
AcDbBlockBegin
  2
SE4
 70
     0
 71
     0
 10
0.0
 20
0.0
 30
0.0
  3
SE4
  1

  0
POLYLINE
  5
7E
330
7C
100
AcDbEntity
  8
DEFAULT
  6
CONTINUOUS
 62
     7
 48
25.4
100
AcDb2dPolyline
 66
     1
 10
0.0
 20
0.0
 30
0.0
 70
     1
  0
VERTEX
  5
A3
330
7E
100
AcDbEntity
  8
DEFAULT
  6
CONTINUOUS
 62
     7
100
AcDbVertex
100
AcDb2dVertex
 10
96.0345356841
 20
223.664389803
 30
0.0
  0
VERTEX
  5
A4
330
7E
100
AcDbEntity
  8
DEFAULT
  6
CONTINUOUS
 62
     7
100
AcDbVertex
100
AcDb2dVertex
 10
93.034535658
 20
223.1643897986
 30
0.0
  0
VERTEX
  5
A5
330
7E
100
AcDbEntity
  8
DEFAULT
  6
CONTINUOUS
 62
     7
100
AcDbVertex
100
AcDb2dVertex
 10
96.0345356841
 20
222.6643897943
 30
0.0
  0
VERTEX
  5
A6
330
7E
100
AcDbEntity
  8
DEFAULT
  6
CONTINUOUS
 62
     7
100
AcDbVertex
100
AcDb2dVertex
 10
96.0345356841
 20
223.664389803
 30
0.0
  0
SEQEND
  5
A2
330
7E
100
AcDbEntity
  8
DEFAULT
  6
CONTINUOUS
 62
     7
 48
25.4
  0
POLYLINE
  5
7F
330
7C
100
AcDbEntity
  8
DEFAULT
  6
CONTINUOUS
 62
     7
 48
25.4
100
AcDb2dPolyline
 66
     1
 10
0.0
 20
0.0
 30
0.0
 70
     1
  0
VERTEX
  5
A8
330
7F
100
AcDbEntity
  8
DEFAULT
  6
CONTINUOUS
 62
     7
100
AcDbVertex
100
AcDb2dVertex
 10
105.0345356319
 20
223.664389803
 30
0.0
  0
VERTEX
  5
A9
330
7F
100
AcDbEntity
  8
DEFAULT
  6
CONTINUOUS
 62
     7
100
AcDbVertex
100
AcDb2dVertex
 10
108.034535658
 20
223.1643897986
 30
0.0
  0
VERTEX
  5
AA
330
7F
100
AcDbEntity
  8
DEFAULT
  6
CONTINUOUS
 62
     7
100
AcDbVertex
100
AcDb2dVertex
 10
105.0345356319
 20
222.6643897943
 30
0.0
  0
VERTEX
  5
AB
330
7F
100
AcDbEntity
  8
DEFAULT
  6
CONTINUOUS
 62
     7
100
AcDbVertex
100
AcDb2dVertex
 10
105.0345356319
 20
223.664389803
 30
0.0
  0
SEQEND
  5
A7
330
7F
100
AcDbEntity
  8
DEFAULT
  6
CONTINUOUS
 62
     7
 48
25.4
  0
LINE
  5
80
330
7C
100
AcDbEntity
  8
DEFAULT
  6
CONTINUOUS
 62
     7
 48
25.4
100
AcDbLine
 10
93.034535658
 20
203.9912500924
 30
0.0
 11
93.034535658
 21
224.6643898117
 31
0.0
  0
LINE
  5
81
330
7C
100
AcDbEntity
  8
DEFAULT
  6
CONTINUOUS
 62
     7
 48
25.4
100
AcDbLine
 10
108.034535658
 20
203.9912500924
 30
0.0
 11
108.034535658
 21
224.6643898117
 31
0.0
  0
LINE
  5
82
330
7C
100
AcDbEntity
  8
DEFAULT
  6
CONTINUOUS
 62
     7
 48
25.4
100
AcDbLine
 10
93.034535658
 20
223.1643897986
 30
0.0
 11
108.0345353227
 21
223.1643897986
 31
0.0
  0
TEXT
  5
83
330
7C
100
AcDbEntity
  8
DEFAULT
  6
CONTINUOUS
 62
     7
 48
25.4
100
AcDbText
 10
100.8889320763
 20
223.9143897986
 30
0.0
 40
3.0
  1
15
  7
SEACAD_SEISO_TTF
 11
100.8889320763
 21
226.9143897986
 31
0.0
100
AcDbText
 73
     3
  0
TEXT
  5
85
330
7C
100
AcDbEntity
  8
DEFAULT
  6
CONTINUOUS
 62
     7
 48
25.4
100
AcDbText
 10
97.2483207226
 20
223.9143897986
 30
0.0
 40
3.0
  1
O
  7
SEACAD_SEMECI1_TTF
 11
97.2483207226
 21
226.9143897986
 31
0.0
100
AcDbText
 73
     3
  0
ENDBLK
  5
87
330
7C
100
AcDbEntity
  8
0
100
AcDbBlockEnd
  0
BLOCK
  5
91
330
88
100
AcDbEntity
  8
0
100
AcDbBlockBegin
  2
SE5
 70
     0
 71
     0
 10
0.0
 20
0.0
 30
0.0
  3
SE5
  1

  0
POLYLINE
  5
8A
330
88
100
AcDbEntity
  8
DEFAULT
  6
CONTINUOUS
 62
     7
 48
25.4
100
AcDb2dPolyline
 66
     1
 10
0.0
 20
0.0
 30
0.0
 70
     1
  0
VERTEX
  5
AD
330
8A
100
AcDbEntity
  8
DEFAULT
  6
CONTINUOUS
 62
     7
100
AcDbVertex
100
AcDb2dVertex
 10
94.0345356319
 20
214.7484367092
 30
0.0
  0
VERTEX
  5
AE
330
8A
100
AcDbEntity
  8
DEFAULT
  6
CONTINUOUS
 62
     7
100
AcDbVertex
100
AcDb2dVertex
 10
97.034535658
 20
214.2484367049
 30
0.0
  0
VERTEX
  5
AF
330
8A
100
AcDbEntity
  8
DEFAULT
  6
CONTINUOUS
 62
     7
100
AcDbVertex
100
AcDb2dVertex
 10
94.0345356319
 20
213.7484367005
 30
0.0
  0
VERTEX
  5
B0
330
8A
100
AcDbEntity
  8
DEFAULT
  6
CONTINUOUS
 62
     7
100
AcDbVertex
100
AcDb2dVertex
 10
94.0345356319
 20
214.7484367092
 30
0.0
  0
SEQEND
  5
AC
330
8A
100
AcDbEntity
  8
DEFAULT
  6
CONTINUOUS
 62
     7
 48
25.4
  0
POLYLINE
  5
8B
330
88
100
AcDbEntity
  8
DEFAULT
  6
CONTINUOUS
 62
     7
 48
25.4
100
AcDb2dPolyline
 66
     1
 10
0.0
 20
0.0
 30
0.0
 70
     1
  0
VERTEX
  5
B2
330
8B
100
AcDbEntity
  8
DEFAULT
  6
CONTINUOUS
 62
     7
100
AcDbVertex
100
AcDb2dVertex
 10
107.0345356841
 20
214.7484367092
 30
0.0
  0
VERTEX
  5
B3
330
8B
100
AcDbEntity
  8
DEFAULT
  6
CONTINUOUS
 62
     7
100
AcDbVertex
100
AcDb2dVertex
 10
104.034535658
 20
214.2484367049
 30
0.0
  0
VERTEX
  5
B4
330
8B
100
AcDbEntity
  8
DEFAULT
  6
CONTINUOUS
 62
     7
100
AcDbVertex
100
AcDb2dVertex
 10
107.0345356841
 20
213.7484367005
 30
0.0
  0
VERTEX
  5
B5
330
8B
100
AcDbEntity
  8
DEFAULT
  6
CONTINUOUS
 62
     7
100
AcDbVertex
100
AcDb2dVertex
 10
107.0345356841
 20
214.7484367092
 30
0.0
  0
SEQEND
  5
B1
330
8B
100
AcDbEntity
  8
DEFAULT
  6
CONTINUOUS
 62
     7
 48
25.4
  0
LINE
  5
8C
330
88
100
AcDbEntity
  8
DEFAULT
  6
CONTINUOUS
 62
     7
 48
25.4
100
AcDbLine
 10
97.034535658
 20
206.4912502809
 30
0.0
 11
97.034535658
 21
215.7484367179
 31
0.0
  0
LINE
  5
8D
330
88
100
AcDbEntity
  8
DEFAULT
  6
CONTINUOUS
 62
     7
 48
25.4
100
AcDbLine
 10
104.034535658
 20
206.4912502809
 30
0.0
 11
104.034535658
 21
215.7484367179
 31
0.0
  0
LINE
  5
8E
330
88
100
AcDbEntity
  8
DEFAULT
  6
CONTINUOUS
 62
     7
 48
25.4
100
AcDbLine
 10
91.0345356058
 20
214.2484367049
 30
0.0
 11
110.0345359262
 21
214.2484367049
 31
0.0
  0
TEXT
  5
8F
330
88
100
AcDbEntity
  8
DEFAULT
  6
CONTINUOUS
 62
     7
 48
25.4
100
AcDbText
 10
100.5030185781
 20
214.9984367049
 30
0.0
 40
3.0
  1
7
  7
SEACAD_SEISO_TTF
 11
100.5030185781
 21
217.9984367049
 31
0.0
100
AcDbText
 73
     3
  0
TEXT
  5
90
330
88
100
AcDbEntity
  8
DEFAULT
  6
CONTINUOUS
 62
     7
 48
25.4
100
AcDbText
 10
96.796905041
 20
214.9984367049
 30
0.0
 40
3.0
  1
q
  7
SEACAD_SEMECI1_TTF
 11
96.796905041
 21
217.9984367049
 31
0.0
100
AcDbText
 73
     3
  0
ENDBLK
  5
92
330
88
100
AcDbEntity
  8
0
100
AcDbBlockEnd
  0
ENDSEC
  0
SECTION
  2
ENTITIES
  0
TEXT
  5
2F
330
1F
100
AcDbEntity
  8
DEFAULT
  6
CONTINUOUS
 62
     7
 48
25.4
100
AcDbText
 10
88.5422011247
 20
71.1853467832
 30
0.0
 40
10.0
  1
39.190
  7
SEACAD_SEISO_TTF
 11
88.5422011247
 21
81.1853467832
 31
0.0
100
AcDbText
 73
     3
  0
INSERT
  5
32
330
1F
100
AcDbEntity
  8
0
100
AcDbBlockReference
  2
SE
 10
0.0
 20
0.0
 30
0.0
  0
INSERT
  5
38
330
1F
100
AcDbEntity
  8
0
100
AcDbBlockReference
  2
SE1
 10
0.0
 20
0.0
 30
0.0
  0
INSERT
  5
6A
330
1F
100
AcDbEntity
  8
0
100
AcDbBlockReference
  2
SE2
 10
0.0
 20
0.0
 30
0.0
  0
INSERT
  5
73
330
1F
100
AcDbEntity
  8
0
100
AcDbBlockReference
  2
SE3
 10
0.0
 20
0.0
 30
0.0
  0
INSERT
  5
7D
330
1F
100
AcDbEntity
  8
0
100
AcDbBlockReference
  2
SE4
 10
0.0
 20
0.0
 30
0.0
  0
INSERT
  5
89
330
1F
100
AcDbEntity
  8
0
100
AcDbBlockReference
  2
SE5
 10
0.0
 20
0.0
 30
0.0
  0
ENDSEC
  0
SECTION
  2
OBJECTS
  0
DICTIONARY
  5
C
330
0
100
AcDbDictionary
  3
ACAD_GROUP
350
D
  3
ACAD_LAYOUT
350
1A
  3
ACAD_MLINESTYLE
350
17
  3
ACAD_PLOTSETTINGS
350
19
  3
ACAD_TABLESTYLE
350
2A
  3
ACDBVARIABLEDICTIONARY
350
2C
1001
ACAD
1000
TREAT_AS_HARD
1070
     0
  0
DICTIONARY
  5
B6
330
29
100
AcDbDictionary
  3
ACAD_XREC_ROUNDTRIP
360
B7
  0
DICTIONARY
  5
D
102
{ACAD_REACTORS
330
C
102
}
330
C
100
AcDbDictionary
1001
ACAD
1000
TREAT_AS_HARD
1070
     0
  0
DICTIONARY
  5
1A
102
{ACAD_REACTORS
330
C
102
}
330
C
100
AcDbDictionary
1001
ACAD
1000
TREAT_AS_HARD
1070
     0
  0
DICTIONARY
  5
17
102
{ACAD_REACTORS
330
C
102
}
330
C
100
AcDbDictionary
  3
STANDARD
350
18
1001
ACAD
1000
TREAT_AS_HARD
1070
     0
  0
DICTIONARY
  5
19
102
{ACAD_REACTORS
330
C
102
}
330
C
100
AcDbDictionary
1001
ACAD
1000
TREAT_AS_HARD
1070
     0
  0
DICTIONARY
  5
2A
102
{ACAD_REACTORS
330
C
102
}
330
C
100
AcDbDictionary
  3
STANDARD
350
2B
1001
ACAD
1000
TREAT_AS_HARD
1070
     0
  0
DICTIONARY
  5
2C
102
{ACAD_REACTORS
330
C
102
}
330
C
100
AcDbDictionary
  3
CTABLESTYLE
350
2D
1001
ACAD
1000
TREAT_AS_HARD
1070
     0
  0
XRECORD
  5
B7
102
{ACAD_REACTORS
330
B6
102
}
330
B6
100
AcDbXrecord
102
UCS
 74
     0
 71
     1
 10
0.0
 20
0.0
 30
0.0
 10
1.0
 20
0.0
 30
0.0
 10
0.0
 20
1.0
 30
0.0
146
0.0
 79
     0
102
VIEW
281
     0
  0
MLINESTYLE
  5
18
102
{ACAD_REACTORS
330
17
102
}
330
17
100
AcDbMlineStyle
  2
Standard
 70
     0
  3

 62
   256
 51
90.0
 52
90.0
 71
     2
 49
0.5
 62
   256
  6
BYLAYER
 49
-0.5
 62
   256
  6
BYLAYER
  0
TABLESTYLE
  5
2B
102
{ACAD_REACTORS
330
2A
102
}
330
2A
100
AcDbTableStyle
  3
Standard
 70
     0
 71
     0
 40
0.06
 41
0.06
280
     0
281
     0
  7
STANDARD
140
0.18
170
     2
 62
     0
 63
     7
283
     0
274
    -2
284
     1
 64
     0
275
    -2
285
     1
 65
     0
276
    -2
286
     1
 66
     0
277
    -2
287
     1
 67
     0
278
    -2
288
     1
 68
     0
279
    -2
289
     1
 69
     0
  7
STANDARD
140
0.25
170
     5
 62
     0
 63
     7
283
     0
274
    -2
284
     1
 64
     0
275
    -2
285
     1
 65
     0
276
    -2
286
     1
 66
     0
277
    -2
287
     1
 67
     0
278
    -2
288
     1
 68
     0
279
    -2
289
     1
 69
     0
  7
STANDARD
140
0.18
170
     5
 62
     0
 63
     7
283
     0
274
    -2
284
     1
 64
     0
275
    -2
285
     1
 65
     0
276
    -2
286
     1
 66
     0
277
    -2
287
     1
 67
     0
278
    -2
288
     1
 68
     0
279
    -2
289
     1
 69
     0
  0
DICTIONARYVAR
  5
2D
102
{ACAD_REACTORS
330
2C
102
}
330
2C
100
DictionaryVariables
280
     0
  1
Standard
  0
ENDSEC
  0
EOF
