  0
SECTION
  2
HEADER
  9
$ACADVER
  1
AC1012
  9
$DWGCODEPAGE
  3
ansi_1252
  9
$INSBASE
 10
0.0
 20
0.0
 30
0.0
  9
$EXTMIN
 10
0.0
 20
0.0
 30
0.0
  9
$EXTMAX
 10
210.0
 20
297.0
 30
0.0
  9
$LIMMIN
 10
0.0
 20
0.0
  9
$LIMMAX
 10
210.0
 20
297.0
  9
$ORTHOMODE
 70
     0
  9
$REGENMODE
 70
     1
  9
$FILLMODE
 70
     1
  9
$QTEXTMODE
 70
     0
  9
$MIRRTEXT
 70
     1
  9
$DRAGMODE
 70
     2
  9
$LTSCALE
 40
1.0
  9
$OSMODE
 70
    37
  9
$ATTMODE
 70
     1
  9
$TEXTSIZE
 40
0.2
  9
$TRACEWID
 40
0.05
  9
$TEXTSTYLE
  7
STANDARD
  9
$CLAYER
  8
0
  9
$CELTYPE
  6
BYLAYER
  9
$CECOLOR
 62
   256
  9
$CELTSCALE
 40
25.4
  9
$DELOBJ
 70
     1
  9
$DISPSILH
 70
     0
  9
$DIMSCALE
 40
1.0
  9
$DIMASZ
 40
0.18
  9
$DIMEXO
 40
0.0625
  9
$DIMDLI
 40
0.38
  9
$DIMRND
 40
0.0
  9
$DIMDLE
 40
0.0
  9
$DIMEXE
 40
0.18
  9
$DIMTP
 40
0.0
  9
$DIMTM
 40
0.0
  9
$DIMTXT
 40
0.18
  9
$DIMCEN
 40
0.09
  9
$DIMTSZ
 40
0.0
  9
$DIMTOL
 70
     0
  9
$DIMLIM
 70
     0
  9
$DIMTIH
 70
     1
  9
$DIMTOH
 70
     1
  9
$DIMSE1
 70
     0
  9
$DIMSE2
 70
     0
  9
$DIMTAD
 70
     0
  9
$DIMZIN
 70
     0
  9
$DIMBLK
  1

  9
$DIMASO
 70
     1
  9
$DIMSHO
 70
     1
  9
$DIMPOST
  1

  9
$DIMAPOST
  1

  9
$DIMALT
 70
     0
  9
$DIMALTD
 70
     2
  9
$DIMALTF
 40
25.4
  9
$DIMLFAC
 40
1.0
  9
$DIMTOFL
 70
     0
  9
$DIMTVP
 40
0.0
  9
$DIMTIX
 70
     0
  9
$DIMSOXD
 70
     0
  9
$DIMSAH
 70
     0
  9
$DIMBLK1
  1

  9
$DIMBLK2
  1

  9
$DIMSTYLE
  2
STANDARD
  9
$DIMCLRD
 70
     0
  9
$DIMCLRE
 70
     0
  9
$DIMCLRT
 70
     0
  9
$DIMTFAC
 40
1.0
  9
$DIMGAP
 40
0.09
  9
$DIMJUST
 70
     0
  9
$DIMSD1
 70
     0
  9
$DIMSD2
 70
     0
  9
$DIMTOLJ
 70
     1
  9
$DIMTZIN
 70
     0
  9
$DIMALTZ
 70
     0
  9
$DIMALTTZ
 70
     0
  9
$DIMFIT
 70
     3
  9
$DIMUPT
 70
     0
  9
$DIMUNIT
 70
     2
  9
$DIMDEC
 70
     4
  9
$DIMTDEC
 70
     4
  9
$DIMALTU
 70
     2
  9
$DIMALTTD
 70
     2
  9
$DIMTXSTY
  7
STANDARD
  9
$DIMAUNIT
 70
     0
  9
$LUNITS
 70
     2
  9
$LUPREC
 70
     4
  9
$SKETCHINC
 40
0.1
  9
$FILLETRAD
 40
0.5
  9
$AUNITS
 70
     0
  9
$AUPREC
 70
     0
  9
$MENU
  1
.
  9
$ELEVATION
 40
0.0
  9
$PELEVATION
 40
0.0
  9
$THICKNESS
 40
0.0
  9
$LIMCHECK
 70
     0
  9
$CHAMFERA
 40
0.5
  9
$CHAMFERB
 40
0.5
  9
$CHAMFERC
 40
1.0
  9
$CHAMFERD
 40
0.0
  9
$SKPOLY
 70
     0
  9
$TDCREATE
 40
2453762.546150093
  9
$TDUPDATE
 40
2453762.546150104
  9
$TDINDWG
 40
0.0000000116
  9
$TDUSRTIMER
 40
0.0000000116
  9
$USRTIMER
 70
     1
  9
$ANGBASE
 50
0.0
  9
$ANGDIR
 70
     0
  9
$PDMODE
 70
     0
  9
$PDSIZE
 40
0.0
  9
$PLINEWID
 40
0.0
  9
$COORDS
 70
     1
  9
$SPLFRAME
 70
     0
  9
$SPLINETYPE
 70
     6
  9
$SPLINESEGS
 70
     8
  9
$ATTDIA
 70
     0
  9
$ATTREQ
 70
     1
  9
$HANDLING
 70
     1
  9
$HANDSEED
  5
1A4
  9
$SURFTAB1
 70
     6
  9
$SURFTAB2
 70
     6
  9
$SURFTYPE
 70
     6
  9
$SURFU
 70
     6
  9
$SURFV
 70
     6
  9
$UCSNAME
  2

  9
$UCSORG
 10
0.0
 20
0.0
 30
0.0
  9
$UCSXDIR
 10
1.0
 20
0.0
 30
0.0
  9
$UCSYDIR
 10
0.0
 20
1.0
 30
0.0
  9
$PUCSNAME
  2

  9
$PUCSORG
 10
0.0
 20
0.0
 30
0.0
  9
$PUCSXDIR
 10
1.0
 20
0.0
 30
0.0
  9
$PUCSYDIR
 10
0.0
 20
1.0
 30
0.0
  9
$USERI1
 70
     0
  9
$USERI2
 70
     0
  9
$USERI3
 70
     0
  9
$USERI4
 70
     0
  9
$USERI5
 70
     0
  9
$USERR1
 40
0.0
  9
$USERR2
 40
0.0
  9
$USERR3
 40
0.0
  9
$USERR4
 40
0.0
  9
$USERR5
 40
0.0
  9
$WORLDVIEW
 70
     1
  9
$SHADEDGE
 70
     3
  9
$SHADEDIF
 70
    70
  9
$TILEMODE
 70
     1
  9
$MAXACTVP
 70
    64
  9
$PINSBASE
 10
0.0
 20
0.0
 30
0.0
  9
$PLIMCHECK
 70
     0
  9
$PEXTMIN
 10
0.0
 20
0.0
 30
0.0
  9
$PEXTMAX
 10
210.0
 20
297.0
 30
0.0
  9
$PLIMMIN
 10
0.0
 20
0.0
  9
$PLIMMAX
 10
12.0
 20
9.0
  9
$UNITMODE
 70
     0
  9
$VISRETAIN
 70
     1
  9
$PLINEGEN
 70
     0
  9
$PSLTSCALE
 70
     1
  9
$TREEDEPTH
 70
  3020
  9
$PICKSTYLE
 70
     1
  9
$CMLSTYLE
  2
STANDARD
  9
$CMLJUST
 70
     0
  9
$CMLSCALE
 40
1.0
  9
$SAVEIMAGES
 70
     1
  0
ENDSEC
  0
SECTION
  2
CLASSES
  0
CLASS
  1
ACDBDICTIONARYWDFLT
  2
AcDbDictionaryWithDefault
  3
ObjectDBX Classes
 90
        0
280
     0
281
     0
  0
CLASS
  1
TABLESTYLE
  2
AcDbTableStyle
  3
ObjectDBX Classes
 90
     2047
280
     0
281
     0
  0
CLASS
  1
DICTIONARYVAR
  2
AcDbDictionaryVar
  3
ObjectDBX Classes
 90
        0
280
     0
281
     0
  0
CLASS
  1
XRECORD
  2
AcDbXrecord
  3
AutoCAD 2000
 90
    32768
280
     0
281
     0
  0
CLASS
  1
LWPOLYLINE
  2
AcDbPolyline
  3
AutoCAD 2000
 90
    32768
280
     0
281
     1
  0
CLASS
  1
HATCH
  2
AcDbHatch
  3
AutoCAD 2000
 90
    32768
280
     0
281
     1
  0
CLASS
  1
ACDBPLACEHOLDER
  2
AcDbPlaceHolder
  3
ObjectDBX Classes
 90
        0
280
     0
281
     0
  0
CLASS
  1
LAYOUT
  2
AcDbLayout
  3
ObjectDBX Classes
 90
        0
280
     0
281
     0
  0
ENDSEC
  0
SECTION
  2
TABLES
  0
TABLE
  2
VPORT
  5
8
330
0
100
AcDbSymbolTable
 70
     2
  0
VPORT
  5
29
102
{ACAD_XDICTIONARY
360
1A2
102
}
330
8
100
AcDbSymbolTableRecord
100
AcDbViewportTableRecord
  2
*ACTIVE
 70
     0
 10
0.0
 20
0.0
 11
1.0
 21
1.0
 12
10.4299065421
 22
4.5
 13
0.0
 23
0.0
 14
0.5
 24
0.5
 15
0.5
 25
0.5
 16
0.0
 26
0.0
 36
1.0
 17
0.0
 27
0.0
 37
0.0
 40
9.0
 41
1.9729729729
 42
50.0
 43
0.0
 44
0.0
 50
0.0
 51
0.0
 71
     0
 72
   100
 73
     1
 74
     3
 75
     0
 76
     0
 77
     0
 78
     0
  0
ENDTAB
  0
TABLE
  2
LTYPE
  5
5
330
0
100
AcDbSymbolTable
 70
     2
  0
LTYPE
  5
14
330
5
100
AcDbSymbolTableRecord
100
AcDbLinetypeTableRecord
  2
BYBLOCK
 70
     0
  3

 72
    65
 73
     0
 40
0.0
  0
LTYPE
  5
15
330
5
100
AcDbSymbolTableRecord
100
AcDbLinetypeTableRecord
  2
BYLAYER
 70
     0
  3

 72
    65
 73
     0
 40
0.0
  0
LTYPE
  5
16
330
5
100
AcDbSymbolTableRecord
100
AcDbLinetypeTableRecord
  2
CONTINUOUS
 70
     0
  3
Solid line
 72
    65
 73
     0
 40
0.0
  0
LTYPE
  5
33
330
5
100
AcDbSymbolTableRecord
100
AcDbLinetypeTableRecord
  2
CENTER2
 70
     0
  3
___ _ ___ _ ___ _ ___ _ ___ _ ___ _ ___ _ ___ _
 72
    65
 73
     4
 40
1.125
 49
0.75
 74
     4
 75
     0
340
0
 46
0.0
 50
0.0
 44
0.0
 45
0.0
 49
-0.125
 74
     4
 75
     0
340
0
 46
0.0
 50
0.0
 44
0.0
 45
0.0
 49
0.125
 74
     4
 75
     0
340
0
 46
0.0
 50
0.0
 44
0.0
 45
0.0
 49
-0.125
 74
     4
 75
     0
340
0
 46
0.0
 50
0.0
 44
0.0
 45
0.0
  0
ENDTAB
  0
TABLE
  2
LAYER
  5
2
330
0
100
AcDbSymbolTable
 70
     7
  0
LAYER
  5
10
330
2
100
AcDbSymbolTableRecord
100
AcDbLayerTableRecord
  2
0
 70
     0
 62
     7
  6
CONTINUOUS
  0
LAYER
  5
30
330
2
100
AcDbSymbolTableRecord
100
AcDbLayerTableRecord
  2
DEFAULT
 70
     0
 62
     7
  6
CONTINUOUS
  0
LAYER
  5
40
330
2
100
AcDbSymbolTableRecord
100
AcDbLayerTableRecord
  2
MEGA_000724
 70
     0
 62
     7
  6
CONTINUOUS
  0
LAYER
  5
4A
330
2
100
AcDbSymbolTableRecord
100
AcDbLayerTableRecord
  2
MEGA_000726
 70
     0
 62
     7
  6
CONTINUOUS
  0
LAYER
  5
4D
330
2
100
AcDbSymbolTableRecord
100
AcDbLayerTableRecord
  2
MEGA_002205
 70
     0
 62
     7
  6
CONTINUOUS
  0
LAYER
  5
62
330
2
100
AcDbSymbolTableRecord
100
AcDbLayerTableRecord
  2
STANDARD
 70
     0
 62
     7
  6
CONTINUOUS
  0
LAYER
  5
8C
330
2
100
AcDbSymbolTableRecord
100
AcDbLayerTableRecord
  2
MEGA_002211
 70
     0
 62
     7
  6
CONTINUOUS
  0
ENDTAB
  0
TABLE
  2
STYLE
  5
3
330
0
100
AcDbSymbolTable
 70
     3
  0
STYLE
  5
11
330
3
100
AcDbSymbolTableRecord
100
AcDbTextStyleTableRecord
  2
STANDARD
 70
     0
 40
0.0
 41
1.0
 50
0.0
 71
     0
 42
0.2
  3
txt
  4

  0
STYLE
  5
2E
330
3
100
AcDbSymbolTableRecord
100
AcDbTextStyleTableRecord
  2
SEACAD_SEISO_TTF
 70
     0
 40
0.2
 41
1.0
 50
0.0
 71
     0
 42
0.2
  3
seiso.ttf
  4

  0
STYLE
  5
10A
330
3
100
AcDbSymbolTableRecord
100
AcDbTextStyleTableRecord
  2
SEACAD_SEMECI1_TTF
 70
     0
 40
0.2
 41
1.0
 50
0.0
 71
     0
 42
0.2
  3
semeci1.ttf
  4

  0
ENDTAB
  0
TABLE
  2
VIEW
  5
6
330
0
100
AcDbSymbolTable
 70
     0
  0
ENDTAB
  0
TABLE
  2
UCS
  5
7
330
0
100
AcDbSymbolTable
 70
     0
  0
ENDTAB
  0
TABLE
  2
APPID
  5
9
330
0
100
AcDbSymbolTable
 70
     1
  0
APPID
  5
12
330
9
100
AcDbSymbolTableRecord
100
AcDbRegAppTableRecord
  2
ACAD
 70
     0
  0
ENDTAB
  0
TABLE
  2
DIMSTYLE
  5
A
330
0
100
AcDbSymbolTable
 70
     1
  0
DIMSTYLE
105
27
330
A
100
AcDbSymbolTableRecord
100
AcDbDimStyleTableRecord
  2
STANDARD
 70
     0
  3

  4

  5

  6

  7

 40
1.0
 41
0.18
 42
0.0625
 43
0.38
 44
0.18
 45
0.0
 46
0.0
 47
0.0
 48
0.0
140
0.18
141
0.09
142
0.0
143
25.4
144
1.0
145
0.0
146
1.0
147
0.09
 71
     0
 72
     0
 73
     1
 74
     1
 75
     0
 76
     0
 77
     0
 78
     0
170
     0
171
     2
172
     0
173
     0
174
     0
175
     0
176
     0
177
     0
178
     0
270
     2
271
     4
272
     4
273
     2
274
     2
340
11
275
     0
280
     0
281
     0
282
     0
283
     1
284
     0
285
     0
286
     0
287
     3
288
     0
  0
ENDTAB
  0
TABLE
  2
BLOCK_RECORD
  5
1
330
0
100
AcDbSymbolTable
 70
    17
  0
BLOCK_RECORD
  5
1F
330
1
100
AcDbSymbolTableRecord
100
AcDbBlockTableRecord
  2
*MODEL_SPACE
  0
BLOCK_RECORD
  5
1B
330
1
100
AcDbSymbolTableRecord
100
AcDbBlockTableRecord
  2
*PAPER_SPACE
  0
BLOCK_RECORD
  5
31
330
1
100
AcDbSymbolTableRecord
100
AcDbBlockTableRecord
  2
SE
  0
BLOCK_RECORD
  5
38
330
1
100
AcDbSymbolTableRecord
100
AcDbBlockTableRecord
  2
SE1
  0
BLOCK_RECORD
  5
3E
330
1
100
AcDbSymbolTableRecord
100
AcDbBlockTableRecord
  2
SE2
  0
BLOCK_RECORD
  5
6B
330
1
100
AcDbSymbolTableRecord
100
AcDbBlockTableRecord
  2
SE3
  0
BLOCK_RECORD
  5
B3
330
1
100
AcDbSymbolTableRecord
100
AcDbBlockTableRecord
  2
SE4
  0
BLOCK_RECORD
  5
BC
330
1
100
AcDbSymbolTableRecord
100
AcDbBlockTableRecord
  2
SE5
  0
BLOCK_RECORD
  5
C6
330
1
100
AcDbSymbolTableRecord
100
AcDbBlockTableRecord
  2
SE6
  0
BLOCK_RECORD
  5
D0
330
1
100
AcDbSymbolTableRecord
100
AcDbBlockTableRecord
  2
SE7
  0
BLOCK_RECORD
  5
DA
330
1
100
AcDbSymbolTableRecord
100
AcDbBlockTableRecord
  2
SE8
  0
BLOCK_RECORD
  5
E4
330
1
100
AcDbSymbolTableRecord
100
AcDbBlockTableRecord
  2
SE9
  0
BLOCK_RECORD
  5
EE
330
1
100
AcDbSymbolTableRecord
100
AcDbBlockTableRecord
  2
SE10
  0
BLOCK_RECORD
  5
F8
330
1
100
AcDbSymbolTableRecord
100
AcDbBlockTableRecord
  2
SE11
  0
BLOCK_RECORD
  5
102
330
1
100
AcDbSymbolTableRecord
100
AcDbBlockTableRecord
  2
SE12
  0
BLOCK_RECORD
  5
10E
330
1
100
AcDbSymbolTableRecord
100
AcDbBlockTableRecord
  2
SE13
  0
BLOCK_RECORD
  5
119
330
1
100
AcDbSymbolTableRecord
100
AcDbBlockTableRecord
  2
SE14
  0
BLOCK_RECORD
  5
124
330
1
100
AcDbSymbolTableRecord
100
AcDbBlockTableRecord
  2
SE15
  0
ENDTAB
  0
ENDSEC
  0
SECTION
  2
BLOCKS
  0
BLOCK
  5
20
330
1F
100
AcDbEntity
  8
0
100
AcDbBlockBegin
  2
*MODEL_SPACE
 70
     0
 71
     0
 10
0.0
 20
0.0
 30
0.0
  3
*MODEL_SPACE
  1

  0
ENDBLK
  5
21
330
1F
100
AcDbEntity
  8
0
100
AcDbBlockEnd
  0
BLOCK
  5
1C
330
1B
100
AcDbEntity
 67
     1
  8
0
100
AcDbBlockBegin
  2
*PAPER_SPACE
 70
     0
 71
     0
 10
0.0
 20
0.0
 30
0.0
  3
*PAPER_SPACE
  1

  0
ENDBLK
  5
1D
330
1B
100
AcDbEntity
 67
     1
  8
0
100
AcDbBlockEnd
  0
BLOCK
  5
36
330
31
100
AcDbEntity
  8
0
100
AcDbBlockBegin
  2
SE
 70
     0
 71
     0
 10
0.0
 20
0.0
 30
0.0
  3
SE
  1

  0
LINE
  5
34
330
31
100
AcDbEntity
  8
DEFAULT
  6
CENTER2
 62
     7
 48
25.4
100
AcDbLine
 10
66.1346339604
 20
193.8020870421
 30
0.0
 11
54.1346338561
 21
193.8020870421
 31
0.0
  0
LINE
  5
35
330
31
100
AcDbEntity
  8
DEFAULT
  6
CENTER2
 62
     7
 48
25.4
100
AcDbLine
 10
60.1346339082
 20
199.8020870943
 30
0.0
 11
60.1346339082
 21
187.8020869899
 31
0.0
  0
ENDBLK
  5
37
330
31
100
AcDbEntity
  8
0
100
AcDbBlockEnd
  0
BLOCK
  5
3C
330
38
100
AcDbEntity
  8
0
100
AcDbBlockBegin
  2
SE1
 70
     0
 71
     0
 10
0.0
 20
0.0
 30
0.0
  3
SE1
  1

  0
LINE
  5
3A
330
38
100
AcDbEntity
  8
DEFAULT
  6
CENTER2
 62
     7
 48
25.4
100
AcDbLine
 10
66.1346339604
 20
150.8020870421
 30
0.0
 11
54.1346338561
 21
150.8020870421
 31
0.0
  0
LINE
  5
3B
330
38
100
AcDbEntity
  8
DEFAULT
  6
CENTER2
 62
     7
 48
25.4
100
AcDbLine
 10
60.1346339082
 20
156.8020870943
 30
0.0
 11
60.1346339082
 21
144.8020869899
 31
0.0
  0
ENDBLK
  5
3D
330
38
100
AcDbEntity
  8
0
100
AcDbBlockEnd
  0
BLOCK
  5
69
330
3E
100
AcDbEntity
  8
0
100
AcDbBlockBegin
  2
SE2
 70
     0
 71
     0
 10
0.0
 20
0.0
 30
0.0
  3
SE2
  1

  0
CIRCLE
  5
41
330
3E
100
AcDbEntity
  8
MEGA_000724
  6
CONTINUOUS
 62
     7
 48
25.4
100
AcDbCircle
 10
60.1346339082
 20
193.8020870421
 30
0.0
 40
4.700000000000003
  0
CIRCLE
  5
42
330
3E
100
AcDbEntity
  8
MEGA_000724
  6
CONTINUOUS
 62
     7
 48
25.4
100
AcDbCircle
 10
60.1346339082
 20
150.8020870421
 30
0.0
 40
4.999999999999993
  0
CIRCLE
  5
43
330
3E
100
AcDbEntity
  8
MEGA_000724
  6
CONTINUOUS
 62
     7
 48
25.4
100
AcDbCircle
 10
60.1346339082
 20
150.8020870421
 30
0.0
 40
2.799999999999976
  0
LINE
  5
44
330
3E
100
AcDbEntity
  8
MEGA_000724
  6
CONTINUOUS
 62
     7
 48
25.4
100
AcDbLine
 10
43.6346339082
 20
193.8020870421
 30
0.0
 11
43.6346339082
 21
150.8020870421
 31
0.0
  0
LINE
  5
45
330
3E
100
AcDbEntity
  8
MEGA_000724
  6
CONTINUOUS
 62
     7
 48
25.4
100
AcDbLine
 10
76.6346339082
 20
150.8020870421
 30
0.0
 11
76.6346339082
 21
193.8020870421
 31
0.0
  0
CIRCLE
  5
46
330
3E
100
AcDbEntity
  8
MEGA_000724
  6
CONTINUOUS
 62
     7
 48
25.4
100
AcDbCircle
 10
60.1346339082
 20
193.8020870421
 30
0.0
 40
2.799999999999976
  0
CIRCLE
  5
47
330
3E
100
AcDbEntity
  8
MEGA_000724
  6
CONTINUOUS
 62
     7
 48
25.4
100
AcDbCircle
 10
60.1346339082
 20
172.3020870421
 30
0.0
 40
10.15000000000001
  0
ARC
  5
48
330
3E
100
AcDbEntity
  8
MEGA_000724
  6
CONTINUOUS
 62
     7
 48
25.4
100
AcDbCircle
 10
60.1346339082
 20
150.8020870421
 30
0.0
 40
16.5
100
AcDbArc
 50
180.0
 51
360.0
  0
ARC
  5
49
330
3E
100
AcDbEntity
  8
MEGA_000724
  6
CONTINUOUS
 62
     7
 48
25.4
100
AcDbCircle
 10
60.1346339082
 20
193.8020870421
 30
0.0
 40
16.5
100
AcDbArc
 50
0.0
 51
180.0
  0
CIRCLE
  5
4B
330
3E
100
AcDbEntity
  8
MEGA_000726
  6
CONTINUOUS
 62
     7
 48
25.4
100
AcDbCircle
 10
60.1346339082
 20
172.3020870421
 30
0.0
 40
10.0
  0
CIRCLE
  5
4C
330
3E
100
AcDbEntity
  8
MEGA_000726
  6
CONTINUOUS
 62
     7
 48
25.4
100
AcDbCircle
 10
60.1346339082
 20
172.3020870421
 30
0.0
 40
6.75
  0
LINE
  5
4E
330
3E
100
AcDbEntity
  8
MEGA_002205
  6
CONTINUOUS
 62
     7
 48
25.4
100
AcDbLine
 10
60.7234825586
 20
168.4854213852
 30
0.0
 11
60.1846339082
 21
168.4854213852
 31
0.0
  0
LINE
  5
4F
330
3E
100
AcDbEntity
  8
MEGA_002205
  6
CONTINUOUS
 62
     7
 48
25.4
100
AcDbLine
 10
60.1846339082
 20
168.4854213852
 30
0.0
 11
60.1846339082
 21
176.4612658015
 31
0.0
  0
LINE
  5
50
330
3E
100
AcDbEntity
  8
MEGA_002205
  6
CONTINUOUS
 62
     7
 48
25.4
100
AcDbLine
 10
60.7234825586
 20
176.4754213852
 30
0.0
 11
60.7234825586
 21
168.4854213852
 31
0.0
  0
LINE
  5
51
330
3E
100
AcDbEntity
  8
MEGA_002205
  6
CONTINUOUS
 62
     7
 48
25.4
100
AcDbLine
 10
64.1846339082
 20
168.4854213852
 30
0.0
 11
60.7234825586
 21
168.4854213852
 31
0.0
  0
LINE
  5
52
330
3E
100
AcDbEntity
  8
MEGA_002205
  6
CONTINUOUS
 62
     7
 48
25.4
100
AcDbLine
 10
60.0846339082
 20
168.4854213852
 30
0.0
 11
60.0846339082
 21
176.4612658015
 31
0.0
  0
LINE
  5
53
330
3E
100
AcDbEntity
  8
MEGA_002205
  6
CONTINUOUS
 62
     7
 48
25.4
100
AcDbLine
 10
60.0846339082
 20
168.4854213852
 30
0.0
 11
59.5457852579
 21
168.4854213852
 31
0.0
  0
LINE
  5
54
330
3E
100
AcDbEntity
  8
MEGA_002205
  6
CONTINUOUS
 62
     7
 48
25.4
100
AcDbLine
 10
59.5457852579
 20
168.4854213852
 30
0.0
 11
59.5457852579
 21
176.4754213852
 31
0.0
  0
LINE
  5
55
330
3E
100
AcDbEntity
  8
MEGA_002205
  6
CONTINUOUS
 62
     7
 48
25.4
100
AcDbLine
 10
60.0846339082
 20
176.4854213852
 30
0.0
 11
60.0846339082
 21
176.4612658015
 31
0.0
  0
LINE
  5
56
330
3E
100
AcDbEntity
  8
MEGA_002205
  6
CONTINUOUS
 62
     7
 48
25.4
100
AcDbLine
 10
57.6346339082
 20
176.4754213852
 30
0.0
 11
57.6346339082
 21
176.4854213852
 31
0.0
  0
LINE
  5
57
330
3E
100
AcDbEntity
  8
MEGA_002205
  6
CONTINUOUS
 62
     7
 48
25.4
100
AcDbLine
 10
62.6346339082
 20
176.4754213852
 30
0.0
 11
60.7234825586
 21
176.4754213852
 31
0.0
  0
LINE
  5
58
330
3E
100
AcDbEntity
  8
MEGA_002205
  6
CONTINUOUS
 62
     7
 48
25.4
100
AcDbLine
 10
62.6346339082
 20
176.4754213852
 30
0.0
 11
62.6346339082
 21
176.4854213852
 31
0.0
  0
LINE
  5
59
330
3E
100
AcDbEntity
  8
MEGA_002205
  6
CONTINUOUS
 62
     7
 48
25.4
100
AcDbLine
 10
60.1846339082
 20
176.4854213852
 30
0.0
 11
60.1846339082
 21
176.4612658015
 31
0.0
  0
LINE
  5
5A
330
3E
100
AcDbEntity
  8
MEGA_002205
  6
CONTINUOUS
 62
     7
 48
25.4
100
AcDbLine
 10
57.6346339082
 20
176.4754213852
 30
0.0
 11
59.5457852579
 21
176.4754213852
 31
0.0
  0
LINE
  5
5B
330
3E
100
AcDbEntity
  8
MEGA_002205
  6
CONTINUOUS
 62
     7
 48
25.4
100
AcDbLine
 10
60.0846339082
 20
176.4612658015
 30
0.0
 11
59.5457852579
 21
176.4716002574
 31
0.0
  0
LINE
  5
5C
330
3E
100
AcDbEntity
  8
MEGA_002205
  6
CONTINUOUS
 62
     7
 48
25.4
100
AcDbLine
 10
60.1846339082
 20
176.4612658015
 30
0.0
 11
60.7234825586
 21
176.4716002574
 31
0.0
  0
LINE
  5
5D
330
3E
100
AcDbEntity
  8
MEGA_002205
  6
CONTINUOUS
 62
     7
 48
25.4
100
AcDbLine
 10
56.0846339082
 20
168.4854213852
 30
0.0
 11
59.5457852579
 21
168.4854213852
 31
0.0
  0
LINE
  5
5E
330
3E
100
AcDbEntity
  8
MEGA_002205
  6
CONTINUOUS
 62
     7
 48
25.4
100
AcDbLine
 10
57.6346339082
 20
176.4854213852
 30
0.0
 11
56.0846339082
 21
176.4854213852
 31
0.0
  0
LINE
  5
5F
330
3E
100
AcDbEntity
  8
MEGA_002205
  6
CONTINUOUS
 62
     7
 48
25.4
100
AcDbLine
 10
56.0846339082
 20
176.4854213852
 30
0.0
 11
56.0846339082
 21
168.4854213852
 31
0.0
  0
LINE
  5
60
330
3E
100
AcDbEntity
  8
MEGA_002205
  6
CONTINUOUS
 62
     7
 48
25.4
100
AcDbLine
 10
64.1846339082
 20
176.4854213852
 30
0.0
 11
64.1846339082
 21
168.4854213852
 31
0.0
  0
LINE
  5
61
330
3E
100
AcDbEntity
  8
MEGA_002205
  6
CONTINUOUS
 62
     7
 48
25.4
100
AcDbLine
 10
62.6346339082
 20
176.4854213852
 30
0.0
 11
64.1846339082
 21
176.4854213852
 31
0.0
  0
LINE
  5
63
330
3E
100
AcDbEntity
  8
STANDARD
  6
CENTER2
 62
     7
 48
25.4
100
AcDbLine
 10
60.1346339082
 20
210.3020870421
 30
0.0
 11
60.1346339082
 21
134.3020870421
 31
0.0
  0
LINE
  5
64
330
3E
100
AcDbEntity
  8
STANDARD
  6
CENTER2
 62
     7
 48
25.4
100
AcDbLine
 10
43.6346339082
 20
172.3020870421
 30
0.0
 11
76.6346339082
 21
172.3020870421
 31
0.0
  0
LINE
  5
65
330
3E
100
AcDbEntity
  8
STANDARD
  6
CENTER2
 62
     7
 48
25.4
100
AcDbLine
 10
60.1346339082
 20
210.3020870421
 30
0.0
 11
60.1346339082
 21
215.1765163734
 31
0.0
  0
LINE
  5
66
330
3E
100
AcDbEntity
  8
STANDARD
  6
CENTER2
 62
     7
 48
25.4
100
AcDbLine
 10
76.6346339082
 20
172.3020870421
 30
0.0
 11
82.8328612013
 21
172.3020870421
 31
0.0
  0
LINE
  5
67
330
3E
100
AcDbEntity
  8
STANDARD
  6
CENTER2
 62
     7
 48
25.4
100
AcDbLine
 10
43.6346339082
 20
172.3020870421
 30
0.0
 11
39.2018242935
 21
172.3020870421
 31
0.0
  0
LINE
  5
68
330
3E
100
AcDbEntity
  8
STANDARD
  6
CENTER2
 62
     7
 48
25.4
100
AcDbLine
 10
60.1346339082
 20
134.3020870421
 30
0.0
 11
60.1346339082
 21
128.0405438206
 31
0.0
  0
ENDBLK
  5
6A
330
3E
100
AcDbEntity
  8
0
100
AcDbBlockEnd
  0
BLOCK
  5
B1
330
6B
100
AcDbEntity
  8
0
100
AcDbBlockBegin
  2
SE3
 70
     0
 71
     0
 10
0.0
 20
0.0
 30
0.0
  3
SE3
  1

  0
LINE
  5
6D
330
6B
100
AcDbEntity
  8
MEGA_000724
  6
CONTINUOUS
 62
     7
 48
25.4
100
AcDbLine
 10
141.891992818
 20
146.0349366101
 30
0.0
 11
146.9094452245
 21
145.9473566525
 31
0.0
  0
LINE
  5
6E
330
6B
100
AcDbEntity
  8
MEGA_000724
  6
CONTINUOUS
 62
     7
 48
25.4
100
AcDbLine
 10
146.9094452245
 20
155.6568174317
 30
0.0
 11
141.891992818
 21
155.5692374741
 31
0.0
  0
LINE
  5
6F
330
6B
100
AcDbEntity
  8
MEGA_000724
  6
CONTINUOUS
 62
     7
 48
25.4
100
AcDbLine
 10
140.9094452245
 20
154.569389779
 30
0.0
 11
140.9094452245
 21
147.0347843052
 31
0.0
  0
LINE
  5
70
330
6B
100
AcDbEntity
  8
MEGA_000724
  6
CONTINUOUS
 62
     7
 48
25.4
100
AcDbLine
 10
158.9094452245
 20
138.0674473664
 30
0.0
 11
158.9094452245
 21
150.8020870421
 31
0.0
  0
LINE
  5
71
330
6B
100
AcDbEntity
  8
MEGA_000724
  6
CONTINUOUS
 62
     7
 48
25.4
100
AcDbLine
 10
146.9094452245
 20
193.8020870421
 30
0.0
 11
146.9094452245
 21
150.8020870421
 31
0.0
  0
ARC
  5
72
330
6B
100
AcDbEntity
  8
MEGA_000724
  6
CONTINUOUS
 62
     7
 48
25.4
100
AcDbCircle
 10
141.9094452245
 20
147.0347843052
 30
0.0
 40
1.0
100
AcDbArc
 50
180.0
 51
269.0
  0
ARC
  5
73
330
6B
100
AcDbEntity
  8
MEGA_000724
  6
CONTINUOUS
 62
     7
 48
25.4
100
AcDbCircle
 10
141.9094452245
 20
190.0347843052
 30
0.0
 40
1.0
100
AcDbArc
 50
180.0
 51
269.0
  0
LINE
  5
74
330
6B
100
AcDbEntity
  8
MEGA_000724
  6
CONTINUOUS
 62
     7
 48
25.4
100
AcDbLine
 10
146.9094452245
 20
198.6568174317
 30
0.0
 11
141.891992818
 21
198.5692374741
 31
0.0
  0
ARC
  5
75
330
6B
100
AcDbEntity
  8
MEGA_000724
  6
CONTINUOUS
 62
     7
 48
25.4
100
AcDbCircle
 10
157.4094452245
 20
206.5367267178
 30
0.0
 40
1.5
100
AcDbArc
 50
0.0
 51
77.9999719388
  0
ARC
  5
76
330
6B
100
AcDbEntity
  8
MEGA_000724
  6
CONTINUOUS
 62
     7
 48
25.4
100
AcDbCircle
 10
157.4094452245
 20
138.0674473664
 30
0.0
 40
1.5
100
AcDbArc
 50
282.0000280612
 51
360.0
  0
LINE
  5
77
330
6B
100
AcDbEntity
  8
MEGA_000724
  6
CONTINUOUS
 62
     7
 48
25.4
100
AcDbLine
 10
157.7213134793
 20
208.0039479662
 30
0.0
 11
146.9094452245
 21
210.3020870421
 31
0.0
  0
LINE
  5
78
330
6B
100
AcDbEntity
  8
MEGA_000724
  6
CONTINUOUS
 62
     7
 48
25.4
100
AcDbLine
 10
146.9094452245
 20
134.3020870421
 30
0.0
 11
157.7213134793
 21
136.600226118
 31
0.0
  0
ARC
  5
79
330
6B
100
AcDbEntity
  8
MEGA_000724
  6
CONTINUOUS
 62
     7
 48
25.4
100
AcDbCircle
 10
141.9094452245
 20
154.569389779
 30
0.0
 40
1.0
100
AcDbArc
 50
91.0
 51
180.0
  0
ARC
  5
7A
330
6B
100
AcDbEntity
  8
MEGA_000724
  6
CONTINUOUS
 62
     7
 48
25.4
100
AcDbCircle
 10
141.9094452245
 20
197.569389779
 30
0.0
 40
1.0
100
AcDbArc
 50
91.0
 51
180.0
  0
LINE
  5
7B
330
6B
100
AcDbEntity
  8
MEGA_000724
  6
CONTINUOUS
 62
     7
 48
25.4
100
AcDbLine
 10
140.9094452245
 20
190.0347843052
 30
0.0
 11
140.9094452245
 21
197.569389779
 31
0.0
  0
LINE
  5
7C
330
6B
100
AcDbEntity
  8
MEGA_000724
  6
CONTINUOUS
 62
     7
 48
25.4
100
AcDbLine
 10
158.9094452245
 20
193.8020870421
 30
0.0
 11
158.9094452245
 21
150.8020870421
 31
0.0
  0
LINE
  5
7D
330
6B
100
AcDbEntity
  8
MEGA_000724
  6
CONTINUOUS
 62
     7
 48
25.4
100
AcDbLine
 10
158.9094452245
 20
206.5367267178
 30
0.0
 11
158.9094452245
 21
193.8020870421
 31
0.0
  0
LINE
  5
7E
330
6B
100
AcDbEntity
  8
MEGA_000724
  6
CONTINUOUS
 62
     7
 48
25.4
100
AcDbLine
 10
146.9094452245
 20
134.3020870421
 30
0.0
 11
146.9094452245
 21
150.8020870421
 31
0.0
  0
LINE
  5
7F
330
6B
100
AcDbEntity
  8
MEGA_000724
  6
CONTINUOUS
 62
     7
 48
25.4
100
AcDbLine
 10
146.9094452245
 20
210.3020870421
 30
0.0
 11
146.9094452245
 21
193.8020870421
 31
0.0
  0
LINE
  5
80
330
6B
100
AcDbEntity
  8
MEGA_000724
  6
CONTINUOUS
 62
     7
 48
25.4
100
AcDbLine
 10
141.891992818
 20
189.0349366101
 30
0.0
 11
146.9094452245
 21
188.9473566525
 31
0.0
  0
LINE
  5
81
330
6B
100
AcDbEntity
  8
MEGA_000726
  6
CONTINUOUS
 62
     7
 48
25.4
100
AcDbLine
 10
158.9094452245
 20
162.3020870421
 30
0.0
 11
159.4094452245
 21
162.3020870421
 31
0.0
  0
LINE
  5
82
330
6B
100
AcDbEntity
  8
MEGA_000726
  6
CONTINUOUS
 62
     7
 48
25.4
100
AcDbLine
 10
159.4094452245
 20
182.3020870421
 30
0.0
 11
158.9094452245
 21
182.3020870421
 31
0.0
  0
LINE
  5
83
330
6B
100
AcDbEntity
  8
MEGA_000726
  6
CONTINUOUS
 62
     7
 48
25.4
100
AcDbLine
 10
159.4094452245
 20
162.3020870421
 30
0.0
 11
159.4094452245
 21
182.3020870421
 31
0.0
  0
LINE
  5
84
330
6B
100
AcDbEntity
  8
MEGA_002205
  6
CONTINUOUS
 62
     7
 48
25.4
100
AcDbLine
 10
188.9094452245
 20
176.4854213852
 30
0.0
 11
159.4094452245
 21
176.4854213852
 31
0.0
  0
LINE
  5
85
330
6B
100
AcDbEntity
  8
MEGA_002205
  6
CONTINUOUS
 62
     7
 48
25.4
100
AcDbLine
 10
188.9094452245
 20
168.4854213852
 30
0.0
 11
159.4094452245
 21
168.4854213852
 31
0.0
  0
LINE
  5
86
330
6B
100
AcDbEntity
  8
MEGA_002205
  6
CONTINUOUS
 62
     7
 48
25.4
100
AcDbLine
 10
188.9094452245
 20
176.4854213852
 30
0.0
 11
188.9094452245
 21
168.4854213852
 31
0.0
  0
LINE
  5
87
330
6B
100
AcDbEntity
  8
MEGA_002205
  6
CONTINUOUS
 62
     7
 48
25.4
100
AcDbLine
 10
111.9094452245
 20
175.9854213852
 30
0.0
 11
125.4094452245
 21
175.9854213852
 31
0.0
  0
LINE
  5
88
330
6B
100
AcDbEntity
  8
MEGA_002205
  6
CONTINUOUS
 62
     7
 48
25.4
100
AcDbLine
 10
125.4094452245
 20
175.9854213852
 30
0.0
 11
146.9094452245
 21
175.9854213852
 31
0.0
  0
LINE
  5
89
330
6B
100
AcDbEntity
  8
MEGA_002205
  6
CONTINUOUS
 62
     7
 48
25.4
100
AcDbLine
 10
111.9094452245
 20
168.9854213852
 30
0.0
 11
125.4094452245
 21
168.9854213852
 31
0.0
  0
LINE
  5
8A
330
6B
100
AcDbEntity
  8
MEGA_002205
  6
CONTINUOUS
 62
     7
 48
25.4
100
AcDbLine
 10
125.4094452245
 20
168.9854213852
 30
0.0
 11
146.9094452245
 21
168.9854213852
 31
0.0
  0
LINE
  5
8B
330
6B
100
AcDbEntity
  8
MEGA_002205
  6
CONTINUOUS
 62
     7
 48
25.4
100
AcDbLine
 10
111.9094452245
 20
175.9854213852
 30
0.0
 11
111.9094452245
 21
168.9854213852
 31
0.0
  0
LINE
  5
8D
330
6B
100
AcDbEntity
  8
MEGA_002211
  6
CONTINUOUS
 62
     7
 48
25.4
100
AcDbLine
 10
114.6094452245
 20
188.0520870421
 30
0.0
 11
120.1094452245
 21
188.0520870421
 31
0.0
  0
LINE
  5
8E
330
6B
100
AcDbEntity
  8
MEGA_002211
  6
CONTINUOUS
 62
     7
 48
25.4
100
AcDbLine
 10
120.1094452245
 20
199.5520870421
 30
0.0
 11
114.6094452245
 21
199.5520870421
 31
0.0
  0
ARC
  5
8F
330
6B
100
AcDbEntity
  8
MEGA_002211
  6
CONTINUOUS
 62
     7
 48
25.4
100
AcDbCircle
 10
114.6094452245
 20
198.8520870421
 30
0.0
 40
0.7000000000000028
100
AcDbArc
 50
90.0
 51
180.0
  0
LINE
  5
90
330
6B
100
AcDbEntity
  8
MEGA_002211
  6
CONTINUOUS
 62
     7
 48
25.4
100
AcDbLine
 10
120.1094452245
 20
186.3020870421
 30
0.0
 11
120.1094452245
 21
201.3020870421
 31
0.0
  0
LINE
  5
91
330
6B
100
AcDbEntity
  8
MEGA_002211
  6
CONTINUOUS
 62
     7
 48
25.4
100
AcDbLine
 10
120.9094452245
 20
186.3020870421
 30
0.0
 11
120.9094452245
 21
201.3020870421
 31
0.0
  0
LINE
  5
92
330
6B
100
AcDbEntity
  8
MEGA_002211
  6
CONTINUOUS
 62
     7
 48
25.4
100
AcDbLine
 10
120.1094452245
 20
186.3020870421
 30
0.0
 11
120.9094452245
 21
186.3020870421
 31
0.0
  0
ARC
  5
93
330
6B
100
AcDbEntity
  8
MEGA_002211
  6
CONTINUOUS
 62
     7
 48
25.4
100
AcDbCircle
 10
114.6094452245
 20
188.7520870421
 30
0.0
 40
0.7000000000000028
100
AcDbArc
 50
180.0
 51
270.0
  0
LINE
  5
94
330
6B
100
AcDbEntity
  8
MEGA_002211
  6
CONTINUOUS
 62
     7
 48
25.4
100
AcDbLine
 10
120.9094452245
 20
201.3020870421
 30
0.0
 11
120.1094452245
 21
201.3020870421
 31
0.0
  0
LINE
  5
95
330
6B
100
AcDbEntity
  8
MEGA_002211
  6
CONTINUOUS
 62
     7
 48
25.4
100
AcDbLine
 10
113.9495554585
 20
198.7206340116
 30
0.0
 11
113.9495554585
 21
197.9325413786
 31
0.0
  0
LINE
  5
96
330
6B
100
AcDbEntity
  8
MEGA_002211
  6
CONTINUOUS
 62
     7
 48
25.4
100
AcDbLine
 10
113.9094452245
 20
197.9325413786
 30
0.0
 11
113.9094452245
 21
197.8630323764
 31
0.0
  0
LINE
  5
97
330
6B
100
AcDbEntity
  8
MEGA_002211
  6
CONTINUOUS
 62
     7
 48
25.4
100
AcDbLine
 10
113.9495554585
 20
197.9325413786
 30
0.0
 11
113.9094452245
 21
197.9325413786
 31
0.0
  0
SPLINE
  5
98
330
6B
100
AcDbEntity
  8
MEGA_002211
  6
CONTINUOUS
 62
     7
 48
25.4
100
AcDbSpline
210
0.0
220
0.0
230
1.0
 70
     8
 71
     3
 72
     8
 73
     4
 74
     0
 42
0.0000000001
 43
0.0000000001
 40
0.0
 40
0.0
 40
0.0
 40
0.0
 40
1.0
 40
1.0
 40
1.0
 40
1.0
 10
113.9495554585155
 20
197.9325413786063
 30
0.0
 10
113.9191692250331
 20
197.8956076749223
 30
0.0
 10
113.9094452244818
 20
197.8713785873838
 30
0.0
 10
113.9094452244823
 20
197.8630323764382
 30
0.0
  0
LINE
  5
99
330
6B
100
AcDbEntity
  8
MEGA_002211
  6
CONTINUOUS
 62
     7
 48
25.4
100
AcDbLine
 10
113.9094452245
 20
198.7206340116
 30
0.0
 11
113.9094452245
 21
197.9325413786
 31
0.0
  0
LINE
  5
9A
330
6B
100
AcDbEntity
  8
MEGA_002211
  6
CONTINUOUS
 62
     7
 48
25.4
100
AcDbLine
 10
113.9495554585
 20
198.7206340116
 30
0.0
 11
113.9094452245
 21
198.7206340116
 31
0.0
  0
LINE
  5
9B
330
6B
100
AcDbEntity
  8
MEGA_002211
  6
CONTINUOUS
 62
     7
 48
25.4
100
AcDbLine
 10
113.9094452245
 20
189.7411417077
 30
0.0
 11
113.9094452245
 21
197.8630323764
 31
0.0
  0
LINE
  5
9C
330
6B
100
AcDbEntity
  8
MEGA_002211
  6
CONTINUOUS
 62
     7
 48
25.4
100
AcDbLine
 10
113.9094452245
 20
189.6716327055
 30
0.0
 11
113.9094452245
 21
188.8835400725
 31
0.0
  0
LINE
  5
9D
330
6B
100
AcDbEntity
  8
MEGA_002211
  6
CONTINUOUS
 62
     7
 48
25.4
100
AcDbLine
 10
113.9495554585
 20
188.8835400725
 30
0.0
 11
113.9094452245
 21
188.8835400725
 31
0.0
  0
LINE
  5
9E
330
6B
100
AcDbEntity
  8
MEGA_002211
  6
CONTINUOUS
 62
     7
 48
25.4
100
AcDbLine
 10
113.9094452245
 20
189.7411417077
 30
0.0
 11
113.9094452245
 21
189.6716327055
 31
0.0
  0
LINE
  5
9F
330
6B
100
AcDbEntity
  8
MEGA_002211
  6
CONTINUOUS
 62
     7
 48
25.4
100
AcDbLine
 10
113.9495554585
 20
189.6716327055
 30
0.0
 11
113.9094452245
 21
189.6716327055
 31
0.0
  0
SPLINE
  5
A0
330
6B
100
AcDbEntity
  8
MEGA_002211
  6
CONTINUOUS
 62
     7
 48
25.4
100
AcDbSpline
210
0.0
220
0.0
230
1.0
 70
     8
 71
     3
 72
     8
 73
     4
 74
     0
 42
0.0000000001
 43
0.0000000001
 40
0.0
 40
0.0
 40
0.0
 40
0.0
 40
1.0
 40
1.0
 40
1.0
 40
1.0
 10
113.9094452244823
 20
189.7411417076948
 30
0.0
 10
113.9094452244823
 20
189.7327541730866
 30
0.0
 10
113.9192575611065
 20
189.7084590389272
 30
0.0
 10
113.9495554585155
 20
189.6716327055199
 30
0.0
  0
LINE
  5
A1
330
6B
100
AcDbEntity
  8
MEGA_002211
  6
CONTINUOUS
 62
     7
 48
25.4
100
AcDbLine
 10
113.9495554585
 20
189.6716327055
 30
0.0
 11
113.9495554585
 21
188.8835400725
 31
0.0
  0
LINE
  5
A2
330
6B
100
AcDbEntity
  8
MEGA_002211
  6
CONTINUOUS
 62
     7
 48
25.4
100
AcDbLine
 10
113.9094452245
 20
188.8835400725
 30
0.0
 11
113.9094452245
 21
188.7520870421
 31
0.0
  0
LINE
  5
A3
330
6B
100
AcDbEntity
  8
MEGA_002211
  6
CONTINUOUS
 62
     7
 48
25.4
100
AcDbLine
 10
113.9094452245
 20
198.8520870421
 30
0.0
 11
113.9094452245
 21
198.7206340116
 31
0.0
  0
LINE
  5
A4
330
6B
100
AcDbEntity
  8
STANDARD
  6
CENTER2
 62
     7
 48
25.4
100
AcDbLine
 10
113.9094452245
 20
193.8020870421
 30
0.0
 11
158.9094452245
 21
193.8020870421
 31
0.0
  0
LINE
  5
A5
330
6B
100
AcDbEntity
  8
STANDARD
  6
CENTER2
 62
     7
 48
25.4
100
AcDbLine
 10
140.9094452245
 20
150.8020870421
 30
0.0
 11
158.9094452245
 21
150.8020870421
 31
0.0
  0
LINE
  5
A6
330
6B
100
AcDbEntity
  8
STANDARD
  6
CENTER2
 62
     7
 48
25.4
100
AcDbLine
 10
111.9094452245
 20
172.4854213852
 30
0.0
 11
188.9094452245
 21
172.4854213852
 31
0.0
  0
LINE
  5
A7
330
6B
100
AcDbEntity
  8
STANDARD
  6
CONTINUOUS
 62
     7
 48
25.4
100
AcDbLine
 10
111.9094452245
 20
168.9854213852
 30
0.0
 11
146.9018367519
 21
175.9854213852
 31
0.0
  0
LINE
  5
A8
330
6B
100
AcDbEntity
  8
STANDARD
  6
CONTINUOUS
 62
     7
 48
25.4
100
AcDbLine
 10
111.9094452245
 20
175.9854213852
 30
0.0
 11
147.0343380223
 21
168.9854213852
 31
0.0
  0
LINE
  5
A9
330
6B
100
AcDbEntity
  8
STANDARD
  6
CONTINUOUS
 62
     7
 48
25.4
100
AcDbLine
 10
159.4094452245
 20
168.4854213852
 30
0.0
 11
188.9094452245
 21
176.4854213852
 31
0.0
  0
LINE
  5
AA
330
6B
100
AcDbEntity
  8
STANDARD
  6
CONTINUOUS
 62
     7
 48
25.4
100
AcDbLine
 10
159.4094452245
 20
176.4854213852
 30
0.0
 11
188.9094452245
 21
168.4854213852
 31
0.0
  0
LINE
  5
AB
330
6B
100
AcDbEntity
  8
STANDARD
  6
CENTER2
 62
     7
 48
25.4
100
AcDbLine
 10
111.9094452245
 20
172.4854213852
 30
0.0
 11
107.988073331
 21
172.4854213852
 31
0.0
  0
LINE
  5
AC
330
6B
100
AcDbEntity
  8
STANDARD
  6
CENTER2
 62
     7
 48
25.4
100
AcDbLine
 10
188.1454715656
 20
172.4854213852
 30
0.0
 11
193.4639719224
 21
172.4854213852
 31
0.0
  0
LINE
  5
AD
330
6B
100
AcDbEntity
  8
STANDARD
  6
CENTER2
 62
     7
 48
25.4
100
AcDbLine
 10
158.9094452245
 20
150.8020870421
 30
0.0
 11
166.238315334
 21
150.8020870421
 31
0.0
  0
LINE
  5
AE
330
6B
100
AcDbEntity
  8
STANDARD
  6
CENTER2
 62
     7
 48
25.4
100
AcDbLine
 10
140.9094452245
 20
150.8020870421
 30
0.0
 11
134.4539441541
 21
150.8020870421
 31
0.0
  0
LINE
  5
AF
330
6B
100
AcDbEntity
  8
STANDARD
  6
CENTER2
 62
     7
 48
25.4
100
AcDbLine
 10
113.9094452245
 20
193.8020870421
 30
0.0
 11
107.8614423701
 21
193.8020870421
 31
0.0
  0
LINE
  5
B0
330
6B
100
AcDbEntity
  8
STANDARD
  6
CENTER2
 62
     7
 48
25.4
100
AcDbLine
 10
158.0073028771
 20
193.8020870421
 30
0.0
 11
165.225267647
 21
193.8020870421
 31
0.0
  0
ENDBLK
  5
B2
330
6B
100
AcDbEntity
  8
0
100
AcDbBlockEnd
  0
BLOCK
  5
BA
330
B3
100
AcDbEntity
  8
0
100
AcDbBlockBegin
  2
SE4
 70
     0
 71
     0
 10
0.0
 20
0.0
 30
0.0
  3
SE4
  1

  0
POLYLINE
  5
B5
330
B3
100
AcDbEntity
  8
DEFAULT
  6
CONTINUOUS
 62
     7
 48
25.4
100
AcDb2dPolyline
 66
     1
 10
0.0
 20
0.0
 30
0.0
 70
     1
  0
VERTEX
  5
130
330
B5
100
AcDbEntity
  8
DEFAULT
  6
CONTINUOUS
 62
     7
100
AcDbVertex
100
AcDb2dVertex
 10
17.7997616879
 20
137.3020870682
 30
0.0
  0
VERTEX
  5
131
330
B5
100
AcDbEntity
  8
DEFAULT
  6
CONTINUOUS
 62
     7
100
AcDbVertex
100
AcDb2dVertex
 10
18.2997616922
 20
134.3020870421
 30
0.0
  0
VERTEX
  5
132
330
B5
100
AcDbEntity
  8
DEFAULT
  6
CONTINUOUS
 62
     7
100
AcDbVertex
100
AcDb2dVertex
 10
18.7997616966
 20
137.3020870682
 30
0.0
  0
VERTEX
  5
133
330
B5
100
AcDbEntity
  8
DEFAULT
  6
CONTINUOUS
 62
     7
100
AcDbVertex
100
AcDb2dVertex
 10
17.7997616879
 20
137.3020870682
 30
0.0
  0
SEQEND
  5
12F
330
B5
100
AcDbEntity
  8
DEFAULT
  6
CONTINUOUS
 62
     7
 48
25.4
  0
LINE
  5
B6
330
B3
100
AcDbEntity
  8
DEFAULT
  6
CONTINUOUS
 62
     7
 48
25.4
100
AcDbLine
 10
60.1346339082
 20
210.3020870421
 30
0.0
 11
16.7997616792
 21
210.3020870421
 31
0.0
  0
LINE
  5
B7
330
B3
100
AcDbEntity
  8
DEFAULT
  6
CONTINUOUS
 62
     7
 48
25.4
100
AcDbLine
 10
60.1346339082
 20
134.3020870421
 30
0.0
 11
16.7997616792
 21
134.3020870421
 31
0.0
  0
LINE
  5
B8
330
B3
100
AcDbEntity
  8
DEFAULT
  6
CONTINUOUS
 62
     7
 48
25.4
100
AcDbLine
 10
18.2997616922
 20
210.3020870421
 30
0.0
 11
18.2997616922
 21
134.3020894859
 31
0.0
  0
TEXT
  5
B9
330
B3
100
AcDbEntity
  8
DEFAULT
  6
CONTINUOUS
 62
     7
 48
25.4
100
AcDbText
 10
17.5497616922
 20
170.427088264
 30
0.0
 40
3.0
  1
76
 50
90.0
  7
SEACAD_SEISO_TTF
 11
14.5497616922
 21
170.427088264
 31
0.0
100
AcDbText
 73
     3
  0
ENDBLK
  5
BB
330
B3
100
AcDbEntity
  8
0
100
AcDbBlockEnd
  0
BLOCK
  5
C4
330
BC
100
AcDbEntity
  8
0
100
AcDbBlockBegin
  2
SE5
 70
     0
 71
     0
 10
0.0
 20
0.0
 30
0.0
  3
SE5
  1

  0
POLYLINE
  5
BE
330
BC
100
AcDbEntity
  8
DEFAULT
  6
CONTINUOUS
 62
     7
 48
25.4
100
AcDb2dPolyline
 66
     1
 10
0.0
 20
0.0
 30
0.0
 70
     1
  0
VERTEX
  5
135
330
BE
100
AcDbEntity
  8
DEFAULT
  6
CONTINUOUS
 62
     7
100
AcDbVertex
100
AcDb2dVertex
 10
26.5096170656
 20
190.802087016
 30
0.0
  0
VERTEX
  5
136
330
BE
100
AcDbEntity
  8
DEFAULT
  6
CONTINUOUS
 62
     7
100
AcDbVertex
100
AcDb2dVertex
 10
27.0096170699
 20
193.8020870421
 30
0.0
  0
VERTEX
  5
137
330
BE
100
AcDbEntity
  8
DEFAULT
  6
CONTINUOUS
 62
     7
100
AcDbVertex
100
AcDb2dVertex
 10
27.5096170743
 20
190.802087016
 30
0.0
  0
VERTEX
  5
138
330
BE
100
AcDbEntity
  8
DEFAULT
  6
CONTINUOUS
 62
     7
100
AcDbVertex
100
AcDb2dVertex
 10
26.5096170656
 20
190.802087016
 30
0.0
  0
SEQEND
  5
134
330
BE
100
AcDbEntity
  8
DEFAULT
  6
CONTINUOUS
 62
     7
 48
25.4
  0
POLYLINE
  5
BF
330
BC
100
AcDbEntity
  8
DEFAULT
  6
CONTINUOUS
 62
     7
 48
25.4
100
AcDb2dPolyline
 66
     1
 10
0.0
 20
0.0
 30
0.0
 70
     1
  0
VERTEX
  5
13A
330
BF
100
AcDbEntity
  8
DEFAULT
  6
CONTINUOUS
 62
     7
100
AcDbVertex
100
AcDb2dVertex
 10
26.5096170656
 20
153.8020870682
 30
0.0
  0
VERTEX
  5
13B
330
BF
100
AcDbEntity
  8
DEFAULT
  6
CONTINUOUS
 62
     7
100
AcDbVertex
100
AcDb2dVertex
 10
27.0096170699
 20
150.8020870421
 30
0.0
  0
VERTEX
  5
13C
330
BF
100
AcDbEntity
  8
DEFAULT
  6
CONTINUOUS
 62
     7
100
AcDbVertex
100
AcDb2dVertex
 10
27.5096170743
 20
153.8020870682
 30
0.0
  0
VERTEX
  5
13D
330
BF
100
AcDbEntity
  8
DEFAULT
  6
CONTINUOUS
 62
     7
100
AcDbVertex
100
AcDb2dVertex
 10
26.5096170656
 20
153.8020870682
 30
0.0
  0
SEQEND
  5
139
330
BF
100
AcDbEntity
  8
DEFAULT
  6
CONTINUOUS
 62
     7
 48
25.4
  0
LINE
  5
C0
330
BC
100
AcDbEntity
  8
DEFAULT
  6
CONTINUOUS
 62
     7
 48
25.4
100
AcDbLine
 10
60.1346339082
 20
193.8020870421
 30
0.0
 11
25.5096170569
 21
193.8020870421
 31
0.0
  0
LINE
  5
C1
330
BC
100
AcDbEntity
  8
DEFAULT
  6
CONTINUOUS
 62
     7
 48
25.4
100
AcDbLine
 10
60.1346339082
 20
150.8020870421
 30
0.0
 11
25.5096170569
 21
150.8020870421
 31
0.0
  0
LINE
  5
C2
330
BC
100
AcDbEntity
  8
DEFAULT
  6
CONTINUOUS
 62
     7
 48
25.4
100
AcDbLine
 10
27.0096170699
 20
193.8020870421
 30
0.0
 11
27.0096170699
 21
150.8020855818
 31
0.0
  0
TEXT
  5
C3
330
BC
100
AcDbEntity
  8
DEFAULT
  6
CONTINUOUS
 62
     7
 48
25.4
100
AcDbText
 10
26.2596170699
 20
170.6316317665
 30
0.0
 40
3.0
  1
43
 50
90.0
  7
SEACAD_SEISO_TTF
 11
23.2596170699
 21
170.6316317665
 31
0.0
100
AcDbText
 73
     3
  0
ENDBLK
  5
C5
330
BC
100
AcDbEntity
  8
0
100
AcDbBlockEnd
  0
BLOCK
  5
CE
330
C6
100
AcDbEntity
  8
0
100
AcDbBlockBegin
  2
SE6
 70
     0
 71
     0
 10
0.0
 20
0.0
 30
0.0
  3
SE6
  1

  0
POLYLINE
  5
C8
330
C6
100
AcDbEntity
  8
DEFAULT
  6
CONTINUOUS
 62
     7
 48
25.4
100
AcDb2dPolyline
 66
     1
 10
0.0
 20
0.0
 30
0.0
 70
     1
  0
VERTEX
  5
13F
330
C8
100
AcDbEntity
  8
DEFAULT
  6
CONTINUOUS
 62
     7
100
AcDbVertex
100
AcDb2dVertex
 10
46.6346339343
 20
111.4984872629
 30
0.0
  0
VERTEX
  5
140
330
C8
100
AcDbEntity
  8
DEFAULT
  6
CONTINUOUS
 62
     7
100
AcDbVertex
100
AcDb2dVertex
 10
43.6346339082
 20
111.9984872673
 30
0.0
  0
VERTEX
  5
141
330
C8
100
AcDbEntity
  8
DEFAULT
  6
CONTINUOUS
 62
     7
100
AcDbVertex
100
AcDb2dVertex
 10
46.6346339343
 20
112.4984872716
 30
0.0
  0
VERTEX
  5
142
330
C8
100
AcDbEntity
  8
DEFAULT
  6
CONTINUOUS
 62
     7
100
AcDbVertex
100
AcDb2dVertex
 10
46.6346339343
 20
111.4984872629
 30
0.0
  0
SEQEND
  5
13E
330
C8
100
AcDbEntity
  8
DEFAULT
  6
CONTINUOUS
 62
     7
 48
25.4
  0
POLYLINE
  5
C9
330
C6
100
AcDbEntity
  8
DEFAULT
  6
CONTINUOUS
 62
     7
 48
25.4
100
AcDb2dPolyline
 66
     1
 10
0.0
 20
0.0
 30
0.0
 70
     1
  0
VERTEX
  5
144
330
C9
100
AcDbEntity
  8
DEFAULT
  6
CONTINUOUS
 62
     7
100
AcDbVertex
100
AcDb2dVertex
 10
73.6346338821
 20
111.4984872629
 30
0.0
  0
VERTEX
  5
145
330
C9
100
AcDbEntity
  8
DEFAULT
  6
CONTINUOUS
 62
     7
100
AcDbVertex
100
AcDb2dVertex
 10
76.6346339082
 20
111.9984872673
 30
0.0
  0
VERTEX
  5
146
330
C9
100
AcDbEntity
  8
DEFAULT
  6
CONTINUOUS
 62
     7
100
AcDbVertex
100
AcDb2dVertex
 10
73.6346338821
 20
112.4984872716
 30
0.0
  0
VERTEX
  5
147
330
C9
100
AcDbEntity
  8
DEFAULT
  6
CONTINUOUS
 62
     7
100
AcDbVertex
100
AcDb2dVertex
 10
73.6346338821
 20
111.4984872629
 30
0.0
  0
SEQEND
  5
143
330
C9
100
AcDbEntity
  8
DEFAULT
  6
CONTINUOUS
 62
     7
 48
25.4
  0
LINE
  5
CA
330
C6
100
AcDbEntity
  8
DEFAULT
  6
CONTINUOUS
 62
     7
 48
25.4
100
AcDbLine
 10
43.6346339082
 20
150.8020870421
 30
0.0
 11
43.6346339082
 21
110.4984872542
 31
0.0
  0
LINE
  5
CB
330
C6
100
AcDbEntity
  8
DEFAULT
  6
CONTINUOUS
 62
     7
 48
25.4
100
AcDbLine
 10
76.6346339082
 20
150.8020870421
 30
0.0
 11
76.6346339082
 21
110.4984872542
 31
0.0
  0
LINE
  5
CC
330
C6
100
AcDbEntity
  8
DEFAULT
  6
CONTINUOUS
 62
     7
 48
25.4
100
AcDbLine
 10
43.6346339082
 20
111.9984872673
 30
0.0
 11
76.6346337294
 21
111.9984872673
 31
0.0
  0
TEXT
  5
CD
330
C6
100
AcDbEntity
  8
DEFAULT
  6
CONTINUOUS
 62
     7
 48
25.4
100
AcDbText
 10
58.5664520006
 20
112.7484872673
 30
0.0
 40
3.0
  1
33
  7
SEACAD_SEISO_TTF
 11
58.5664520006
 21
115.7484872673
 31
0.0
100
AcDbText
 73
     3
  0
ENDBLK
  5
CF
330
C6
100
AcDbEntity
  8
0
100
AcDbBlockEnd
  0
BLOCK
  5
D8
330
D0
100
AcDbEntity
  8
0
100
AcDbBlockBegin
  2
SE7
 70
     0
 71
     0
 10
0.0
 20
0.0
 30
0.0
  3
SE7
  1

  0
POLYLINE
  5
D2
330
D0
100
AcDbEntity
  8
DEFAULT
  6
CONTINUOUS
 62
     7
 48
25.4
100
AcDb2dPolyline
 66
     1
 10
0.0
 20
0.0
 30
0.0
 70
     1
  0
VERTEX
  5
149
330
D2
100
AcDbEntity
  8
DEFAULT
  6
CONTINUOUS
 62
     7
100
AcDbVertex
100
AcDb2dVertex
 10
54.3346338821
 20
119.0722762485
 30
0.0
  0
VERTEX
  5
14A
330
D2
100
AcDbEntity
  8
DEFAULT
  6
CONTINUOUS
 62
     7
100
AcDbVertex
100
AcDb2dVertex
 10
57.3346339082
 20
119.5722762529
 30
0.0
  0
VERTEX
  5
14B
330
D2
100
AcDbEntity
  8
DEFAULT
  6
CONTINUOUS
 62
     7
100
AcDbVertex
100
AcDb2dVertex
 10
54.3346338821
 20
120.0722762572
 30
0.0
  0
VERTEX
  5
14C
330
D2
100
AcDbEntity
  8
DEFAULT
  6
CONTINUOUS
 62
     7
100
AcDbVertex
100
AcDb2dVertex
 10
54.3346338821
 20
119.0722762485
 30
0.0
  0
SEQEND
  5
148
330
D2
100
AcDbEntity
  8
DEFAULT
  6
CONTINUOUS
 62
     7
 48
25.4
  0
POLYLINE
  5
D3
330
D0
100
AcDbEntity
  8
DEFAULT
  6
CONTINUOUS
 62
     7
 48
25.4
100
AcDb2dPolyline
 66
     1
 10
0.0
 20
0.0
 30
0.0
 70
     1
  0
VERTEX
  5
14E
330
D3
100
AcDbEntity
  8
DEFAULT
  6
CONTINUOUS
 62
     7
100
AcDbVertex
100
AcDb2dVertex
 10
65.9346339343
 20
119.0722762485
 30
0.0
  0
VERTEX
  5
14F
330
D3
100
AcDbEntity
  8
DEFAULT
  6
CONTINUOUS
 62
     7
100
AcDbVertex
100
AcDb2dVertex
 10
62.9346339082
 20
119.5722762529
 30
0.0
  0
VERTEX
  5
150
330
D3
100
AcDbEntity
  8
DEFAULT
  6
CONTINUOUS
 62
     7
100
AcDbVertex
100
AcDb2dVertex
 10
65.9346339343
 20
120.0722762572
 30
0.0
  0
VERTEX
  5
151
330
D3
100
AcDbEntity
  8
DEFAULT
  6
CONTINUOUS
 62
     7
100
AcDbVertex
100
AcDb2dVertex
 10
65.9346339343
 20
119.0722762485
 30
0.0
  0
SEQEND
  5
14D
330
D3
100
AcDbEntity
  8
DEFAULT
  6
CONTINUOUS
 62
     7
 48
25.4
  0
LINE
  5
D4
330
D0
100
AcDbEntity
  8
DEFAULT
  6
CONTINUOUS
 62
     7
 48
25.4
100
AcDbLine
 10
57.3346339082
 20
150.8020870421
 30
0.0
 11
57.3346339082
 21
118.0722762398
 31
0.0
  0
LINE
  5
D5
330
D0
100
AcDbEntity
  8
DEFAULT
  6
CONTINUOUS
 62
     7
 48
25.4
100
AcDbLine
 10
62.9346339082
 20
150.8020870421
 30
0.0
 11
62.9346339082
 21
118.0722762398
 31
0.0
  0
LINE
  5
D6
330
D0
100
AcDbEntity
  8
DEFAULT
  6
CONTINUOUS
 62
     7
 48
25.4
100
AcDbLine
 10
51.3346338561
 20
119.5722762529
 30
0.0
 11
70.8801153963
 21
119.5722762529
 31
0.0
  0
TEXT
  5
D7
330
D0
100
AcDbEntity
  8
DEFAULT
  6
CONTINUOUS
 62
     7
 48
25.4
100
AcDbText
 10
65.7392058579
 20
120.3222762529
 30
0.0
 40
3.0
  1
5,6
  7
SEACAD_SEISO_TTF
 11
65.7392058579
 21
123.3222762529
 31
0.0
100
AcDbText
 73
     3
  0
ENDBLK
  5
D9
330
D0
100
AcDbEntity
  8
0
100
AcDbBlockEnd
  0
BLOCK
  5
E2
330
DA
100
AcDbEntity
  8
0
100
AcDbBlockBegin
  2
SE8
 70
     0
 71
     0
 10
0.0
 20
0.0
 30
0.0
  3
SE8
  1

  0
POLYLINE
  5
DC
330
DA
100
AcDbEntity
  8
DEFAULT
  6
CONTINUOUS
 62
     7
 48
25.4
100
AcDb2dPolyline
 66
     1
 10
0.0
 20
0.0
 30
0.0
 70
     1
  0
VERTEX
  5
153
330
DC
100
AcDbEntity
  8
DEFAULT
  6
CONTINUOUS
 62
     7
100
AcDbVertex
100
AcDb2dVertex
 10
143.9094451984
 20
103.92470014
 30
0.0
  0
VERTEX
  5
154
330
DC
100
AcDbEntity
  8
DEFAULT
  6
CONTINUOUS
 62
     7
100
AcDbVertex
100
AcDb2dVertex
 10
146.9094452245
 20
104.4247001443
 30
0.0
  0
VERTEX
  5
155
330
DC
100
AcDbEntity
  8
DEFAULT
  6
CONTINUOUS
 62
     7
100
AcDbVertex
100
AcDb2dVertex
 10
143.9094451984
 20
104.9247001486
 30
0.0
  0
VERTEX
  5
156
330
DC
100
AcDbEntity
  8
DEFAULT
  6
CONTINUOUS
 62
     7
100
AcDbVertex
100
AcDb2dVertex
 10
143.9094451984
 20
103.92470014
 30
0.0
  0
SEQEND
  5
152
330
DC
100
AcDbEntity
  8
DEFAULT
  6
CONTINUOUS
 62
     7
 48
25.4
  0
POLYLINE
  5
DD
330
DA
100
AcDbEntity
  8
DEFAULT
  6
CONTINUOUS
 62
     7
 48
25.4
100
AcDb2dPolyline
 66
     1
 10
0.0
 20
0.0
 30
0.0
 70
     1
  0
VERTEX
  5
158
330
DD
100
AcDbEntity
  8
DEFAULT
  6
CONTINUOUS
 62
     7
100
AcDbVertex
100
AcDb2dVertex
 10
114.9094452506
 20
103.92470014
 30
0.0
  0
VERTEX
  5
159
330
DD
100
AcDbEntity
  8
DEFAULT
  6
CONTINUOUS
 62
     7
100
AcDbVertex
100
AcDb2dVertex
 10
111.9094452245
 20
104.4247001443
 30
0.0
  0
VERTEX
  5
15A
330
DD
100
AcDbEntity
  8
DEFAULT
  6
CONTINUOUS
 62
     7
100
AcDbVertex
100
AcDb2dVertex
 10
114.9094452506
 20
104.9247001486
 30
0.0
  0
VERTEX
  5
15B
330
DD
100
AcDbEntity
  8
DEFAULT
  6
CONTINUOUS
 62
     7
100
AcDbVertex
100
AcDb2dVertex
 10
114.9094452506
 20
103.92470014
 30
0.0
  0
SEQEND
  5
157
330
DD
100
AcDbEntity
  8
DEFAULT
  6
CONTINUOUS
 62
     7
 48
25.4
  0
LINE
  5
DE
330
DA
100
AcDbEntity
  8
DEFAULT
  6
CONTINUOUS
 62
     7
 48
25.4
100
AcDbLine
 10
146.9094452245
 20
150.8020870421
 30
0.0
 11
146.9094452245
 21
102.9247001313
 31
0.0
  0
LINE
  5
DF
330
DA
100
AcDbEntity
  8
DEFAULT
  6
CONTINUOUS
 62
     7
 48
25.4
100
AcDbLine
 10
111.9094452245
 20
172.4854213852
 30
0.0
 11
111.9094452245
 21
102.9247001313
 31
0.0
  0
LINE
  5
E0
330
DA
100
AcDbEntity
  8
DEFAULT
  6
CONTINUOUS
 62
     7
 48
25.4
100
AcDbLine
 10
146.9094452245
 20
104.4247001443
 30
0.0
 11
111.9094450755
 21
104.4247001443
 31
0.0
  0
TEXT
  5
E1
330
DA
100
AcDbEntity
  8
DEFAULT
  6
CONTINUOUS
 62
     7
 48
25.4
100
AcDbText
 10
127.7730815136
 20
105.1747001443
 30
0.0
 40
3.0
  1
35
  7
SEACAD_SEISO_TTF
 11
127.7730815136
 21
108.1747001443
 31
0.0
100
AcDbText
 73
     3
  0
ENDBLK
  5
E3
330
DA
100
AcDbEntity
  8
0
100
AcDbBlockEnd
  0
BLOCK
  5
EC
330
E4
100
AcDbEntity
  8
0
100
AcDbBlockBegin
  2
SE9
 70
     0
 71
     0
 10
0.0
 20
0.0
 30
0.0
  3
SE9
  1

  0
POLYLINE
  5
E6
330
E4
100
AcDbEntity
  8
DEFAULT
  6
CONTINUOUS
 62
     7
 48
25.4
100
AcDb2dPolyline
 66
     1
 10
0.0
 20
0.0
 30
0.0
 70
     1
  0
VERTEX
  5
15D
330
E6
100
AcDbEntity
  8
DEFAULT
  6
CONTINUOUS
 62
     7
100
AcDbVertex
100
AcDb2dVertex
 10
149.9094452506
 20
103.92470014
 30
0.0
  0
VERTEX
  5
15E
330
E6
100
AcDbEntity
  8
DEFAULT
  6
CONTINUOUS
 62
     7
100
AcDbVertex
100
AcDb2dVertex
 10
146.9094452245
 20
104.4247001443
 30
0.0
  0
VERTEX
  5
15F
330
E6
100
AcDbEntity
  8
DEFAULT
  6
CONTINUOUS
 62
     7
100
AcDbVertex
100
AcDb2dVertex
 10
149.9094452506
 20
104.9247001486
 30
0.0
  0
VERTEX
  5
160
330
E6
100
AcDbEntity
  8
DEFAULT
  6
CONTINUOUS
 62
     7
100
AcDbVertex
100
AcDb2dVertex
 10
149.9094452506
 20
103.92470014
 30
0.0
  0
SEQEND
  5
15C
330
E6
100
AcDbEntity
  8
DEFAULT
  6
CONTINUOUS
 62
     7
 48
25.4
  0
POLYLINE
  5
E7
330
E4
100
AcDbEntity
  8
DEFAULT
  6
CONTINUOUS
 62
     7
 48
25.4
100
AcDb2dPolyline
 66
     1
 10
0.0
 20
0.0
 30
0.0
 70
     1
  0
VERTEX
  5
162
330
E7
100
AcDbEntity
  8
DEFAULT
  6
CONTINUOUS
 62
     7
100
AcDbVertex
100
AcDb2dVertex
 10
155.9094451984
 20
103.92470014
 30
0.0
  0
VERTEX
  5
163
330
E7
100
AcDbEntity
  8
DEFAULT
  6
CONTINUOUS
 62
     7
100
AcDbVertex
100
AcDb2dVertex
 10
158.9094452245
 20
104.4247001443
 30
0.0
  0
VERTEX
  5
164
330
E7
100
AcDbEntity
  8
DEFAULT
  6
CONTINUOUS
 62
     7
100
AcDbVertex
100
AcDb2dVertex
 10
155.9094451984
 20
104.9247001486
 30
0.0
  0
VERTEX
  5
165
330
E7
100
AcDbEntity
  8
DEFAULT
  6
CONTINUOUS
 62
     7
100
AcDbVertex
100
AcDb2dVertex
 10
155.9094451984
 20
103.92470014
 30
0.0
  0
SEQEND
  5
161
330
E7
100
AcDbEntity
  8
DEFAULT
  6
CONTINUOUS
 62
     7
 48
25.4
  0
LINE
  5
E8
330
E4
100
AcDbEntity
  8
DEFAULT
  6
CONTINUOUS
 62
     7
 48
25.4
100
AcDbLine
 10
146.9094452245
 20
150.8020870421
 30
0.0
 11
146.9094452245
 21
102.9247001313
 31
0.0
  0
LINE
  5
E9
330
E4
100
AcDbEntity
  8
DEFAULT
  6
CONTINUOUS
 62
     7
 48
25.4
100
AcDbLine
 10
158.9094452245
 20
144.4347672043
 30
0.0
 11
158.9094452245
 21
102.9247001313
 31
0.0
  0
LINE
  5
EA
330
E4
100
AcDbEntity
  8
DEFAULT
  6
CONTINUOUS
 62
     7
 48
25.4
100
AcDbLine
 10
146.9094452245
 20
104.4247001443
 30
0.0
 11
158.9094453288
 21
104.4247001443
 31
0.0
  0
TEXT
  5
EB
330
E4
100
AcDbEntity
  8
DEFAULT
  6
CONTINUOUS
 62
     7
 48
25.4
100
AcDbText
 10
151.3753543675
 20
105.1747001443
 30
0.0
 40
3.0
  1
12
  7
SEACAD_SEISO_TTF
 11
151.3753543675
 21
108.1747001443
 31
0.0
100
AcDbText
 73
     3
  0
ENDBLK
  5
ED
330
E4
100
AcDbEntity
  8
0
100
AcDbBlockEnd
  0
BLOCK
  5
F6
330
EE
100
AcDbEntity
  8
0
100
AcDbBlockBegin
  2
SE10
 70
     0
 71
     0
 10
0.0
 20
0.0
 30
0.0
  3
SE10
  1

  0
POLYLINE
  5
F0
330
EE
100
AcDbEntity
  8
DEFAULT
  6
CONTINUOUS
 62
     7
 48
25.4
100
AcDb2dPolyline
 66
     1
 10
0.0
 20
0.0
 30
0.0
 70
     1
  0
VERTEX
  5
167
330
F0
100
AcDbEntity
  8
DEFAULT
  6
CONTINUOUS
 62
     7
100
AcDbVertex
100
AcDb2dVertex
 10
161.9094452506
 20
103.9246986343
 30
0.0
  0
VERTEX
  5
168
330
F0
100
AcDbEntity
  8
DEFAULT
  6
CONTINUOUS
 62
     7
100
AcDbVertex
100
AcDb2dVertex
 10
158.9094452245
 20
104.4246986386
 30
0.0
  0
VERTEX
  5
169
330
F0
100
AcDbEntity
  8
DEFAULT
  6
CONTINUOUS
 62
     7
100
AcDbVertex
100
AcDb2dVertex
 10
161.9094452506
 20
104.924698643
 30
0.0
  0
VERTEX
  5
16A
330
F0
100
AcDbEntity
  8
DEFAULT
  6
CONTINUOUS
 62
     7
100
AcDbVertex
100
AcDb2dVertex
 10
161.9094452506
 20
103.9246986343
 30
0.0
  0
SEQEND
  5
166
330
F0
100
AcDbEntity
  8
DEFAULT
  6
CONTINUOUS
 62
     7
 48
25.4
  0
POLYLINE
  5
F1
330
EE
100
AcDbEntity
  8
DEFAULT
  6
CONTINUOUS
 62
     7
 48
25.4
100
AcDb2dPolyline
 66
     1
 10
0.0
 20
0.0
 30
0.0
 70
     1
  0
VERTEX
  5
16C
330
F1
100
AcDbEntity
  8
DEFAULT
  6
CONTINUOUS
 62
     7
100
AcDbVertex
100
AcDb2dVertex
 10
185.9094451984
 20
103.9246986343
 30
0.0
  0
VERTEX
  5
16D
330
F1
100
AcDbEntity
  8
DEFAULT
  6
CONTINUOUS
 62
     7
100
AcDbVertex
100
AcDb2dVertex
 10
188.9094452245
 20
104.4246986386
 30
0.0
  0
VERTEX
  5
16E
330
F1
100
AcDbEntity
  8
DEFAULT
  6
CONTINUOUS
 62
     7
100
AcDbVertex
100
AcDb2dVertex
 10
185.9094451984
 20
104.924698643
 30
0.0
  0
VERTEX
  5
16F
330
F1
100
AcDbEntity
  8
DEFAULT
  6
CONTINUOUS
 62
     7
100
AcDbVertex
100
AcDb2dVertex
 10
185.9094451984
 20
103.9246986343
 30
0.0
  0
SEQEND
  5
16B
330
F1
100
AcDbEntity
  8
DEFAULT
  6
CONTINUOUS
 62
     7
 48
25.4
  0
LINE
  5
F2
330
EE
100
AcDbEntity
  8
DEFAULT
  6
CONTINUOUS
 62
     7
 48
25.4
100
AcDbLine
 10
158.9094452245
 20
144.4347672043
 30
0.0
 11
158.9094452245
 21
102.9246986256
 31
0.0
  0
LINE
  5
F3
330
EE
100
AcDbEntity
  8
DEFAULT
  6
CONTINUOUS
 62
     7
 48
25.4
100
AcDbLine
 10
188.9094452245
 20
168.4854213852
 30
0.0
 11
188.9094452245
 21
102.9246986256
 31
0.0
  0
LINE
  5
F4
330
EE
100
AcDbEntity
  8
DEFAULT
  6
CONTINUOUS
 62
     7
 48
25.4
100
AcDbLine
 10
158.9094452245
 20
104.4246986386
 30
0.0
 11
188.9094445539
 21
104.4246986386
 31
0.0
  0
TEXT
  5
F5
330
EE
100
AcDbEntity
  8
DEFAULT
  6
CONTINUOUS
 62
     7
 48
25.4
100
AcDbText
 10
172.2389903438
 20
105.1746986386
 30
0.0
 40
3.0
  1
30
  7
SEACAD_SEISO_TTF
 11
172.2389903438
 21
108.1746986386
 31
0.0
100
AcDbText
 73
     3
  0
ENDBLK
  5
F7
330
EE
100
AcDbEntity
  8
0
100
AcDbBlockEnd
  0
BLOCK
  5
100
330
F8
100
AcDbEntity
  8
0
100
AcDbBlockBegin
  2
SE11
 70
     0
 71
     0
 10
0.0
 20
0.0
 30
0.0
  3
SE11
  1

  0
POLYLINE
  5
FA
330
F8
100
AcDbEntity
  8
DEFAULT
  6
CONTINUOUS
 62
     7
 48
25.4
100
AcDb2dPolyline
 66
     1
 10
0.0
 20
0.0
 30
0.0
 70
     1
  0
VERTEX
  5
171
330
FA
100
AcDbEntity
  8
DEFAULT
  6
CONTINUOUS
 62
     7
100
AcDbVertex
100
AcDb2dVertex
 10
143.9094452506
 20
113.3307950335
 30
0.0
  0
VERTEX
  5
172
330
FA
100
AcDbEntity
  8
DEFAULT
  6
CONTINUOUS
 62
     7
100
AcDbVertex
100
AcDb2dVertex
 10
140.9094452245
 20
113.8307950379
 30
0.0
  0
VERTEX
  5
173
330
FA
100
AcDbEntity
  8
DEFAULT
  6
CONTINUOUS
 62
     7
100
AcDbVertex
100
AcDb2dVertex
 10
143.9094452506
 20
114.3307950422
 30
0.0
  0
VERTEX
  5
174
330
FA
100
AcDbEntity
  8
DEFAULT
  6
CONTINUOUS
 62
     7
100
AcDbVertex
100
AcDb2dVertex
 10
143.9094452506
 20
113.3307950335
 30
0.0
  0
SEQEND
  5
170
330
FA
100
AcDbEntity
  8
DEFAULT
  6
CONTINUOUS
 62
     7
 48
25.4
  0
POLYLINE
  5
FB
330
F8
100
AcDbEntity
  8
DEFAULT
  6
CONTINUOUS
 62
     7
 48
25.4
100
AcDb2dPolyline
 66
     1
 10
0.0
 20
0.0
 30
0.0
 70
     1
  0
VERTEX
  5
176
330
FB
100
AcDbEntity
  8
DEFAULT
  6
CONTINUOUS
 62
     7
100
AcDbVertex
100
AcDb2dVertex
 10
155.9094451984
 20
113.3307950335
 30
0.0
  0
VERTEX
  5
177
330
FB
100
AcDbEntity
  8
DEFAULT
  6
CONTINUOUS
 62
     7
100
AcDbVertex
100
AcDb2dVertex
 10
158.9094452245
 20
113.8307950379
 30
0.0
  0
VERTEX
  5
178
330
FB
100
AcDbEntity
  8
DEFAULT
  6
CONTINUOUS
 62
     7
100
AcDbVertex
100
AcDb2dVertex
 10
155.9094451984
 20
114.3307950422
 30
0.0
  0
VERTEX
  5
179
330
FB
100
AcDbEntity
  8
DEFAULT
  6
CONTINUOUS
 62
     7
100
AcDbVertex
100
AcDb2dVertex
 10
155.9094451984
 20
113.3307950335
 30
0.0
  0
SEQEND
  5
175
330
FB
100
AcDbEntity
  8
DEFAULT
  6
CONTINUOUS
 62
     7
 48
25.4
  0
LINE
  5
FC
330
F8
100
AcDbEntity
  8
DEFAULT
  6
CONTINUOUS
 62
     7
 48
25.4
100
AcDbLine
 10
140.9094452245
 20
147.0347843052
 30
0.0
 11
140.9094452245
 21
112.3307950248
 31
0.0
  0
LINE
  5
FD
330
F8
100
AcDbEntity
  8
DEFAULT
  6
CONTINUOUS
 62
     7
 48
25.4
100
AcDbLine
 10
158.9094452245
 20
144.4347672043
 30
0.0
 11
158.9094452245
 21
112.3307950248
 31
0.0
  0
LINE
  5
FE
330
F8
100
AcDbEntity
  8
DEFAULT
  6
CONTINUOUS
 62
     7
 48
25.4
100
AcDbLine
 10
140.9094452245
 20
113.8307950379
 30
0.0
 11
158.9094444496
 21
113.8307950379
 31
0.0
  0
TEXT
  5
FF
330
F8
100
AcDbEntity
  8
DEFAULT
  6
CONTINUOUS
 62
     7
 48
25.4
100
AcDbText
 10
148.3412630189
 20
114.5807950379
 30
0.0
 40
3.0
  1
18
  7
SEACAD_SEISO_TTF
 11
148.3412630189
 21
117.5807950379
 31
0.0
100
AcDbText
 73
     3
  0
ENDBLK
  5
101
330
F8
100
AcDbEntity
  8
0
100
AcDbBlockEnd
  0
BLOCK
  5
10C
330
102
100
AcDbEntity
  8
0
100
AcDbBlockBegin
  2
SE12
 70
     0
 71
     0
 10
0.0
 20
0.0
 30
0.0
  3
SE12
  1

  0
POLYLINE
  5
104
330
102
100
AcDbEntity
  8
DEFAULT
  6
CONTINUOUS
 62
     7
 48
25.4
100
AcDb2dPolyline
 66
     1
 10
0.0
 20
0.0
 30
0.0
 70
     1
  0
VERTEX
  5
17B
330
104
100
AcDbEntity
  8
DEFAULT
  6
CONTINUOUS
 62
     7
100
AcDbVertex
100
AcDb2dVertex
 10
119.4778496984
 20
149.0349366361
 30
0.0
  0
VERTEX
  5
17C
330
104
100
AcDbEntity
  8
DEFAULT
  6
CONTINUOUS
 62
     7
100
AcDbVertex
100
AcDb2dVertex
 10
119.9778497028
 20
146.0349366101
 30
0.0
  0
VERTEX
  5
17D
330
104
100
AcDbEntity
  8
DEFAULT
  6
CONTINUOUS
 62
     7
100
AcDbVertex
100
AcDb2dVertex
 10
120.4778497071
 20
149.0349366361
 30
0.0
  0
VERTEX
  5
17E
330
104
100
AcDbEntity
  8
DEFAULT
  6
CONTINUOUS
 62
     7
100
AcDbVertex
100
AcDb2dVertex
 10
119.4778496984
 20
149.0349366361
 30
0.0
  0
SEQEND
  5
17A
330
104
100
AcDbEntity
  8
DEFAULT
  6
CONTINUOUS
 62
     7
 48
25.4
  0
POLYLINE
  5
105
330
102
100
AcDbEntity
  8
DEFAULT
  6
CONTINUOUS
 62
     7
 48
25.4
100
AcDb2dPolyline
 66
     1
 10
0.0
 20
0.0
 30
0.0
 70
     1
  0
VERTEX
  5
180
330
105
100
AcDbEntity
  8
DEFAULT
  6
CONTINUOUS
 62
     7
100
AcDbVertex
100
AcDb2dVertex
 10
119.4778496984
 20
152.5692374481
 30
0.0
  0
VERTEX
  5
181
330
105
100
AcDbEntity
  8
DEFAULT
  6
CONTINUOUS
 62
     7
100
AcDbVertex
100
AcDb2dVertex
 10
119.9778497028
 20
155.5692374741
 30
0.0
  0
VERTEX
  5
182
330
105
100
AcDbEntity
  8
DEFAULT
  6
CONTINUOUS
 62
     7
100
AcDbVertex
100
AcDb2dVertex
 10
120.4778497071
 20
152.5692374481
 30
0.0
  0
VERTEX
  5
183
330
105
100
AcDbEntity
  8
DEFAULT
  6
CONTINUOUS
 62
     7
100
AcDbVertex
100
AcDb2dVertex
 10
119.4778496984
 20
152.5692374481
 30
0.0
  0
SEQEND
  5
17F
330
105
100
AcDbEntity
  8
DEFAULT
  6
CONTINUOUS
 62
     7
 48
25.4
  0
LINE
  5
106
330
102
100
AcDbEntity
  8
DEFAULT
  6
CONTINUOUS
 62
     7
 48
25.4
100
AcDbLine
 10
141.891992818
 20
146.0349366101
 30
0.0
 11
118.4778496897
 21
146.0349366101
 31
0.0
  0
LINE
  5
107
330
102
100
AcDbEntity
  8
DEFAULT
  6
CONTINUOUS
 62
     7
 48
25.4
100
AcDbLine
 10
141.891992818
 20
155.5692374741
 30
0.0
 11
118.4778496897
 21
155.5692374741
 31
0.0
  0
LINE
  5
108
330
102
100
AcDbEntity
  8
DEFAULT
  6
CONTINUOUS
 62
     7
 48
25.4
100
AcDbLine
 10
119.9778497028
 20
146.0349366101
 30
0.0
 11
119.9778497028
 21
155.5692378463
 31
0.0
  0
TEXT
  5
109
330
102
100
AcDbEntity
  8
DEFAULT
  6
CONTINUOUS
 62
     7
 48
25.4
100
AcDbText
 10
119.2278497028
 20
150.5769383596
 30
0.0
 40
3.0
  1
9,5
 50
90.0
  7
SEACAD_SEISO_TTF
 11
116.2278497028
 21
150.5769383596
 31
0.0
100
AcDbText
 73
     3
  0
TEXT
  5
10B
330
102
100
AcDbEntity
  8
DEFAULT
  6
CONTINUOUS
 62
     7
 48
25.4
100
AcDbText
 10
119.2278497028
 20
146.9363270059
 30
0.0
 40
3.0
  1
O
 50
90.0
  7
SEACAD_SEMECI1_TTF
 11
116.2278497028
 21
146.9363270059
 31
0.0
100
AcDbText
 73
     3
  0
ENDBLK
  5
10D
330
102
100
AcDbEntity
  8
0
100
AcDbBlockEnd
  0
BLOCK
  5
117
330
10E
100
AcDbEntity
  8
0
100
AcDbBlockBegin
  2
SE13
 70
     0
 71
     0
 10
0.0
 20
0.0
 30
0.0
  3
SE13
  1

  0
POLYLINE
  5
110
330
10E
100
AcDbEntity
  8
DEFAULT
  6
CONTINUOUS
 62
     7
 48
25.4
100
AcDb2dPolyline
 66
     1
 10
0.0
 20
0.0
 30
0.0
 70
     1
  0
VERTEX
  5
185
330
110
100
AcDbEntity
  8
DEFAULT
  6
CONTINUOUS
 62
     7
100
AcDbVertex
100
AcDb2dVertex
 10
92.5425113379
 20
165.9854213591
 30
0.0
  0
VERTEX
  5
186
330
110
100
AcDbEntity
  8
DEFAULT
  6
CONTINUOUS
 62
     7
100
AcDbVertex
100
AcDb2dVertex
 10
93.0425113422
 20
168.9854213852
 30
0.0
  0
VERTEX
  5
187
330
110
100
AcDbEntity
  8
DEFAULT
  6
CONTINUOUS
 62
     7
100
AcDbVertex
100
AcDb2dVertex
 10
93.5425113466
 20
165.9854213591
 30
0.0
  0
VERTEX
  5
188
330
110
100
AcDbEntity
  8
DEFAULT
  6
CONTINUOUS
 62
     7
100
AcDbVertex
100
AcDb2dVertex
 10
92.5425113379
 20
165.9854213591
 30
0.0
  0
SEQEND
  5
184
330
110
100
AcDbEntity
  8
DEFAULT
  6
CONTINUOUS
 62
     7
 48
25.4
  0
POLYLINE
  5
111
330
10E
100
AcDbEntity
  8
DEFAULT
  6
CONTINUOUS
 62
     7
 48
25.4
100
AcDb2dPolyline
 66
     1
 10
0.0
 20
0.0
 30
0.0
 70
     1
  0
VERTEX
  5
18A
330
111
100
AcDbEntity
  8
DEFAULT
  6
CONTINUOUS
 62
     7
100
AcDbVertex
100
AcDb2dVertex
 10
92.5425113379
 20
178.9854214113
 30
0.0
  0
VERTEX
  5
18B
330
111
100
AcDbEntity
  8
DEFAULT
  6
CONTINUOUS
 62
     7
100
AcDbVertex
100
AcDb2dVertex
 10
93.0425113422
 20
175.9854213852
 30
0.0
  0
VERTEX
  5
18C
330
111
100
AcDbEntity
  8
DEFAULT
  6
CONTINUOUS
 62
     7
100
AcDbVertex
100
AcDb2dVertex
 10
93.5425113466
 20
178.9854214113
 30
0.0
  0
VERTEX
  5
18D
330
111
100
AcDbEntity
  8
DEFAULT
  6
CONTINUOUS
 62
     7
100
AcDbVertex
100
AcDb2dVertex
 10
92.5425113379
 20
178.9854214113
 30
0.0
  0
SEQEND
  5
189
330
111
100
AcDbEntity
  8
DEFAULT
  6
CONTINUOUS
 62
     7
 48
25.4
  0
LINE
  5
112
330
10E
100
AcDbEntity
  8
DEFAULT
  6
CONTINUOUS
 62
     7
 48
25.4
100
AcDbLine
 10
111.9094452245
 20
168.9854213852
 30
0.0
 11
91.5425113292
 21
168.9854213852
 31
0.0
  0
LINE
  5
113
330
10E
100
AcDbEntity
  8
DEFAULT
  6
CONTINUOUS
 62
     7
 48
25.4
100
AcDbLine
 10
111.9094452245
 20
175.9854213852
 30
0.0
 11
91.5425113292
 21
175.9854213852
 31
0.0
  0
LINE
  5
114
330
10E
100
AcDbEntity
  8
DEFAULT
  6
CONTINUOUS
 62
     7
 48
25.4
100
AcDbLine
 10
93.0425113422
 20
162.985421333
 30
0.0
 11
93.0425113422
 21
181.9854216534
 31
0.0
  0
TEXT
  5
115
330
10E
100
AcDbEntity
  8
DEFAULT
  6
CONTINUOUS
 62
     7
 48
25.4
100
AcDbText
 10
92.2925113422
 20
173.3839328072
 30
0.0
 40
3.0
  1
7
 50
90.0
  7
SEACAD_SEISO_TTF
 11
89.2925113422
 21
173.3839328072
 31
0.0
100
AcDbText
 73
     3
  0
TEXT
  5
116
330
10E
100
AcDbEntity
  8
DEFAULT
  6
CONTINUOUS
 62
     7
 48
25.4
100
AcDbText
 10
92.2925113422
 20
169.6778192701
 30
0.0
 40
3.0
  1
q
 50
90.0
  7
SEACAD_SEMECI1_TTF
 11
89.2925113422
 21
169.6778192701
 31
0.0
100
AcDbText
 73
     3
  0
ENDBLK
  5
118
330
10E
100
AcDbEntity
  8
0
100
AcDbBlockEnd
  0
BLOCK
  5
122
330
119
100
AcDbEntity
  8
0
100
AcDbBlockBegin
  2
SE14
 70
     0
 71
     0
 10
0.0
 20
0.0
 30
0.0
  3
SE14
  1

  0
POLYLINE
  5
11B
330
119
100
AcDbEntity
  8
DEFAULT
  6
CONTINUOUS
 62
     7
 48
25.4
100
AcDb2dPolyline
 66
     1
 10
0.0
 20
0.0
 30
0.0
 70
     1
  0
VERTEX
  5
18F
330
11B
100
AcDbEntity
  8
DEFAULT
  6
CONTINUOUS
 62
     7
100
AcDbVertex
100
AcDb2dVertex
 10
202.1416967761
 20
165.4854213591
 30
0.0
  0
VERTEX
  5
190
330
11B
100
AcDbEntity
  8
DEFAULT
  6
CONTINUOUS
 62
     7
100
AcDbVertex
100
AcDb2dVertex
 10
201.6416967718
 20
168.4854213852
 30
0.0
  0
VERTEX
  5
191
330
11B
100
AcDbEntity
  8
DEFAULT
  6
CONTINUOUS
 62
     7
100
AcDbVertex
100
AcDb2dVertex
 10
201.1416967674
 20
165.4854213591
 30
0.0
  0
VERTEX
  5
192
330
11B
100
AcDbEntity
  8
DEFAULT
  6
CONTINUOUS
 62
     7
100
AcDbVertex
100
AcDb2dVertex
 10
202.1416967761
 20
165.4854213591
 30
0.0
  0
SEQEND
  5
18E
330
11B
100
AcDbEntity
  8
DEFAULT
  6
CONTINUOUS
 62
     7
 48
25.4
  0
POLYLINE
  5
11C
330
119
100
AcDbEntity
  8
DEFAULT
  6
CONTINUOUS
 62
     7
 48
25.4
100
AcDb2dPolyline
 66
     1
 10
0.0
 20
0.0
 30
0.0
 70
     1
  0
VERTEX
  5
194
330
11C
100
AcDbEntity
  8
DEFAULT
  6
CONTINUOUS
 62
     7
100
AcDbVertex
100
AcDb2dVertex
 10
202.1416967761
 20
179.4854214113
 30
0.0
  0
VERTEX
  5
195
330
11C
100
AcDbEntity
  8
DEFAULT
  6
CONTINUOUS
 62
     7
100
AcDbVertex
100
AcDb2dVertex
 10
201.6416967718
 20
176.4854213852
 30
0.0
  0
VERTEX
  5
196
330
11C
100
AcDbEntity
  8
DEFAULT
  6
CONTINUOUS
 62
     7
100
AcDbVertex
100
AcDb2dVertex
 10
201.1416967674
 20
179.4854214113
 30
0.0
  0
VERTEX
  5
197
330
11C
100
AcDbEntity
  8
DEFAULT
  6
CONTINUOUS
 62
     7
100
AcDbVertex
100
AcDb2dVertex
 10
202.1416967761
 20
179.4854214113
 30
0.0
  0
SEQEND
  5
193
330
11C
100
AcDbEntity
  8
DEFAULT
  6
CONTINUOUS
 62
     7
 48
25.4
  0
LINE
  5
11D
330
119
100
AcDbEntity
  8
DEFAULT
  6
CONTINUOUS
 62
     7
 48
25.4
100
AcDbLine
 10
188.9094452245
 20
168.4854213852
 30
0.0
 11
203.1416967848
 21
168.4854213852
 31
0.0
  0
LINE
  5
11E
330
119
100
AcDbEntity
  8
DEFAULT
  6
CONTINUOUS
 62
     7
 48
25.4
100
AcDbLine
 10
188.9094452245
 20
176.4854213852
 30
0.0
 11
203.1416967848
 21
176.4854213852
 31
0.0
  0
LINE
  5
11F
330
119
100
AcDbEntity
  8
DEFAULT
  6
CONTINUOUS
 62
     7
 48
25.4
100
AcDbLine
 10
201.6416967718
 20
162.485421333
 30
0.0
 11
201.6416967718
 21
182.4854218173
 31
0.0
  0
TEXT
  5
120
330
119
100
AcDbEntity
  8
DEFAULT
  6
CONTINUOUS
 62
     7
 48
25.4
100
AcDbText
 10
200.8916967718
 20
173.3839328892
 30
0.0
 40
3.0
  1
8
 50
90.0
  7
SEACAD_SEISO_TTF
 11
197.8916967718
 21
173.3839328892
 31
0.0
100
AcDbText
 73
     3
  0
TEXT
  5
121
330
119
100
AcDbEntity
  8
DEFAULT
  6
CONTINUOUS
 62
     7
 48
25.4
100
AcDbText
 10
200.8916967718
 20
169.6778193521
 30
0.0
 40
3.0
  1
q
 50
90.0
  7
SEACAD_SEMECI1_TTF
 11
197.8916967718
 21
169.6778193521
 31
0.0
100
AcDbText
 73
     3
  0
ENDBLK
  5
123
330
119
100
AcDbEntity
  8
0
100
AcDbBlockEnd
  0
BLOCK
  5
12D
330
124
100
AcDbEntity
  8
0
100
AcDbBlockBegin
  2
SE15
 70
     0
 71
     0
 10
0.0
 20
0.0
 30
0.0
  3
SE15
  1

  0
POLYLINE
  5
126
330
124
100
AcDbEntity
  8
DEFAULT
  6
CONTINUOUS
 62
     7
 48
25.4
100
AcDb2dPolyline
 66
     1
 10
0.0
 20
0.0
 30
0.0
 70
     1
  0
VERTEX
  5
199
330
126
100
AcDbEntity
  8
DEFAULT
  6
CONTINUOUS
 62
     7
100
AcDbVertex
100
AcDb2dVertex
 10
92.4015621304
 20
191.0520870682
 30
0.0
  0
VERTEX
  5
19A
330
126
100
AcDbEntity
  8
DEFAULT
  6
CONTINUOUS
 62
     7
100
AcDbVertex
100
AcDb2dVertex
 10
92.9015621347
 20
188.0520870421
 30
0.0
  0
VERTEX
  5
19B
330
126
100
AcDbEntity
  8
DEFAULT
  6
CONTINUOUS
 62
     7
100
AcDbVertex
100
AcDb2dVertex
 10
93.401562139
 20
191.0520870682
 30
0.0
  0
VERTEX
  5
19C
330
126
100
AcDbEntity
  8
DEFAULT
  6
CONTINUOUS
 62
     7
100
AcDbVertex
100
AcDb2dVertex
 10
92.4015621304
 20
191.0520870682
 30
0.0
  0
SEQEND
  5
198
330
126
100
AcDbEntity
  8
DEFAULT
  6
CONTINUOUS
 62
     7
 48
25.4
  0
POLYLINE
  5
127
330
124
100
AcDbEntity
  8
DEFAULT
  6
CONTINUOUS
 62
     7
 48
25.4
100
AcDb2dPolyline
 66
     1
 10
0.0
 20
0.0
 30
0.0
 70
     1
  0
VERTEX
  5
19E
330
127
100
AcDbEntity
  8
DEFAULT
  6
CONTINUOUS
 62
     7
100
AcDbVertex
100
AcDb2dVertex
 10
92.4015621304
 20
196.552087016
 30
0.0
  0
VERTEX
  5
19F
330
127
100
AcDbEntity
  8
DEFAULT
  6
CONTINUOUS
 62
     7
100
AcDbVertex
100
AcDb2dVertex
 10
92.9015621347
 20
199.5520870421
 30
0.0
  0
VERTEX
  5
1A0
330
127
100
AcDbEntity
  8
DEFAULT
  6
CONTINUOUS
 62
     7
100
AcDbVertex
100
AcDb2dVertex
 10
93.401562139
 20
196.552087016
 30
0.0
  0
VERTEX
  5
1A1
330
127
100
AcDbEntity
  8
DEFAULT
  6
CONTINUOUS
 62
     7
100
AcDbVertex
100
AcDb2dVertex
 10
92.4015621304
 20
196.552087016
 30
0.0
  0
SEQEND
  5
19D
330
127
100
AcDbEntity
  8
DEFAULT
  6
CONTINUOUS
 62
     7
 48
25.4
  0
LINE
  5
128
330
124
100
AcDbEntity
  8
DEFAULT
  6
CONTINUOUS
 62
     7
 48
25.4
100
AcDbLine
 10
117.3594452245
 20
188.0520870421
 30
0.0
 11
91.4015621217
 21
188.0520870421
 31
0.0
  0
LINE
  5
129
330
124
100
AcDbEntity
  8
DEFAULT
  6
CONTINUOUS
 62
     7
 48
25.4
100
AcDbLine
 10
117.3594452245
 20
199.5520870421
 30
0.0
 11
91.4015621217
 21
199.5520870421
 31
0.0
  0
LINE
  5
12A
330
124
100
AcDbEntity
  8
DEFAULT
  6
CONTINUOUS
 62
     7
 48
25.4
100
AcDbLine
 10
92.9015621347
 20
188.0520870421
 30
0.0
 11
92.9015621347
 21
199.5520870645
 31
0.0
  0
TEXT
  5
12B
330
124
100
AcDbEntity
  8
DEFAULT
  6
CONTINUOUS
 62
     7
 48
25.4
100
AcDbText
 10
92.1515621347
 20
193.2701200029
 30
0.0
 40
3.0
  1
11,5
 50
90.0
  7
SEACAD_SEISO_TTF
 11
89.1515621347
 21
193.2701200029
 31
0.0
100
AcDbText
 73
     3
  0
TEXT
  5
12C
330
124
100
AcDbEntity
  8
DEFAULT
  6
CONTINUOUS
 62
     7
 48
25.4
100
AcDbText
 10
92.1515621347
 20
189.6295086491
 30
0.0
 40
3.0
  1
O
 50
90.0
  7
SEACAD_SEMECI1_TTF
 11
89.1515621347
 21
189.6295086491
 31
0.0
100
AcDbText
 73
     3
  0
ENDBLK
  5
12E
330
124
100
AcDbEntity
  8
0
100
AcDbBlockEnd
  0
ENDSEC
  0
SECTION
  2
ENTITIES
  0
TEXT
  5
2F
330
1F
100
AcDbEntity
  8
DEFAULT
  6
CONTINUOUS
 62
     7
 48
25.4
100
AcDbText
 10
100.7862647414
 20
10.5658848737
 30
0.0
 40
5.0
  1
41.400
  7
SEACAD_SEISO_TTF
 11
100.7862647414
 21
15.5658848737
 31
0.0
100
AcDbText
 73
     3
  0
INSERT
  5
32
330
1F
100
AcDbEntity
  8
0
100
AcDbBlockReference
  2
SE
 10
0.0
 20
0.0
 30
0.0
  0
INSERT
  5
39
330
1F
100
AcDbEntity
  8
0
100
AcDbBlockReference
  2
SE1
 10
0.0
 20
0.0
 30
0.0
  0
INSERT
  5
3F
330
1F
100
AcDbEntity
  8
0
100
AcDbBlockReference
  2
SE2
 10
0.0
 20
0.0
 30
0.0
  0
INSERT
  5
6C
330
1F
100
AcDbEntity
  8
0
100
AcDbBlockReference
  2
SE3
 10
0.0
 20
0.0
 30
0.0
  0
INSERT
  5
B4
330
1F
100
AcDbEntity
  8
0
100
AcDbBlockReference
  2
SE4
 10
0.0
 20
0.0
 30
0.0
  0
INSERT
  5
BD
330
1F
100
AcDbEntity
  8
0
100
AcDbBlockReference
  2
SE5
 10
0.0
 20
0.0
 30
0.0
  0
INSERT
  5
C7
330
1F
100
AcDbEntity
  8
0
100
AcDbBlockReference
  2
SE6
 10
0.0
 20
0.0
 30
0.0
  0
INSERT
  5
D1
330
1F
100
AcDbEntity
  8
0
100
AcDbBlockReference
  2
SE7
 10
0.0
 20
0.0
 30
0.0
  0
INSERT
  5
DB
330
1F
100
AcDbEntity
  8
0
100
AcDbBlockReference
  2
SE8
 10
0.0
 20
0.0
 30
0.0
  0
INSERT
  5
E5
330
1F
100
AcDbEntity
  8
0
100
AcDbBlockReference
  2
SE9
 10
0.0
 20
0.0
 30
0.0
  0
INSERT
  5
EF
330
1F
100
AcDbEntity
  8
0
100
AcDbBlockReference
  2
SE10
 10
0.0
 20
0.0
 30
0.0
  0
INSERT
  5
F9
330
1F
100
AcDbEntity
  8
0
100
AcDbBlockReference
  2
SE11
 10
0.0
 20
0.0
 30
0.0
  0
INSERT
  5
103
330
1F
100
AcDbEntity
  8
0
100
AcDbBlockReference
  2
SE12
 10
0.0
 20
0.0
 30
0.0
  0
INSERT
  5
10F
330
1F
100
AcDbEntity
  8
0
100
AcDbBlockReference
  2
SE13
 10
0.0
 20
0.0
 30
0.0
  0
INSERT
  5
11A
330
1F
100
AcDbEntity
  8
0
100
AcDbBlockReference
  2
SE14
 10
0.0
 20
0.0
 30
0.0
  0
INSERT
  5
125
330
1F
100
AcDbEntity
  8
0
100
AcDbBlockReference
  2
SE15
 10
0.0
 20
0.0
 30
0.0
  0
ENDSEC
  0
SECTION
  2
OBJECTS
  0
DICTIONARY
  5
C
330
0
100
AcDbDictionary
  3
ACAD_GROUP
350
D
  3
ACAD_LAYOUT
350
1A
  3
ACAD_MLINESTYLE
350
17
  3
ACAD_PLOTSETTINGS
350
19
  3
ACAD_TABLESTYLE
350
2A
  3
ACDBVARIABLEDICTIONARY
350
2C
1001
ACAD
1000
TREAT_AS_HARD
1070
     0
  0
DICTIONARY
  5
1A2
330
29
100
AcDbDictionary
  3
ACAD_XREC_ROUNDTRIP
360
1A3
  0
DICTIONARY
  5
D
102
{ACAD_REACTORS
330
C
102
}
330
C
100
AcDbDictionary
1001
ACAD
1000
TREAT_AS_HARD
1070
     0
  0
DICTIONARY
  5
1A
102
{ACAD_REACTORS
330
C
102
}
330
C
100
AcDbDictionary
1001
ACAD
1000
TREAT_AS_HARD
1070
     0
  0
DICTIONARY
  5
17
102
{ACAD_REACTORS
330
C
102
}
330
C
100
AcDbDictionary
  3
STANDARD
350
18
1001
ACAD
1000
TREAT_AS_HARD
1070
     0
  0
DICTIONARY
  5
19
102
{ACAD_REACTORS
330
C
102
}
330
C
100
AcDbDictionary
1001
ACAD
1000
TREAT_AS_HARD
1070
     0
  0
DICTIONARY
  5
2A
102
{ACAD_REACTORS
330
C
102
}
330
C
100
AcDbDictionary
  3
STANDARD
350
2B
1001
ACAD
1000
TREAT_AS_HARD
1070
     0
  0
DICTIONARY
  5
2C
102
{ACAD_REACTORS
330
C
102
}
330
C
100
AcDbDictionary
  3
CTABLESTYLE
350
2D
1001
ACAD
1000
TREAT_AS_HARD
1070
     0
  0
XRECORD
  5
1A3
102
{ACAD_REACTORS
330
1A2
102
}
330
1A2
100
AcDbXrecord
102
UCS
 74
     0
 71
     1
 10
0.0
 20
0.0
 30
0.0
 10
1.0
 20
0.0
 30
0.0
 10
0.0
 20
1.0
 30
0.0
146
0.0
 79
     0
102
VIEW
281
     0
  0
MLINESTYLE
  5
18
102
{ACAD_REACTORS
330
17
102
}
330
17
100
AcDbMlineStyle
  2
Standard
 70
     0
  3

 62
   256
 51
90.0
 52
90.0
 71
     2
 49
0.5
 62
   256
  6
BYLAYER
 49
-0.5
 62
   256
  6
BYLAYER
  0
TABLESTYLE
  5
2B
102
{ACAD_REACTORS
330
2A
102
}
330
2A
100
AcDbTableStyle
  3
Standard
 70
     0
 71
     0
 40
0.06
 41
0.06
280
     0
281
     0
  7
STANDARD
140
0.18
170
     2
 62
     0
 63
     7
283
     0
274
    -2
284
     1
 64
     0
275
    -2
285
     1
 65
     0
276
    -2
286
     1
 66
     0
277
    -2
287
     1
 67
     0
278
    -2
288
     1
 68
     0
279
    -2
289
     1
 69
     0
  7
STANDARD
140
0.25
170
     5
 62
     0
 63
     7
283
     0
274
    -2
284
     1
 64
     0
275
    -2
285
     1
 65
     0
276
    -2
286
     1
 66
     0
277
    -2
287
     1
 67
     0
278
    -2
288
     1
 68
     0
279
    -2
289
     1
 69
     0
  7
STANDARD
140
0.18
170
     5
 62
     0
 63
     7
283
     0
274
    -2
284
     1
 64
     0
275
    -2
285
     1
 65
     0
276
    -2
286
     1
 66
     0
277
    -2
287
     1
 67
     0
278
    -2
288
     1
 68
     0
279
    -2
289
     1
 69
     0
  0
DICTIONARYVAR
  5
2D
102
{ACAD_REACTORS
330
2C
102
}
330
2C
100
DictionaryVariables
280
     0
  1
Standard
  0
ENDSEC
  0
EOF
