  0
SECTION
  2
HEADER
  9
$ACADVER
  1
AC1018
  9
$ACADMAINTVER
 70
     0
  9
$DWGCODEPAGE
  3
ANSI_1252
  9
$INSBASE
 10
0.0
 20
0.0
 30
0.0
  9
$EXTMIN
 10
1.000000000000000E+20
 20
1.000000000000000E+20
 30
1.000000000000000E+20
  9
$EXTMAX
 10
-1.000000000000000E+20
 20
-1.000000000000000E+20
 30
-1.000000000000000E+20
  9
$LIMMIN
 10
0.0
 20
0.0
  9
$LIMMAX
 10
12.0
 20
9.0
  9
$ORTHOMODE
 70
     0
  9
$REGENMODE
 70
     1
  9
$FILLMODE
 70
     1
  9
$QTEXTMODE
 70
     0
  9
$MIRRTEXT
 70
     1
  9
$LTSCALE
 40
1.0
  9
$ATTMODE
 70
     1
  9
$TEXTSIZE
 40
0.2
  9
$TRACEWID
 40
0.05
  9
$TEXTSTYLE
  7
Standard
  9
$CLAYER
  8
0
  9
$CELTYPE
  6
ByLayer
  9
$CECOLOR
 62
   256
  9
$CELTSCALE
 40
1.0
  9
$DISPSILH
 70
     0
  9
$DIMSCALE
 40
1.0
  9
$DIMASZ
 40
0.18
  9
$DIMEXO
 40
0.0625
  9
$DIMDLI
 40
0.38
  9
$DIMRND
 40
0.0
  9
$DIMDLE
 40
0.0
  9
$DIMEXE
 40
0.18
  9
$DIMTP
 40
0.0
  9
$DIMTM
 40
0.0
  9
$DIMTXT
 40
0.18
  9
$DIMCEN
 40
0.09
  9
$DIMTSZ
 40
0.0
  9
$DIMTOL
 70
     0
  9
$DIMLIM
 70
     0
  9
$DIMTIH
 70
     1
  9
$DIMTOH
 70
     1
  9
$DIMSE1
 70
     0
  9
$DIMSE2
 70
     0
  9
$DIMTAD
 70
     0
  9
$DIMZIN
 70
     0
  9
$DIMBLK
  1

  9
$DIMASO
 70
     1
  9
$DIMSHO
 70
     1
  9
$DIMPOST
  1

  9
$DIMAPOST
  1

  9
$DIMALT
 70
     0
  9
$DIMALTD
 70
     2
  9
$DIMALTF
 40
25.4
  9
$DIMLFAC
 40
1.0
  9
$DIMTOFL
 70
     0
  9
$DIMTVP
 40
0.0
  9
$DIMTIX
 70
     0
  9
$DIMSOXD
 70
     0
  9
$DIMSAH
 70
     0
  9
$DIMBLK1
  1

  9
$DIMBLK2
  1

  9
$DIMSTYLE
  2
Standard
  9
$DIMCLRD
 70
     0
  9
$DIMCLRE
 70
     0
  9
$DIMCLRT
 70
     0
  9
$DIMTFAC
 40
1.0
  9
$DIMGAP
 40
0.09
  9
$DIMJUST
 70
     0
  9
$DIMSD1
 70
     0
  9
$DIMSD2
 70
     0
  9
$DIMTOLJ
 70
     1
  9
$DIMTZIN
 70
     0
  9
$DIMALTZ
 70
     0
  9
$DIMALTTZ
 70
     0
  9
$DIMUPT
 70
     0
  9
$DIMDEC
 70
     4
  9
$DIMTDEC
 70
     4
  9
$DIMALTU
 70
     2
  9
$DIMALTTD
 70
     2
  9
$DIMTXSTY
  7
Standard
  9
$DIMAUNIT
 70
     0
  9
$DIMADEC
 70
     0
  9
$DIMALTRND
 40
0.0
  9
$DIMAZIN
 70
     0
  9
$DIMDSEP
 70
    46
  9
$DIMATFIT
 70
     3
  9
$DIMFRAC
 70
     0
  9
$DIMLDRBLK
  1

  9
$DIMLUNIT
 70
     2
  9
$DIMLWD
 70
    -2
  9
$DIMLWE
 70
    -2
  9
$DIMTMOVE
 70
     0
  9
$LUNITS
 70
     2
  9
$LUPREC
 70
     4
  9
$SKETCHINC
 40
0.1
  9
$FILLETRAD
 40
0.5
  9
$AUNITS
 70
     0
  9
$AUPREC
 70
     0
  9
$MENU
  1
.
  9
$ELEVATION
 40
0.0
  9
$PELEVATION
 40
0.0
  9
$THICKNESS
 40
0.0
  9
$LIMCHECK
 70
     0
  9
$CHAMFERA
 40
0.5
  9
$CHAMFERB
 40
0.5
  9
$CHAMFERC
 40
1.0
  9
$CHAMFERD
 40
0.0
  9
$SKPOLY
 70
     0
  9
$TDCREATE
 40
2458374.489200451
  9
$TDUCREATE
 40
2458374.405867118
  9
$TDUPDATE
 40
2458374.489200463
  9
$TDUUPDATE
 40
2458374.40586713
  9
$TDINDWG
 40
0.0000000116
  9
$TDUSRTIMER
 40
0.0000000116
  9
$USRTIMER
 70
     1
  9
$ANGBASE
 50
0.0
  9
$ANGDIR
 70
     0
  9
$PDMODE
 70
     0
  9
$PDSIZE
 40
0.0
  9
$PLINEWID
 40
0.0
  9
$SPLFRAME
 70
     0
  9
$SPLINETYPE
 70
     6
  9
$SPLINESEGS
 70
     8
  9
$HANDSEED
  5
516
  9
$SURFTAB1
 70
     6
  9
$SURFTAB2
 70
     6
  9
$SURFTYPE
 70
     6
  9
$SURFU
 70
     6
  9
$SURFV
 70
     6
  9
$UCSBASE
  2

  9
$UCSNAME
  2

  9
$UCSORG
 10
0.0
 20
0.0
 30
0.0
  9
$UCSXDIR
 10
1.0
 20
0.0
 30
0.0
  9
$UCSYDIR
 10
0.0
 20
1.0
 30
0.0
  9
$UCSORTHOREF
  2

  9
$UCSORTHOVIEW
 70
     0
  9
$UCSORGTOP
 10
0.0
 20
0.0
 30
0.0
  9
$UCSORGBOTTOM
 10
0.0
 20
0.0
 30
0.0
  9
$UCSORGLEFT
 10
0.0
 20
0.0
 30
0.0
  9
$UCSORGRIGHT
 10
0.0
 20
0.0
 30
0.0
  9
$UCSORGFRONT
 10
0.0
 20
0.0
 30
0.0
  9
$UCSORGBACK
 10
0.0
 20
0.0
 30
0.0
  9
$PUCSBASE
  2

  9
$PUCSNAME
  2

  9
$PUCSORG
 10
0.0
 20
0.0
 30
0.0
  9
$PUCSXDIR
 10
1.0
 20
0.0
 30
0.0
  9
$PUCSYDIR
 10
0.0
 20
1.0
 30
0.0
  9
$PUCSORTHOREF
  2

  9
$PUCSORTHOVIEW
 70
     0
  9
$PUCSORGTOP
 10
0.0
 20
0.0
 30
0.0
  9
$PUCSORGBOTTOM
 10
0.0
 20
0.0
 30
0.0
  9
$PUCSORGLEFT
 10
0.0
 20
0.0
 30
0.0
  9
$PUCSORGRIGHT
 10
0.0
 20
0.0
 30
0.0
  9
$PUCSORGFRONT
 10
0.0
 20
0.0
 30
0.0
  9
$PUCSORGBACK
 10
0.0
 20
0.0
 30
0.0
  9
$USERI1
 70
     0
  9
$USERI2
 70
     0
  9
$USERI3
 70
     0
  9
$USERI4
 70
     0
  9
$USERI5
 70
     0
  9
$USERR1
 40
0.0
  9
$USERR2
 40
0.0
  9
$USERR3
 40
0.0
  9
$USERR4
 40
0.0
  9
$USERR5
 40
0.0
  9
$WORLDVIEW
 70
     1
  9
$SHADEDGE
 70
     3
  9
$SHADEDIF
 70
    70
  9
$TILEMODE
 70
     1
  9
$MAXACTVP
 70
    64
  9
$PINSBASE
 10
0.0
 20
0.0
 30
0.0
  9
$PLIMCHECK
 70
     0
  9
$PEXTMIN
 10
1.000000000000000E+20
 20
1.000000000000000E+20
 30
1.000000000000000E+20
  9
$PEXTMAX
 10
-1.000000000000000E+20
 20
-1.000000000000000E+20
 30
-1.000000000000000E+20
  9
$PLIMMIN
 10
0.0
 20
0.0
  9
$PLIMMAX
 10
12.0
 20
9.0
  9
$UNITMODE
 70
     0
  9
$VISRETAIN
 70
     1
  9
$PLINEGEN
 70
     0
  9
$PSLTSCALE
 70
     1
  9
$TREEDEPTH
 70
  3020
  9
$CMLSTYLE
  2
Standard
  9
$CMLJUST
 70
     0
  9
$CMLSCALE
 40
1.0
  9
$PROXYGRAPHICS
 70
     1
  9
$MEASUREMENT
 70
     0
  9
$CELWEIGHT
370
    -1
  9
$ENDCAPS
280
     0
  9
$JOINSTYLE
280
     0
  9
$LWDISPLAY
290
     1
  9
$INSUNITS
 70
     1
  9
$HYPERLINKBASE
  1

  9
$STYLESHEET
  1

  9
$XEDIT
290
     1
  9
$CEPSNTYPE
380
     0
  9
$PSTYLEMODE
290
     1
  9
$FINGERPRINTGUID
  2
{2321E9DB-C1BD-49B7-B94E-07A1D165DD8B}
  9
$VERSIONGUID
  2
{FAEB1C32-E019-11D5-929B-00C0DF256EC4}
  9
$EXTNAMES
290
     1
  9
$PSVPSCALE
 40
0.0
  9
$OLESTARTUP
290
     0
  9
$SORTENTS
280
   127
  9
$INDEXCTL
280
     0
  9
$HIDETEXT
280
     1
  9
$XCLIPFRAME
290
     0
  9
$HALOGAP
280
     0
  9
$OBSCOLOR
 70
   257
  9
$OBSLTYPE
280
     0
  9
$INTERSECTIONDISPLAY
280
     0
  9
$INTERSECTIONCOLOR
 70
   257
  9
$DIMASSOC
280
     2
  9
$PROJECTNAME
  1

  0
ENDSEC
  0
SECTION
  2
CLASSES
  0
CLASS
  1
ACDBDICTIONARYWDFLT
  2
AcDbDictionaryWithDefault
  3
ObjectDBX Classes
 90
        0
 91
        3
280
     0
281
     0
  0
CLASS
  1
VISUALSTYLE
  2
AcDbVisualStyle
  3
ObjectDBX Classes
 90
     4095
 91
        3
280
     0
281
     0
  0
ENDSEC
  0
SECTION
  2
TABLES
  0
TABLE
  2
VPORT
  5
8
330
0
100
AcDbSymbolTable
 70
     1
  0
VPORT
  5
29
330
8
100
AcDbSymbolTableRecord
100
AcDbViewportTableRecord
  2
*Active
 70
     0
 10
0.0
 20
0.0
 11
1.0
 21
1.0
 12
0.0
 22
0.0
 13
0.0
 23
0.0
 14
0.5
 24
0.5
 15
0.5
 25
0.5
 16
0.0
 26
0.0
 36
1.0
 17
306.0
 27
396.0
 37
0.0
 40
792.0
 41
0.7727272727272727
 42
50.0
 43
0.0
 44
0.0
 50
0.0
 51
0.0
 71
     0
 72
   100
 73
     1
 74
     3
 75
     0
 76
     0
 77
     0
 78
     0
281
     0
 65
     1
110
0.0
120
0.0
130
0.0
111
1.0
121
0.0
131
0.0
112
0.0
122
1.0
132
0.0
 79
     0
146
0.0
  0
ENDTAB
  0
TABLE
  2
LTYPE
  5
5
330
0
100
AcDbSymbolTable
 70
     1
  0
LTYPE
  5
14
330
5
100
AcDbSymbolTableRecord
100
AcDbLinetypeTableRecord
  2
ByBlock
 70
     0
  3

 72
    65
 73
     0
 40
0.0
  0
LTYPE
  5
15
330
5
100
AcDbSymbolTableRecord
100
AcDbLinetypeTableRecord
  2
ByLayer
 70
     0
  3

 72
    65
 73
     0
 40
0.0
  0
LTYPE
  5
16
330
5
100
AcDbSymbolTableRecord
100
AcDbLinetypeTableRecord
  2
Continuous
 70
     0
  3
Solid line
 72
    65
 73
     0
 40
0.0
  0
ENDTAB
  0
TABLE
  2
LAYER
  5
2
330
0
100
AcDbSymbolTable
 70
     2
  0
LAYER
  5
10
330
2
100
AcDbSymbolTableRecord
100
AcDbLayerTableRecord
  2
0
 70
     0
 62
     7
  6
Continuous
370
    -3
390
F
  0
LAYER
  5
3B
330
2
100
AcDbSymbolTableRecord
100
AcDbLayerTableRecord
  2
Ebene 1
 70
     0
 62
     7
  6
Continuous
370
    -3
390
F
  0
ENDTAB
  0
TABLE
  2
STYLE
  5
3
330
0
100
AcDbSymbolTable
 70
     1
  0
STYLE
  5
11
330
3
100
AcDbSymbolTableRecord
100
AcDbTextStyleTableRecord
  2
Standard
 70
     0
 40
0.0
 41
1.0
 50
0.0
 71
     0
 42
0.2
  3
txt
  4

  0
ENDTAB
  0
TABLE
  2
VIEW
  5
6
330
0
100
AcDbSymbolTable
 70
     0
  0
ENDTAB
  0
TABLE
  2
UCS
  5
7
330
0
100
AcDbSymbolTable
 70
     0
  0
ENDTAB
  0
TABLE
  2
APPID
  5
9
330
0
100
AcDbSymbolTable
 70
     1
  0
APPID
  5
12
330
9
100
AcDbSymbolTableRecord
100
AcDbRegAppTableRecord
  2
ACAD
 70
     0
  0
ENDTAB
  0
TABLE
  2
DIMSTYLE
  5
A
330
0
100
AcDbSymbolTable
 70
     1
100
AcDbDimStyleTable
  0
DIMSTYLE
105
27
330
A
100
AcDbSymbolTableRecord
100
AcDbDimStyleTableRecord
  2
Standard
 70
     0
340
11
  0
ENDTAB
  0
TABLE
  2
BLOCK_RECORD
  5
1
330
0
100
AcDbSymbolTable
 70
     2
  0
BLOCK_RECORD
  5
1F
330
1
100
AcDbSymbolTableRecord
100
AcDbBlockTableRecord
  2
*Model_Space
340
22
  0
BLOCK_RECORD
  5
1B
330
1
100
AcDbSymbolTableRecord
100
AcDbBlockTableRecord
  2
*Paper_Space
340
1E
  0
BLOCK_RECORD
  5
23
330
1
100
AcDbSymbolTableRecord
100
AcDbBlockTableRecord
  2
*Paper_Space0
340
26
  0
BLOCK_RECORD
  5
3C
330
1
100
AcDbSymbolTableRecord
100
AcDbBlockTableRecord
  2
block 2
340
0
102
{BLKREFS
331
3D
102
}
  0
ENDTAB
  0
ENDSEC
  0
SECTION
  2
BLOCKS
  0
BLOCK
  5
20
330
1F
100
AcDbEntity
  8
0
100
AcDbBlockBegin
  2
*Model_Space
 70
     0
 71
     0
 10
0.0
 20
0.0
 30
0.0
  3
*Model_Space
  1

  0
ENDBLK
  5
21
330
1F
100
AcDbEntity
  8
0
100
AcDbBlockEnd
  0
BLOCK
  5
1C
330
1B
100
AcDbEntity
 67
     1
  8
0
100
AcDbBlockBegin
  2
*Paper_Space
 70
     0
 71
     0
 10
0.0
 20
0.0
 30
0.0
  3
*Paper_Space
  1

  0
ENDBLK
  5
1D
330
1B
100
AcDbEntity
 67
     1
  8
0
100
AcDbBlockEnd
  0
BLOCK
  5
24
330
23
100
AcDbEntity
  8
0
100
AcDbBlockBegin
  2
*Paper_Space0
 70
     0
 71
     0
 10
0.0
 20
0.0
 30
0.0
  3
*Paper_Space0
  1

  0
ENDBLK
  5
25
330
23
100
AcDbEntity
  8
0
100
AcDbBlockEnd
  0
BLOCK
  5
3E
330
3C
100
AcDbEntity
  8
0
100
AcDbBlockBegin
  2
block 2
 70
     0
 71
     0
 10
0.0
 20
0.0
 30
0.0
  3
block 2
  1

  0
POLYLINE
  5
40
330
3C
100
AcDbEntity
  8
Ebene 1
370
     0
100
AcDb2dPolyline
 66
     1
 10
0.0
 20
0.0
 30
0.0
  0
VERTEX
  5
41
330
40
100
AcDbEntity
  8
Ebene 1
370
     0
100
AcDbVertex
100
AcDb2dVertex
 10
448.7939453125
 20
361.1171875
 30
0.0
  0
VERTEX
  5
42
330
40
100
AcDbEntity
  8
Ebene 1
370
     0
100
AcDbVertex
100
AcDb2dVertex
 10
449.7646484375
 20
417.27978515625
 30
0.0
  0
SEQEND
  5
43
330
40
100
AcDbEntity
  8
Ebene 1
370
     0
  0
POLYLINE
  5
44
330
3C
100
AcDbEntity
  8
Ebene 1
370
     0
100
AcDb2dPolyline
 66
     1
 10
0.0
 20
0.0
 30
0.0
  0
VERTEX
  5
45
330
44
100
AcDbEntity
  8
Ebene 1
370
     0
100
AcDbVertex
100
AcDb2dVertex
 10
449.7646484375
 20
417.2353515625
 30
0.0
  0
VERTEX
  5
46
330
44
100
AcDbEntity
  8
Ebene 1
370
     0
100
AcDbVertex
100
AcDb2dVertex
 10
445.75
 20
417.32373046875
 30
0.0
  0
VERTEX
  5
47
330
44
100
AcDbEntity
  8
Ebene 1
370
     0
100
AcDbVertex
100
AcDb2dVertex
 10
441.7353515625
 20
417.2353515625
 30
0.0
  0
SEQEND
  5
48
330
44
100
AcDbEntity
  8
Ebene 1
370
     0
  0
POLYLINE
  5
49
330
3C
100
AcDbEntity
  8
Ebene 1
370
     0
100
AcDb2dPolyline
 66
     1
 10
0.0
 20
0.0
 30
0.0
  0
VERTEX
  5
4A
330
49
100
AcDbEntity
  8
Ebene 1
370
     0
100
AcDbVertex
100
AcDb2dVertex
 10
441.779296875
 20
417.27978515625
 30
0.0
  0
VERTEX
  5
4B
330
49
100
AcDbEntity
  8
Ebene 1
370
     0
100
AcDbVertex
100
AcDb2dVertex
 10
440.7646484375
 20
361.1171875
 30
0.0
  0
VERTEX
  5
4C
330
49
100
AcDbEntity
  8
Ebene 1
370
     0
100
AcDbVertex
100
AcDb2dVertex
 10
448.7939453125
 20
361.1171875
 30
0.0
  0
SEQEND
  5
4D
330
49
100
AcDbEntity
  8
Ebene 1
370
     0
  0
POLYLINE
  5
4E
330
3C
100
AcDbEntity
  8
Ebene 1
370
     0
100
AcDb2dPolyline
 66
     1
 10
0.0
 20
0.0
 30
0.0
  0
VERTEX
  5
4F
330
4E
100
AcDbEntity
  8
Ebene 1
370
     0
100
AcDbVertex
100
AcDb2dVertex
 10
659.544921875
 20
417.27978515625
 30
0.0
  0
VERTEX
  5
50
330
4E
100
AcDbEntity
  8
Ebene 1
370
     0
100
AcDbVertex
100
AcDb2dVertex
 10
660.515625
 20
361.1171875
 30
0.0
  0
SEQEND
  5
51
330
4E
100
AcDbEntity
  8
Ebene 1
370
     0
  0
POLYLINE
  5
52
330
3C
100
AcDbEntity
  8
Ebene 1
370
     0
100
AcDb2dPolyline
 66
     1
 10
0.0
 20
0.0
 30
0.0
  0
VERTEX
  5
53
330
52
100
AcDbEntity
  8
Ebene 1
370
     0
100
AcDbVertex
100
AcDb2dVertex
 10
449.7646484375
 20
417.27978515625
 30
0.0
  0
VERTEX
  5
54
330
52
100
AcDbEntity
  8
Ebene 1
370
     0
100
AcDbVertex
100
AcDb2dVertex
 10
512.67578125
 20
417.27978515625
 30
0.0
  0
SEQEND
  5
55
330
52
100
AcDbEntity
  8
Ebene 1
370
     0
  0
POLYLINE
  5
56
330
3C
100
AcDbEntity
  8
Ebene 1
370
     0
100
AcDb2dPolyline
 66
     1
 10
0.0
 20
0.0
 30
0.0
  0
VERTEX
  5
57
330
56
100
AcDbEntity
  8
Ebene 1
370
     0
100
AcDbVertex
100
AcDb2dVertex
 10
638.587890625
 20
379.1171875
 30
0.0
  0
VERTEX
  5
58
330
56
100
AcDbEntity
  8
Ebene 1
370
     0
100
AcDbVertex
100
AcDb2dVertex
 10
638.544921875
 20
380.1767578125
 30
0.0
  0
VERTEX
  5
59
330
56
100
AcDbEntity
  8
Ebene 1
370
     0
100
AcDbVertex
100
AcDb2dVertex
 10
638.3671875
 20
381.19140625
 30
0.0
  0
VERTEX
  5
5A
330
56
100
AcDbEntity
  8
Ebene 1
370
     0
100
AcDbVertex
100
AcDb2dVertex
 10
638.103515625
 20
382.2060546875
 30
0.0
  0
VERTEX
  5
5B
330
56
100
AcDbEntity
  8
Ebene 1
370
     0
100
AcDbVertex
100
AcDb2dVertex
 10
637.705078125
 20
383.1767578125
 30
0.0
  0
VERTEX
  5
5C
330
56
100
AcDbEntity
  8
Ebene 1
370
     0
100
AcDbVertex
100
AcDb2dVertex
 10
637.265625
 20
384.103515625
 30
0.0
  0
VERTEX
  5
5D
330
56
100
AcDbEntity
  8
Ebene 1
370
     0
100
AcDbVertex
100
AcDb2dVertex
 10
636.69140625
 20
384.9853515625
 30
0.0
  0
VERTEX
  5
5E
330
56
100
AcDbEntity
  8
Ebene 1
370
     0
100
AcDbVertex
100
AcDb2dVertex
 10
636.029296875
 20
385.779296875
 30
0.0
  0
VERTEX
  5
5F
330
56
100
AcDbEntity
  8
Ebene 1
370
     0
100
AcDbVertex
100
AcDb2dVertex
 10
635.279296875
 20
386.529296875
 30
0.0
  0
VERTEX
  5
60
330
56
100
AcDbEntity
  8
Ebene 1
370
     0
100
AcDbVertex
100
AcDb2dVertex
 10
634.484375
 20
387.19140625
 30
0.0
  0
VERTEX
  5
61
330
56
100
AcDbEntity
  8
Ebene 1
370
     0
100
AcDbVertex
100
AcDb2dVertex
 10
633.603515625
 20
387.765625
 30
0.0
  0
VERTEX
  5
62
330
56
100
AcDbEntity
  8
Ebene 1
370
     0
100
AcDbVertex
100
AcDb2dVertex
 10
632.67578125
 20
388.2060546875
 30
0.0
  0
VERTEX
  5
63
330
56
100
AcDbEntity
  8
Ebene 1
370
     0
100
AcDbVertex
100
AcDb2dVertex
 10
631.705078125
 20
388.603515625
 30
0.0
  0
VERTEX
  5
64
330
56
100
AcDbEntity
  8
Ebene 1
370
     0
100
AcDbVertex
100
AcDb2dVertex
 10
630.69140625
 20
388.8671875
 30
0.0
  0
VERTEX
  5
65
330
56
100
AcDbEntity
  8
Ebene 1
370
     0
100
AcDbVertex
100
AcDb2dVertex
 10
629.67578125
 20
389.044921875
 30
0.0
  0
VERTEX
  5
66
330
56
100
AcDbEntity
  8
Ebene 1
370
     0
100
AcDbVertex
100
AcDb2dVertex
 10
628.6171875
 20
389.087890625
 30
0.0
  0
VERTEX
  5
67
330
56
100
AcDbEntity
  8
Ebene 1
370
     0
100
AcDbVertex
100
AcDb2dVertex
 10
627.55859375
 20
389.044921875
 30
0.0
  0
VERTEX
  5
68
330
56
100
AcDbEntity
  8
Ebene 1
370
     0
100
AcDbVertex
100
AcDb2dVertex
 10
626.544921875
 20
388.8671875
 30
0.0
  0
VERTEX
  5
69
330
56
100
AcDbEntity
  8
Ebene 1
370
     0
100
AcDbVertex
100
AcDb2dVertex
 10
625.529296875
 20
388.603515625
 30
0.0
  0
VERTEX
  5
6A
330
56
100
AcDbEntity
  8
Ebene 1
370
     0
100
AcDbVertex
100
AcDb2dVertex
 10
624.55859375
 20
388.2060546875
 30
0.0
  0
VERTEX
  5
6B
330
56
100
AcDbEntity
  8
Ebene 1
370
     0
100
AcDbVertex
100
AcDb2dVertex
 10
623.6328125
 20
387.765625
 30
0.0
  0
VERTEX
  5
6C
330
56
100
AcDbEntity
  8
Ebene 1
370
     0
100
AcDbVertex
100
AcDb2dVertex
 10
622.75
 20
387.19140625
 30
0.0
  0
VERTEX
  5
6D
330
56
100
AcDbEntity
  8
Ebene 1
370
     0
100
AcDbVertex
100
AcDb2dVertex
 10
621.955078125
 20
386.529296875
 30
0.0
  0
VERTEX
  5
6E
330
56
100
AcDbEntity
  8
Ebene 1
370
     0
100
AcDbVertex
100
AcDb2dVertex
 10
621.205078125
 20
385.779296875
 30
0.0
  0
VERTEX
  5
6F
330
56
100
AcDbEntity
  8
Ebene 1
370
     0
100
AcDbVertex
100
AcDb2dVertex
 10
620.544921875
 20
384.9853515625
 30
0.0
  0
VERTEX
  5
70
330
56
100
AcDbEntity
  8
Ebene 1
370
     0
100
AcDbVertex
100
AcDb2dVertex
 10
619.970703125
 20
384.103515625
 30
0.0
  0
VERTEX
  5
71
330
56
100
AcDbEntity
  8
Ebene 1
370
     0
100
AcDbVertex
100
AcDb2dVertex
 10
619.529296875
 20
383.1767578125
 30
0.0
  0
VERTEX
  5
72
330
56
100
AcDbEntity
  8
Ebene 1
370
     0
100
AcDbVertex
100
AcDb2dVertex
 10
619.1328125
 20
382.2060546875
 30
0.0
  0
VERTEX
  5
73
330
56
100
AcDbEntity
  8
Ebene 1
370
     0
100
AcDbVertex
100
AcDb2dVertex
 10
618.8671875
 20
381.19140625
 30
0.0
  0
VERTEX
  5
74
330
56
100
AcDbEntity
  8
Ebene 1
370
     0
100
AcDbVertex
100
AcDb2dVertex
 10
618.69140625
 20
380.1767578125
 30
0.0
  0
VERTEX
  5
75
330
56
100
AcDbEntity
  8
Ebene 1
370
     0
100
AcDbVertex
100
AcDb2dVertex
 10
618.646484375
 20
379.1171875
 30
0.0
  0
VERTEX
  5
76
330
56
100
AcDbEntity
  8
Ebene 1
370
     0
100
AcDbVertex
100
AcDb2dVertex
 10
618.69140625
 20
378.05859375
 30
0.0
  0
VERTEX
  5
77
330
56
100
AcDbEntity
  8
Ebene 1
370
     0
100
AcDbVertex
100
AcDb2dVertex
 10
618.8671875
 20
377.044921875
 30
0.0
  0
VERTEX
  5
78
330
56
100
AcDbEntity
  8
Ebene 1
370
     0
100
AcDbVertex
100
AcDb2dVertex
 10
619.1328125
 20
376.029296875
 30
0.0
  0
VERTEX
  5
79
330
56
100
AcDbEntity
  8
Ebene 1
370
     0
100
AcDbVertex
100
AcDb2dVertex
 10
619.529296875
 20
375.05859375
 30
0.0
  0
VERTEX
  5
7A
330
56
100
AcDbEntity
  8
Ebene 1
370
     0
100
AcDbVertex
100
AcDb2dVertex
 10
619.970703125
 20
374.1328125
 30
0.0
  0
VERTEX
  5
7B
330
56
100
AcDbEntity
  8
Ebene 1
370
     0
100
AcDbVertex
100
AcDb2dVertex
 10
620.544921875
 20
373.25
 30
0.0
  0
VERTEX
  5
7C
330
56
100
AcDbEntity
  8
Ebene 1
370
     0
100
AcDbVertex
100
AcDb2dVertex
 10
621.205078125
 20
372.45703125
 30
0.0
  0
VERTEX
  5
7D
330
56
100
AcDbEntity
  8
Ebene 1
370
     0
100
AcDbVertex
100
AcDb2dVertex
 10
621.955078125
 20
371.70703125
 30
0.0
  0
VERTEX
  5
7E
330
56
100
AcDbEntity
  8
Ebene 1
370
     0
100
AcDbVertex
100
AcDb2dVertex
 10
622.75
 20
371.044921875
 30
0.0
  0
VERTEX
  5
7F
330
56
100
AcDbEntity
  8
Ebene 1
370
     0
100
AcDbVertex
100
AcDb2dVertex
 10
623.6328125
 20
370.470703125
 30
0.0
  0
VERTEX
  5
80
330
56
100
AcDbEntity
  8
Ebene 1
370
     0
100
AcDbVertex
100
AcDb2dVertex
 10
624.55859375
 20
370.029296875
 30
0.0
  0
VERTEX
  5
81
330
56
100
AcDbEntity
  8
Ebene 1
370
     0
100
AcDbVertex
100
AcDb2dVertex
 10
625.529296875
 20
369.6328125
 30
0.0
  0
VERTEX
  5
82
330
56
100
AcDbEntity
  8
Ebene 1
370
     0
100
AcDbVertex
100
AcDb2dVertex
 10
626.544921875
 20
369.3671875
 30
0.0
  0
VERTEX
  5
83
330
56
100
AcDbEntity
  8
Ebene 1
370
     0
100
AcDbVertex
100
AcDb2dVertex
 10
627.55859375
 20
369.19140625
 30
0.0
  0
VERTEX
  5
84
330
56
100
AcDbEntity
  8
Ebene 1
370
     0
100
AcDbVertex
100
AcDb2dVertex
 10
628.6171875
 20
369.146484375
 30
0.0
  0
VERTEX
  5
85
330
56
100
AcDbEntity
  8
Ebene 1
370
     0
100
AcDbVertex
100
AcDb2dVertex
 10
629.67578125
 20
369.19140625
 30
0.0
  0
VERTEX
  5
86
330
56
100
AcDbEntity
  8
Ebene 1
370
     0
100
AcDbVertex
100
AcDb2dVertex
 10
630.69140625
 20
369.3671875
 30
0.0
  0
VERTEX
  5
87
330
56
100
AcDbEntity
  8
Ebene 1
370
     0
100
AcDbVertex
100
AcDb2dVertex
 10
631.705078125
 20
369.6328125
 30
0.0
  0
VERTEX
  5
88
330
56
100
AcDbEntity
  8
Ebene 1
370
     0
100
AcDbVertex
100
AcDb2dVertex
 10
632.67578125
 20
370.029296875
 30
0.0
  0
VERTEX
  5
89
330
56
100
AcDbEntity
  8
Ebene 1
370
     0
100
AcDbVertex
100
AcDb2dVertex
 10
633.603515625
 20
370.470703125
 30
0.0
  0
VERTEX
  5
8A
330
56
100
AcDbEntity
  8
Ebene 1
370
     0
100
AcDbVertex
100
AcDb2dVertex
 10
634.484375
 20
371.044921875
 30
0.0
  0
VERTEX
  5
8B
330
56
100
AcDbEntity
  8
Ebene 1
370
     0
100
AcDbVertex
100
AcDb2dVertex
 10
635.279296875
 20
371.70703125
 30
0.0
  0
VERTEX
  5
8C
330
56
100
AcDbEntity
  8
Ebene 1
370
     0
100
AcDbVertex
100
AcDb2dVertex
 10
636.029296875
 20
372.45703125
 30
0.0
  0
VERTEX
  5
8D
330
56
100
AcDbEntity
  8
Ebene 1
370
     0
100
AcDbVertex
100
AcDb2dVertex
 10
636.69140625
 20
373.25
 30
0.0
  0
VERTEX
  5
8E
330
56
100
AcDbEntity
  8
Ebene 1
370
     0
100
AcDbVertex
100
AcDb2dVertex
 10
637.265625
 20
374.1328125
 30
0.0
  0
VERTEX
  5
8F
330
56
100
AcDbEntity
  8
Ebene 1
370
     0
100
AcDbVertex
100
AcDb2dVertex
 10
637.705078125
 20
375.05859375
 30
0.0
  0
VERTEX
  5
90
330
56
100
AcDbEntity
  8
Ebene 1
370
     0
100
AcDbVertex
100
AcDb2dVertex
 10
638.103515625
 20
376.029296875
 30
0.0
  0
VERTEX
  5
91
330
56
100
AcDbEntity
  8
Ebene 1
370
     0
100
AcDbVertex
100
AcDb2dVertex
 10
638.3671875
 20
377.044921875
 30
0.0
  0
VERTEX
  5
92
330
56
100
AcDbEntity
  8
Ebene 1
370
     0
100
AcDbVertex
100
AcDb2dVertex
 10
638.544921875
 20
378.05859375
 30
0.0
  0
VERTEX
  5
93
330
56
100
AcDbEntity
  8
Ebene 1
370
     0
100
AcDbVertex
100
AcDb2dVertex
 10
638.587890625
 20
379.1171875
 30
0.0
  0
VERTEX
  5
94
330
56
100
AcDbEntity
  8
Ebene 1
370
     0
100
AcDbVertex
100
AcDb2dVertex
 10
638.587890625
 20
379.1171875
 30
0.0
  0
SEQEND
  5
95
330
56
100
AcDbEntity
  8
Ebene 1
370
     0
  0
POLYLINE
  5
96
330
3C
100
AcDbEntity
  8
Ebene 1
370
     0
100
AcDb2dPolyline
 66
     1
 10
0.0
 20
0.0
 30
0.0
  0
VERTEX
  5
97
330
96
100
AcDbEntity
  8
Ebene 1
370
     0
100
AcDbVertex
100
AcDb2dVertex
 10
490.662109375
 20
379.1171875
 30
0.0
  0
VERTEX
  5
98
330
96
100
AcDbEntity
  8
Ebene 1
370
     0
100
AcDbVertex
100
AcDb2dVertex
 10
490.6171875
 20
380.1767578125
 30
0.0
  0
VERTEX
  5
99
330
96
100
AcDbEntity
  8
Ebene 1
370
     0
100
AcDbVertex
100
AcDb2dVertex
 10
490.44140625
 20
381.19140625
 30
0.0
  0
VERTEX
  5
9A
330
96
100
AcDbEntity
  8
Ebene 1
370
     0
100
AcDbVertex
100
AcDb2dVertex
 10
490.17578125
 20
382.2060546875
 30
0.0
  0
VERTEX
  5
9B
330
96
100
AcDbEntity
  8
Ebene 1
370
     0
100
AcDbVertex
100
AcDb2dVertex
 10
489.779296875
 20
383.1767578125
 30
0.0
  0
VERTEX
  5
9C
330
96
100
AcDbEntity
  8
Ebene 1
370
     0
100
AcDbVertex
100
AcDb2dVertex
 10
489.337890625
 20
384.103515625
 30
0.0
  0
VERTEX
  5
9D
330
96
100
AcDbEntity
  8
Ebene 1
370
     0
100
AcDbVertex
100
AcDb2dVertex
 10
488.7646484375
 20
384.9853515625
 30
0.0
  0
VERTEX
  5
9E
330
96
100
AcDbEntity
  8
Ebene 1
370
     0
100
AcDbVertex
100
AcDb2dVertex
 10
488.103515625
 20
385.779296875
 30
0.0
  0
VERTEX
  5
9F
330
96
100
AcDbEntity
  8
Ebene 1
370
     0
100
AcDbVertex
100
AcDb2dVertex
 10
487.353515625
 20
386.529296875
 30
0.0
  0
VERTEX
  5
A0
330
96
100
AcDbEntity
  8
Ebene 1
370
     0
100
AcDbVertex
100
AcDb2dVertex
 10
486.55859375
 20
387.19140625
 30
0.0
  0
VERTEX
  5
A1
330
96
100
AcDbEntity
  8
Ebene 1
370
     0
100
AcDbVertex
100
AcDb2dVertex
 10
485.67578125
 20
387.765625
 30
0.0
  0
VERTEX
  5
A2
330
96
100
AcDbEntity
  8
Ebene 1
370
     0
100
AcDbVertex
100
AcDb2dVertex
 10
484.75
 20
388.2060546875
 30
0.0
  0
VERTEX
  5
A3
330
96
100
AcDbEntity
  8
Ebene 1
370
     0
100
AcDbVertex
100
AcDb2dVertex
 10
483.779296875
 20
388.603515625
 30
0.0
  0
VERTEX
  5
A4
330
96
100
AcDbEntity
  8
Ebene 1
370
     0
100
AcDbVertex
100
AcDb2dVertex
 10
482.7646484375
 20
388.8671875
 30
0.0
  0
VERTEX
  5
A5
330
96
100
AcDbEntity
  8
Ebene 1
370
     0
100
AcDbVertex
100
AcDb2dVertex
 10
481.75
 20
389.044921875
 30
0.0
  0
VERTEX
  5
A6
330
96
100
AcDbEntity
  8
Ebene 1
370
     0
100
AcDbVertex
100
AcDb2dVertex
 10
480.69140625
 20
389.087890625
 30
0.0
  0
VERTEX
  5
A7
330
96
100
AcDbEntity
  8
Ebene 1
370
     0
100
AcDbVertex
100
AcDb2dVertex
 10
479.6328125
 20
389.044921875
 30
0.0
  0
VERTEX
  5
A8
330
96
100
AcDbEntity
  8
Ebene 1
370
     0
100
AcDbVertex
100
AcDb2dVertex
 10
478.6171875
 20
388.8671875
 30
0.0
  0
VERTEX
  5
A9
330
96
100
AcDbEntity
  8
Ebene 1
370
     0
100
AcDbVertex
100
AcDb2dVertex
 10
477.603515625
 20
388.603515625
 30
0.0
  0
VERTEX
  5
AA
330
96
100
AcDbEntity
  8
Ebene 1
370
     0
100
AcDbVertex
100
AcDb2dVertex
 10
476.6328125
 20
388.2060546875
 30
0.0
  0
VERTEX
  5
AB
330
96
100
AcDbEntity
  8
Ebene 1
370
     0
100
AcDbVertex
100
AcDb2dVertex
 10
475.7060546875
 20
387.765625
 30
0.0
  0
VERTEX
  5
AC
330
96
100
AcDbEntity
  8
Ebene 1
370
     0
100
AcDbVertex
100
AcDb2dVertex
 10
474.82421875
 20
387.19140625
 30
0.0
  0
VERTEX
  5
AD
330
96
100
AcDbEntity
  8
Ebene 1
370
     0
100
AcDbVertex
100
AcDb2dVertex
 10
474.029296875
 20
386.529296875
 30
0.0
  0
VERTEX
  5
AE
330
96
100
AcDbEntity
  8
Ebene 1
370
     0
100
AcDbVertex
100
AcDb2dVertex
 10
473.279296875
 20
385.779296875
 30
0.0
  0
VERTEX
  5
AF
330
96
100
AcDbEntity
  8
Ebene 1
370
     0
100
AcDbVertex
100
AcDb2dVertex
 10
472.6171875
 20
384.9853515625
 30
0.0
  0
VERTEX
  5
B0
330
96
100
AcDbEntity
  8
Ebene 1
370
     0
100
AcDbVertex
100
AcDb2dVertex
 10
472.0439453125
 20
384.103515625
 30
0.0
  0
VERTEX
  5
B1
330
96
100
AcDbEntity
  8
Ebene 1
370
     0
100
AcDbVertex
100
AcDb2dVertex
 10
471.603515625
 20
383.1767578125
 30
0.0
  0
VERTEX
  5
B2
330
96
100
AcDbEntity
  8
Ebene 1
370
     0
100
AcDbVertex
100
AcDb2dVertex
 10
471.2060546875
 20
382.2060546875
 30
0.0
  0
VERTEX
  5
B3
330
96
100
AcDbEntity
  8
Ebene 1
370
     0
100
AcDbVertex
100
AcDb2dVertex
 10
470.94140625
 20
381.19140625
 30
0.0
  0
VERTEX
  5
B4
330
96
100
AcDbEntity
  8
Ebene 1
370
     0
100
AcDbVertex
100
AcDb2dVertex
 10
470.7646484375
 20
380.1767578125
 30
0.0
  0
VERTEX
  5
B5
330
96
100
AcDbEntity
  8
Ebene 1
370
     0
100
AcDbVertex
100
AcDb2dVertex
 10
470.720703125
 20
379.1171875
 30
0.0
  0
VERTEX
  5
B6
330
96
100
AcDbEntity
  8
Ebene 1
370
     0
100
AcDbVertex
100
AcDb2dVertex
 10
470.7646484375
 20
378.05859375
 30
0.0
  0
VERTEX
  5
B7
330
96
100
AcDbEntity
  8
Ebene 1
370
     0
100
AcDbVertex
100
AcDb2dVertex
 10
470.94140625
 20
377.044921875
 30
0.0
  0
VERTEX
  5
B8
330
96
100
AcDbEntity
  8
Ebene 1
370
     0
100
AcDbVertex
100
AcDb2dVertex
 10
471.2060546875
 20
376.029296875
 30
0.0
  0
VERTEX
  5
B9
330
96
100
AcDbEntity
  8
Ebene 1
370
     0
100
AcDbVertex
100
AcDb2dVertex
 10
471.603515625
 20
375.05859375
 30
0.0
  0
VERTEX
  5
BA
330
96
100
AcDbEntity
  8
Ebene 1
370
     0
100
AcDbVertex
100
AcDb2dVertex
 10
472.0439453125
 20
374.1328125
 30
0.0
  0
VERTEX
  5
BB
330
96
100
AcDbEntity
  8
Ebene 1
370
     0
100
AcDbVertex
100
AcDb2dVertex
 10
472.6171875
 20
373.25
 30
0.0
  0
VERTEX
  5
BC
330
96
100
AcDbEntity
  8
Ebene 1
370
     0
100
AcDbVertex
100
AcDb2dVertex
 10
473.279296875
 20
372.45703125
 30
0.0
  0
VERTEX
  5
BD
330
96
100
AcDbEntity
  8
Ebene 1
370
     0
100
AcDbVertex
100
AcDb2dVertex
 10
474.029296875
 20
371.70703125
 30
0.0
  0
VERTEX
  5
BE
330
96
100
AcDbEntity
  8
Ebene 1
370
     0
100
AcDbVertex
100
AcDb2dVertex
 10
474.82421875
 20
371.044921875
 30
0.0
  0
VERTEX
  5
BF
330
96
100
AcDbEntity
  8
Ebene 1
370
     0
100
AcDbVertex
100
AcDb2dVertex
 10
475.7060546875
 20
370.470703125
 30
0.0
  0
VERTEX
  5
C0
330
96
100
AcDbEntity
  8
Ebene 1
370
     0
100
AcDbVertex
100
AcDb2dVertex
 10
476.6328125
 20
370.029296875
 30
0.0
  0
VERTEX
  5
C1
330
96
100
AcDbEntity
  8
Ebene 1
370
     0
100
AcDbVertex
100
AcDb2dVertex
 10
477.603515625
 20
369.6328125
 30
0.0
  0
VERTEX
  5
C2
330
96
100
AcDbEntity
  8
Ebene 1
370
     0
100
AcDbVertex
100
AcDb2dVertex
 10
478.6171875
 20
369.3671875
 30
0.0
  0
VERTEX
  5
C3
330
96
100
AcDbEntity
  8
Ebene 1
370
     0
100
AcDbVertex
100
AcDb2dVertex
 10
479.6328125
 20
369.19140625
 30
0.0
  0
VERTEX
  5
C4
330
96
100
AcDbEntity
  8
Ebene 1
370
     0
100
AcDbVertex
100
AcDb2dVertex
 10
480.69140625
 20
369.146484375
 30
0.0
  0
VERTEX
  5
C5
330
96
100
AcDbEntity
  8
Ebene 1
370
     0
100
AcDbVertex
100
AcDb2dVertex
 10
481.75
 20
369.19140625
 30
0.0
  0
VERTEX
  5
C6
330
96
100
AcDbEntity
  8
Ebene 1
370
     0
100
AcDbVertex
100
AcDb2dVertex
 10
482.7646484375
 20
369.3671875
 30
0.0
  0
VERTEX
  5
C7
330
96
100
AcDbEntity
  8
Ebene 1
370
     0
100
AcDbVertex
100
AcDb2dVertex
 10
483.779296875
 20
369.6328125
 30
0.0
  0
VERTEX
  5
C8
330
96
100
AcDbEntity
  8
Ebene 1
370
     0
100
AcDbVertex
100
AcDb2dVertex
 10
484.75
 20
370.029296875
 30
0.0
  0
VERTEX
  5
C9
330
96
100
AcDbEntity
  8
Ebene 1
370
     0
100
AcDbVertex
100
AcDb2dVertex
 10
485.67578125
 20
370.470703125
 30
0.0
  0
VERTEX
  5
CA
330
96
100
AcDbEntity
  8
Ebene 1
370
     0
100
AcDbVertex
100
AcDb2dVertex
 10
486.55859375
 20
371.044921875
 30
0.0
  0
VERTEX
  5
CB
330
96
100
AcDbEntity
  8
Ebene 1
370
     0
100
AcDbVertex
100
AcDb2dVertex
 10
487.353515625
 20
371.70703125
 30
0.0
  0
VERTEX
  5
CC
330
96
100
AcDbEntity
  8
Ebene 1
370
     0
100
AcDbVertex
100
AcDb2dVertex
 10
488.103515625
 20
372.45703125
 30
0.0
  0
VERTEX
  5
CD
330
96
100
AcDbEntity
  8
Ebene 1
370
     0
100
AcDbVertex
100
AcDb2dVertex
 10
488.7646484375
 20
373.25
 30
0.0
  0
VERTEX
  5
CE
330
96
100
AcDbEntity
  8
Ebene 1
370
     0
100
AcDbVertex
100
AcDb2dVertex
 10
489.337890625
 20
374.1328125
 30
0.0
  0
VERTEX
  5
CF
330
96
100
AcDbEntity
  8
Ebene 1
370
     0
100
AcDbVertex
100
AcDb2dVertex
 10
489.779296875
 20
375.05859375
 30
0.0
  0
VERTEX
  5
D0
330
96
100
AcDbEntity
  8
Ebene 1
370
     0
100
AcDbVertex
100
AcDb2dVertex
 10
490.17578125
 20
376.029296875
 30
0.0
  0
VERTEX
  5
D1
330
96
100
AcDbEntity
  8
Ebene 1
370
     0
100
AcDbVertex
100
AcDb2dVertex
 10
490.44140625
 20
377.044921875
 30
0.0
  0
VERTEX
  5
D2
330
96
100
AcDbEntity
  8
Ebene 1
370
     0
100
AcDbVertex
100
AcDb2dVertex
 10
490.6171875
 20
378.05859375
 30
0.0
  0
VERTEX
  5
D3
330
96
100
AcDbEntity
  8
Ebene 1
370
     0
100
AcDbVertex
100
AcDb2dVertex
 10
490.662109375
 20
379.1171875
 30
0.0
  0
VERTEX
  5
D4
330
96
100
AcDbEntity
  8
Ebene 1
370
     0
100
AcDbVertex
100
AcDb2dVertex
 10
490.662109375
 20
379.1171875
 30
0.0
  0
SEQEND
  5
D5
330
96
100
AcDbEntity
  8
Ebene 1
370
     0
  0
POLYLINE
  5
D6
330
3C
100
AcDbEntity
  8
Ebene 1
370
     0
100
AcDb2dPolyline
 66
     1
 10
0.0
 20
0.0
 30
0.0
  0
VERTEX
  5
D7
330
D6
100
AcDbEntity
  8
Ebene 1
370
     0
100
AcDbVertex
100
AcDb2dVertex
 10
448.7939453125
 20
361.1171875
 30
0.0
  0
VERTEX
  5
D8
330
D6
100
AcDbEntity
  8
Ebene 1
370
     0
100
AcDbVertex
100
AcDb2dVertex
 10
513.9560546875
 20
361.1171875
 30
0.0
  0
SEQEND
  5
D9
330
D6
100
AcDbEntity
  8
Ebene 1
370
     0
  0
POLYLINE
  5
DA
330
3C
100
AcDbEntity
  8
Ebene 1
370
     0
100
AcDb2dPolyline
 66
     1
 10
0.0
 20
0.0
 30
0.0
  0
VERTEX
  5
DB
330
DA
100
AcDbEntity
  8
Ebene 1
370
     0
100
AcDbVertex
100
AcDb2dVertex
 10
668.544921875
 20
361.1171875
 30
0.0
  0
VERTEX
  5
DC
330
DA
100
AcDbEntity
  8
Ebene 1
370
     0
100
AcDbVertex
100
AcDb2dVertex
 10
667.529296875
 20
417.27978515625
 30
0.0
  0
SEQEND
  5
DD
330
DA
100
AcDbEntity
  8
Ebene 1
370
     0
  0
POLYLINE
  5
DE
330
3C
100
AcDbEntity
  8
Ebene 1
370
     0
100
AcDb2dPolyline
 66
     1
 10
0.0
 20
0.0
 30
0.0
  0
VERTEX
  5
DF
330
DE
100
AcDbEntity
  8
Ebene 1
370
     0
100
AcDbVertex
100
AcDb2dVertex
 10
667.57421875
 20
417.27978515625
 30
0.0
  0
VERTEX
  5
E0
330
DE
100
AcDbEntity
  8
Ebene 1
370
     0
100
AcDbVertex
100
AcDb2dVertex
 10
649.837890625
 20
417.5
 30
0.0
  0
VERTEX
  5
E1
330
DE
100
AcDbEntity
  8
Ebene 1
370
     0
100
AcDbVertex
100
AcDb2dVertex
 10
632.103515625
 20
417.58837890625
 30
0.0
  0
VERTEX
  5
E2
330
DE
100
AcDbEntity
  8
Ebene 1
370
     0
100
AcDbVertex
100
AcDb2dVertex
 10
614.3671875
 20
417.5
 30
0.0
  0
VERTEX
  5
E3
330
DE
100
AcDbEntity
  8
Ebene 1
370
     0
100
AcDbVertex
100
AcDb2dVertex
 10
596.6328125
 20
417.27978515625
 30
0.0
  0
SEQEND
  5
E4
330
DE
100
AcDbEntity
  8
Ebene 1
370
     0
  0
POLYLINE
  5
E5
330
3C
100
AcDbEntity
  8
Ebene 1
370
     0
100
AcDb2dPolyline
 66
     1
 10
0.0
 20
0.0
 30
0.0
  0
VERTEX
  5
E6
330
E5
100
AcDbEntity
  8
Ebene 1
370
     0
100
AcDbVertex
100
AcDb2dVertex
 10
595.353515625
 20
361.07421875
 30
0.0
  0
VERTEX
  5
E7
330
E5
100
AcDbEntity
  8
Ebene 1
370
     0
100
AcDbVertex
100
AcDb2dVertex
 10
668.544921875
 20
361.1171875
 30
0.0
  0
SEQEND
  5
E8
330
E5
100
AcDbEntity
  8
Ebene 1
370
     0
  0
POLYLINE
  5
E9
330
3C
100
AcDbEntity
  8
Ebene 1
370
     0
100
AcDb2dPolyline
 66
     1
 10
0.0
 20
0.0
 30
0.0
  0
VERTEX
  5
EA
330
E9
100
AcDbEntity
  8
Ebene 1
370
     0
100
AcDbVertex
100
AcDb2dVertex
 10
449.7646484375
 20
417.27978515625
 30
0.0
  0
VERTEX
  5
EB
330
E9
100
AcDbEntity
  8
Ebene 1
370
     0
100
AcDbVertex
100
AcDb2dVertex
 10
449.7646484375
 20
425.13232421875
 30
0.0
  0
SEQEND
  5
EC
330
E9
100
AcDbEntity
  8
Ebene 1
370
     0
  0
POLYLINE
  5
ED
330
3C
100
AcDbEntity
  8
Ebene 1
370
     0
100
AcDb2dPolyline
 66
     1
 10
0.0
 20
0.0
 30
0.0
  0
VERTEX
  5
EE
330
ED
100
AcDbEntity
  8
Ebene 1
370
     0
100
AcDbVertex
100
AcDb2dVertex
 10
659.544921875
 20
417.27978515625
 30
0.0
  0
VERTEX
  5
EF
330
ED
100
AcDbEntity
  8
Ebene 1
370
     0
100
AcDbVertex
100
AcDb2dVertex
 10
659.544921875
 20
425.13232421875
 30
0.0
  0
VERTEX
  5
F0
330
ED
100
AcDbEntity
  8
Ebene 1
370
     0
100
AcDbVertex
100
AcDb2dVertex
 10
656.32421875
 20
425.13232421875
 30
0.0
  0
SEQEND
  5
F1
330
ED
100
AcDbEntity
  8
Ebene 1
370
     0
  0
POLYLINE
  5
F2
330
3C
100
AcDbEntity
  8
Ebene 1
370
     0
100
AcDb2dPolyline
 66
     1
 10
0.0
 20
0.0
 30
0.0
  0
VERTEX
  5
F3
330
F2
100
AcDbEntity
  8
Ebene 1
370
     0
100
AcDbVertex
100
AcDb2dVertex
 10
640.8828125
 20
425.13232421875
 30
0.0
  0
VERTEX
  5
F4
330
F2
100
AcDbEntity
  8
Ebene 1
370
     0
100
AcDbVertex
100
AcDb2dVertex
 10
642.646484375
 20
425.04443359375
 30
0.0
  0
VERTEX
  5
F5
330
F2
100
AcDbEntity
  8
Ebene 1
370
     0
100
AcDbVertex
100
AcDb2dVertex
 10
643.529296875
 20
424.9560546875
 30
0.0
  0
VERTEX
  5
F6
330
F2
100
AcDbEntity
  8
Ebene 1
370
     0
100
AcDbVertex
100
AcDb2dVertex
 10
644.5
 20
424.86767578125
 30
0.0
  0
VERTEX
  5
F7
330
F2
100
AcDbEntity
  8
Ebene 1
370
     0
100
AcDbVertex
100
AcDb2dVertex
 10
646.529296875
 20
424.7353515625
 30
0.0
  0
VERTEX
  5
F8
330
F2
100
AcDbEntity
  8
Ebene 1
370
     0
100
AcDbVertex
100
AcDb2dVertex
 10
648.603515625
 20
424.6474609375
 30
0.0
  0
VERTEX
  5
F9
330
F2
100
AcDbEntity
  8
Ebene 1
370
     0
100
AcDbVertex
100
AcDb2dVertex
 10
650.67578125
 20
424.69140625
 30
0.0
  0
VERTEX
  5
FA
330
F2
100
AcDbEntity
  8
Ebene 1
370
     0
100
AcDbVertex
100
AcDb2dVertex
 10
652.705078125
 20
424.86767578125
 30
0.0
  0
VERTEX
  5
FB
330
F2
100
AcDbEntity
  8
Ebene 1
370
     0
100
AcDbVertex
100
AcDb2dVertex
 10
653.67578125
 20
424.9560546875
 30
0.0
  0
VERTEX
  5
FC
330
F2
100
AcDbEntity
  8
Ebene 1
370
     0
100
AcDbVertex
100
AcDb2dVertex
 10
654.603515625
 20
425.04443359375
 30
0.0
  0
VERTEX
  5
FD
330
F2
100
AcDbEntity
  8
Ebene 1
370
     0
100
AcDbVertex
100
AcDb2dVertex
 10
655.484375
 20
425.13232421875
 30
0.0
  0
VERTEX
  5
FE
330
F2
100
AcDbEntity
  8
Ebene 1
370
     0
100
AcDbVertex
100
AcDb2dVertex
 10
656.32421875
 20
425.13232421875
 30
0.0
  0
SEQEND
  5
FF
330
F2
100
AcDbEntity
  8
Ebene 1
370
     0
  0
POLYLINE
  5
100
330
3C
100
AcDbEntity
  8
Ebene 1
370
     0
100
AcDb2dPolyline
 66
     1
 10
0.0
 20
0.0
 30
0.0
  0
VERTEX
  5
101
330
100
100
AcDbEntity
  8
Ebene 1
370
     0
100
AcDbVertex
100
AcDb2dVertex
 10
640.8828125
 20
425.13232421875
 30
0.0
  0
VERTEX
  5
102
330
100
100
AcDbEntity
  8
Ebene 1
370
     0
100
AcDbVertex
100
AcDb2dVertex
 10
468.42578125
 20
425.13232421875
 30
0.0
  0
SEQEND
  5
103
330
100
100
AcDbEntity
  8
Ebene 1
370
     0
  0
POLYLINE
  5
104
330
3C
100
AcDbEntity
  8
Ebene 1
370
     0
100
AcDb2dPolyline
 66
     1
 10
0.0
 20
0.0
 30
0.0
  0
VERTEX
  5
105
330
104
100
AcDbEntity
  8
Ebene 1
370
     0
100
AcDbVertex
100
AcDb2dVertex
 10
452.9853515625
 20
425.13232421875
 30
0.0
  0
VERTEX
  5
106
330
104
100
AcDbEntity
  8
Ebene 1
370
     0
100
AcDbVertex
100
AcDb2dVertex
 10
454.75
 20
425.04443359375
 30
0.0
  0
VERTEX
  5
107
330
104
100
AcDbEntity
  8
Ebene 1
370
     0
100
AcDbVertex
100
AcDb2dVertex
 10
455.6328125
 20
424.9560546875
 30
0.0
  0
VERTEX
  5
108
330
104
100
AcDbEntity
  8
Ebene 1
370
     0
100
AcDbVertex
100
AcDb2dVertex
 10
456.603515625
 20
424.86767578125
 30
0.0
  0
VERTEX
  5
109
330
104
100
AcDbEntity
  8
Ebene 1
370
     0
100
AcDbVertex
100
AcDb2dVertex
 10
458.6328125
 20
424.7353515625
 30
0.0
  0
VERTEX
  5
10A
330
104
100
AcDbEntity
  8
Ebene 1
370
     0
100
AcDbVertex
100
AcDb2dVertex
 10
460.7060546875
 20
424.6474609375
 30
0.0
  0
VERTEX
  5
10B
330
104
100
AcDbEntity
  8
Ebene 1
370
     0
100
AcDbVertex
100
AcDb2dVertex
 10
462.779296875
 20
424.69140625
 30
0.0
  0
VERTEX
  5
10C
330
104
100
AcDbEntity
  8
Ebene 1
370
     0
100
AcDbVertex
100
AcDb2dVertex
 10
464.80859375
 20
424.86767578125
 30
0.0
  0
VERTEX
  5
10D
330
104
100
AcDbEntity
  8
Ebene 1
370
     0
100
AcDbVertex
100
AcDb2dVertex
 10
465.779296875
 20
424.9560546875
 30
0.0
  0
VERTEX
  5
10E
330
104
100
AcDbEntity
  8
Ebene 1
370
     0
100
AcDbVertex
100
AcDb2dVertex
 10
466.7060546875
 20
425.04443359375
 30
0.0
  0
VERTEX
  5
10F
330
104
100
AcDbEntity
  8
Ebene 1
370
     0
100
AcDbVertex
100
AcDb2dVertex
 10
467.587890625
 20
425.13232421875
 30
0.0
  0
VERTEX
  5
110
330
104
100
AcDbEntity
  8
Ebene 1
370
     0
100
AcDbVertex
100
AcDb2dVertex
 10
468.42578125
 20
425.13232421875
 30
0.0
  0
SEQEND
  5
111
330
104
100
AcDbEntity
  8
Ebene 1
370
     0
  0
POLYLINE
  5
112
330
3C
100
AcDbEntity
  8
Ebene 1
370
     0
100
AcDb2dPolyline
 66
     1
 10
0.0
 20
0.0
 30
0.0
  0
VERTEX
  5
113
330
112
100
AcDbEntity
  8
Ebene 1
370
     0
100
AcDbVertex
100
AcDb2dVertex
 10
452.9853515625
 20
425.13232421875
 30
0.0
  0
VERTEX
  5
114
330
112
100
AcDbEntity
  8
Ebene 1
370
     0
100
AcDbVertex
100
AcDb2dVertex
 10
449.7646484375
 20
425.13232421875
 30
0.0
  0
SEQEND
  5
115
330
112
100
AcDbEntity
  8
Ebene 1
370
     0
  0
POLYLINE
  5
116
330
3C
100
AcDbEntity
  8
Ebene 1
370
     0
100
AcDb2dPolyline
 66
     1
 10
0.0
 20
0.0
 30
0.0
  0
VERTEX
  5
117
330
116
100
AcDbEntity
  8
Ebene 1
370
     0
100
AcDbVertex
100
AcDb2dVertex
 10
449.7646484375
 20
425.13232421875
 30
0.0
  0
VERTEX
  5
118
330
116
100
AcDbEntity
  8
Ebene 1
370
     0
100
AcDbVertex
100
AcDb2dVertex
 10
448.7939453125
 20
425.08837890625
 30
0.0
  0
VERTEX
  5
119
330
116
100
AcDbEntity
  8
Ebene 1
370
     0
100
AcDbVertex
100
AcDb2dVertex
 10
447.8671875
 20
424.912109375
 30
0.0
  0
VERTEX
  5
11A
330
116
100
AcDbEntity
  8
Ebene 1
370
     0
100
AcDbVertex
100
AcDb2dVertex
 10
446.94140625
 20
424.60302734375
 30
0.0
  0
VERTEX
  5
11B
330
116
100
AcDbEntity
  8
Ebene 1
370
     0
100
AcDbVertex
100
AcDb2dVertex
 10
446.103515625
 20
424.25
 30
0.0
  0
VERTEX
  5
11C
330
116
100
AcDbEntity
  8
Ebene 1
370
     0
100
AcDbVertex
100
AcDb2dVertex
 10
445.2646484375
 20
423.76513671875
 30
0.0
  0
VERTEX
  5
11D
330
116
100
AcDbEntity
  8
Ebene 1
370
     0
100
AcDbVertex
100
AcDb2dVertex
 10
444.5146484375
 20
423.1474609375
 30
0.0
  0
VERTEX
  5
11E
330
116
100
AcDbEntity
  8
Ebene 1
370
     0
100
AcDbVertex
100
AcDb2dVertex
 10
443.853515625
 20
422.4853515625
 30
0.0
  0
VERTEX
  5
11F
330
116
100
AcDbEntity
  8
Ebene 1
370
     0
100
AcDbVertex
100
AcDb2dVertex
 10
443.2353515625
 20
421.7353515625
 30
0.0
  0
VERTEX
  5
120
330
116
100
AcDbEntity
  8
Ebene 1
370
     0
100
AcDbVertex
100
AcDb2dVertex
 10
442.75
 20
420.94140625
 30
0.0
  0
VERTEX
  5
121
330
116
100
AcDbEntity
  8
Ebene 1
370
     0
100
AcDbVertex
100
AcDb2dVertex
 10
442.353515625
 20
420.05908203125
 30
0.0
  0
VERTEX
  5
122
330
116
100
AcDbEntity
  8
Ebene 1
370
     0
100
AcDbVertex
100
AcDb2dVertex
 10
442.0439453125
 20
419.1767578125
 30
0.0
  0
VERTEX
  5
123
330
116
100
AcDbEntity
  8
Ebene 1
370
     0
100
AcDbVertex
100
AcDb2dVertex
 10
441.8671875
 20
418.25
 30
0.0
  0
VERTEX
  5
124
330
116
100
AcDbEntity
  8
Ebene 1
370
     0
100
AcDbVertex
100
AcDb2dVertex
 10
441.779296875
 20
417.27978515625
 30
0.0
  0
SEQEND
  5
125
330
116
100
AcDbEntity
  8
Ebene 1
370
     0
  0
POLYLINE
  5
126
330
3C
100
AcDbEntity
  8
Ebene 1
370
     0
100
AcDb2dPolyline
 66
     1
 10
0.0
 20
0.0
 30
0.0
  0
VERTEX
  5
127
330
126
100
AcDbEntity
  8
Ebene 1
370
     0
100
AcDbVertex
100
AcDb2dVertex
 10
667.529296875
 20
417.27978515625
 30
0.0
  0
VERTEX
  5
128
330
126
100
AcDbEntity
  8
Ebene 1
370
     0
100
AcDbVertex
100
AcDb2dVertex
 10
667.44140625
 20
418.25
 30
0.0
  0
VERTEX
  5
129
330
126
100
AcDbEntity
  8
Ebene 1
370
     0
100
AcDbVertex
100
AcDb2dVertex
 10
667.265625
 20
419.1767578125
 30
0.0
  0
VERTEX
  5
12A
330
126
100
AcDbEntity
  8
Ebene 1
370
     0
100
AcDbVertex
100
AcDb2dVertex
 10
666.955078125
 20
420.05908203125
 30
0.0
  0
VERTEX
  5
12B
330
126
100
AcDbEntity
  8
Ebene 1
370
     0
100
AcDbVertex
100
AcDb2dVertex
 10
666.55859375
 20
420.94140625
 30
0.0
  0
VERTEX
  5
12C
330
126
100
AcDbEntity
  8
Ebene 1
370
     0
100
AcDbVertex
100
AcDb2dVertex
 10
666.07421875
 20
421.7353515625
 30
0.0
  0
VERTEX
  5
12D
330
126
100
AcDbEntity
  8
Ebene 1
370
     0
100
AcDbVertex
100
AcDb2dVertex
 10
665.455078125
 20
422.4853515625
 30
0.0
  0
VERTEX
  5
12E
330
126
100
AcDbEntity
  8
Ebene 1
370
     0
100
AcDbVertex
100
AcDb2dVertex
 10
664.794921875
 20
423.1474609375
 30
0.0
  0
VERTEX
  5
12F
330
126
100
AcDbEntity
  8
Ebene 1
370
     0
100
AcDbVertex
100
AcDb2dVertex
 10
664.044921875
 20
423.76513671875
 30
0.0
  0
VERTEX
  5
130
330
126
100
AcDbEntity
  8
Ebene 1
370
     0
100
AcDbVertex
100
AcDb2dVertex
 10
663.205078125
 20
424.25
 30
0.0
  0
VERTEX
  5
131
330
126
100
AcDbEntity
  8
Ebene 1
370
     0
100
AcDbVertex
100
AcDb2dVertex
 10
662.3671875
 20
424.60302734375
 30
0.0
  0
VERTEX
  5
132
330
126
100
AcDbEntity
  8
Ebene 1
370
     0
100
AcDbVertex
100
AcDb2dVertex
 10
661.44140625
 20
424.912109375
 30
0.0
  0
VERTEX
  5
133
330
126
100
AcDbEntity
  8
Ebene 1
370
     0
100
AcDbVertex
100
AcDb2dVertex
 10
660.515625
 20
425.08837890625
 30
0.0
  0
VERTEX
  5
134
330
126
100
AcDbEntity
  8
Ebene 1
370
     0
100
AcDbVertex
100
AcDb2dVertex
 10
659.544921875
 20
425.13232421875
 30
0.0
  0
SEQEND
  5
135
330
126
100
AcDbEntity
  8
Ebene 1
370
     0
  0
POLYLINE
  5
136
330
3C
100
AcDbEntity
  8
Ebene 1
370
     0
100
AcDb2dPolyline
 66
     1
 10
0.0
 20
0.0
 30
0.0
  0
VERTEX
  5
137
330
136
100
AcDbEntity
  8
Ebene 1
370
     0
100
AcDbVertex
100
AcDb2dVertex
 10
450.69140625
 20
357.146484375
 30
0.0
  0
VERTEX
  5
138
330
136
100
AcDbEntity
  8
Ebene 1
370
     0
100
AcDbVertex
100
AcDb2dVertex
 10
450.69140625
 20
361.1171875
 30
0.0
  0
SEQEND
  5
139
330
136
100
AcDbEntity
  8
Ebene 1
370
     0
  0
POLYLINE
  5
13A
330
3C
100
AcDbEntity
  8
Ebene 1
370
     0
100
AcDb2dPolyline
 66
     1
 10
0.0
 20
0.0
 30
0.0
  0
VERTEX
  5
13B
330
13A
100
AcDbEntity
  8
Ebene 1
370
     0
100
AcDbVertex
100
AcDb2dVertex
 10
658.6171875
 20
361.1171875
 30
0.0
  0
VERTEX
  5
13C
330
13A
100
AcDbEntity
  8
Ebene 1
370
     0
100
AcDbVertex
100
AcDb2dVertex
 10
658.6171875
 20
357.146484375
 30
0.0
  0
SEQEND
  5
13D
330
13A
100
AcDbEntity
  8
Ebene 1
370
     0
  0
POLYLINE
  5
13E
330
3C
100
AcDbEntity
  8
Ebene 1
370
     0
100
AcDb2dPolyline
 66
     1
 10
0.0
 20
0.0
 30
0.0
  0
VERTEX
  5
13F
330
13E
100
AcDbEntity
  8
Ebene 1
370
     0
100
AcDbVertex
100
AcDb2dVertex
 10
442.7060546875
 20
361.1171875
 30
0.0
  0
VERTEX
  5
140
330
13E
100
AcDbEntity
  8
Ebene 1
370
     0
100
AcDbVertex
100
AcDb2dVertex
 10
442.7939453125
 20
357.146484375
 30
0.0
  0
SEQEND
  5
141
330
13E
100
AcDbEntity
  8
Ebene 1
370
     0
  0
POLYLINE
  5
142
330
3C
100
AcDbEntity
  8
Ebene 1
370
     0
100
AcDb2dPolyline
 66
     1
 10
0.0
 20
0.0
 30
0.0
  0
VERTEX
  5
143
330
142
100
AcDbEntity
  8
Ebene 1
370
     0
100
AcDbVertex
100
AcDb2dVertex
 10
666.515625
 20
357.146484375
 30
0.0
  0
VERTEX
  5
144
330
142
100
AcDbEntity
  8
Ebene 1
370
     0
100
AcDbVertex
100
AcDb2dVertex
 10
666.603515625
 20
361.1171875
 30
0.0
  0
SEQEND
  5
145
330
142
100
AcDbEntity
  8
Ebene 1
370
     0
  0
POLYLINE
  5
146
330
3C
100
AcDbEntity
  8
Ebene 1
370
     0
100
AcDb2dPolyline
 66
     1
 10
0.0
 20
0.0
 30
0.0
  0
VERTEX
  5
147
330
146
100
AcDbEntity
  8
Ebene 1
370
     0
100
AcDbVertex
100
AcDb2dVertex
 10
667.529296875
 20
417.4560546875
 30
0.0
  0
VERTEX
  5
148
330
146
100
AcDbEntity
  8
Ebene 1
370
     0
100
AcDbVertex
100
AcDb2dVertex
 10
667.529296875
 20
417.8974609375
 30
0.0
  0
VERTEX
  5
149
330
146
100
AcDbEntity
  8
Ebene 1
370
     0
100
AcDbVertex
100
AcDb2dVertex
 10
667.484375
 20
418.29443359375
 30
0.0
  0
VERTEX
  5
14A
330
146
100
AcDbEntity
  8
Ebene 1
370
     0
100
AcDbVertex
100
AcDb2dVertex
 10
667.44140625
 20
418.55908203125
 30
0.0
  0
VERTEX
  5
14B
330
146
100
AcDbEntity
  8
Ebene 1
370
     0
100
AcDbVertex
100
AcDb2dVertex
 10
667.396484375
 20
418.6474609375
 30
0.0
  0
SEQEND
  5
14C
330
146
100
AcDbEntity
  8
Ebene 1
370
     0
  0
POLYLINE
  5
14D
330
3C
100
AcDbEntity
  8
Ebene 1
370
     0
100
AcDb2dPolyline
 66
     1
 10
0.0
 20
0.0
 30
0.0
  0
VERTEX
  5
14E
330
14D
100
AcDbEntity
  8
Ebene 1
370
     0
100
AcDbVertex
100
AcDb2dVertex
 10
440.720703125
 20
357.146484375
 30
0.0
  0
VERTEX
  5
14F
330
14D
100
AcDbEntity
  8
Ebene 1
370
     0
100
AcDbVertex
100
AcDb2dVertex
 10
442.30859375
 20
264.986328125
 30
0.0
  0
SEQEND
  5
150
330
14D
100
AcDbEntity
  8
Ebene 1
370
     0
  0
POLYLINE
  5
151
330
3C
100
AcDbEntity
  8
Ebene 1
370
     0
100
AcDb2dPolyline
 66
     1
 10
0.0
 20
0.0
 30
0.0
  0
VERTEX
  5
152
330
151
100
AcDbEntity
  8
Ebene 1
370
     0
100
AcDbVertex
100
AcDb2dVertex
 10
442.30859375
 20
265.07421875
 30
0.0
  0
VERTEX
  5
153
330
151
100
AcDbEntity
  8
Ebene 1
370
     0
100
AcDbVertex
100
AcDb2dVertex
 10
446.32421875
 20
264.986328125
 30
0.0
  0
VERTEX
  5
154
330
151
100
AcDbEntity
  8
Ebene 1
370
     0
100
AcDbVertex
100
AcDb2dVertex
 10
450.337890625
 20
265.07421875
 30
0.0
  0
SEQEND
  5
155
330
151
100
AcDbEntity
  8
Ebene 1
370
     0
  0
POLYLINE
  5
156
330
3C
100
AcDbEntity
  8
Ebene 1
370
     0
100
AcDb2dPolyline
 66
     1
 10
0.0
 20
0.0
 30
0.0
  0
VERTEX
  5
157
330
156
100
AcDbEntity
  8
Ebene 1
370
     0
100
AcDbVertex
100
AcDb2dVertex
 10
450.337890625
 20
264.986328125
 30
0.0
  0
VERTEX
  5
158
330
156
100
AcDbEntity
  8
Ebene 1
370
     0
100
AcDbVertex
100
AcDb2dVertex
 10
448.7060546875
 20
357.146484375
 30
0.0
  0
SEQEND
  5
159
330
156
100
AcDbEntity
  8
Ebene 1
370
     0
  0
POLYLINE
  5
15A
330
3C
100
AcDbEntity
  8
Ebene 1
370
     0
100
AcDb2dPolyline
 66
     1
 10
0.0
 20
0.0
 30
0.0
  0
VERTEX
  5
15B
330
15A
100
AcDbEntity
  8
Ebene 1
370
     0
100
AcDbVertex
100
AcDb2dVertex
 10
511.662109375
 20
357.146484375
 30
0.0
  0
VERTEX
  5
15C
330
15A
100
AcDbEntity
  8
Ebene 1
370
     0
100
AcDbVertex
100
AcDb2dVertex
 10
440.720703125
 20
357.146484375
 30
0.0
  0
SEQEND
  5
15D
330
15A
100
AcDbEntity
  8
Ebene 1
370
     0
  0
POLYLINE
  5
15E
330
3C
100
AcDbEntity
  8
Ebene 1
370
     0
100
AcDb2dPolyline
 66
     1
 10
0.0
 20
0.0
 30
0.0
  0
VERTEX
  5
15F
330
15E
100
AcDbEntity
  8
Ebene 1
370
     0
100
AcDbVertex
100
AcDb2dVertex
 10
659.015625
 20
264.986328125
 30
0.0
  0
VERTEX
  5
160
330
15E
100
AcDbEntity
  8
Ebene 1
370
     0
100
AcDbVertex
100
AcDb2dVertex
 10
450.337890625
 20
264.986328125
 30
0.0
  0
SEQEND
  5
161
330
15E
100
AcDbEntity
  8
Ebene 1
370
     0
  0
POLYLINE
  5
162
330
3C
100
AcDbEntity
  8
Ebene 1
370
     0
100
AcDb2dPolyline
 66
     1
 10
0.0
 20
0.0
 30
0.0
  0
VERTEX
  5
163
330
162
100
AcDbEntity
  8
Ebene 1
370
     0
100
AcDbVertex
100
AcDb2dVertex
 10
660.603515625
 20
357.146484375
 30
0.0
  0
VERTEX
  5
164
330
162
100
AcDbEntity
  8
Ebene 1
370
     0
100
AcDbVertex
100
AcDb2dVertex
 10
659.015625
 20
264.986328125
 30
0.0
  0
SEQEND
  5
165
330
162
100
AcDbEntity
  8
Ebene 1
370
     0
  0
POLYLINE
  5
166
330
3C
100
AcDbEntity
  8
Ebene 1
370
     0
100
AcDb2dPolyline
 66
     1
 10
0.0
 20
0.0
 30
0.0
  0
VERTEX
  5
167
330
166
100
AcDbEntity
  8
Ebene 1
370
     0
100
AcDbVertex
100
AcDb2dVertex
 10
658.970703125
 20
265.029296875
 30
0.0
  0
VERTEX
  5
168
330
166
100
AcDbEntity
  8
Ebene 1
370
     0
100
AcDbVertex
100
AcDb2dVertex
 10
662.984375
 20
264.94140625
 30
0.0
  0
VERTEX
  5
169
330
166
100
AcDbEntity
  8
Ebene 1
370
     0
100
AcDbVertex
100
AcDb2dVertex
 10
667.0
 20
265.029296875
 30
0.0
  0
SEQEND
  5
16A
330
166
100
AcDbEntity
  8
Ebene 1
370
     0
  0
POLYLINE
  5
16B
330
3C
100
AcDbEntity
  8
Ebene 1
370
     0
100
AcDb2dPolyline
 66
     1
 10
0.0
 20
0.0
 30
0.0
  0
VERTEX
  5
16C
330
16B
100
AcDbEntity
  8
Ebene 1
370
     0
100
AcDbVertex
100
AcDb2dVertex
 10
667.0
 20
264.986328125
 30
0.0
  0
VERTEX
  5
16D
330
16B
100
AcDbEntity
  8
Ebene 1
370
     0
100
AcDbVertex
100
AcDb2dVertex
 10
668.587890625
 20
357.146484375
 30
0.0
  0
VERTEX
  5
16E
330
16B
100
AcDbEntity
  8
Ebene 1
370
     0
100
AcDbVertex
100
AcDb2dVertex
 10
597.646484375
 20
357.146484375
 30
0.0
  0
SEQEND
  5
16F
330
16B
100
AcDbEntity
  8
Ebene 1
370
     0
  0
POLYLINE
  5
170
330
3C
100
AcDbEntity
  8
Ebene 1
370
     0
100
AcDb2dPolyline
 66
     1
 10
0.0
 20
0.0
 30
0.0
  0
VERTEX
  5
171
330
170
100
AcDbEntity
  8
Ebene 1
370
     0
100
AcDbVertex
100
AcDb2dVertex
 10
450.337890625
 20
257.1328125
 30
0.0
  0
VERTEX
  5
172
330
170
100
AcDbEntity
  8
Ebene 1
370
     0
100
AcDbVertex
100
AcDb2dVertex
 10
659.015625
 20
257.1328125
 30
0.0
  0
VERTEX
  5
173
330
170
100
AcDbEntity
  8
Ebene 1
370
     0
100
AcDbVertex
100
AcDb2dVertex
 10
659.015625
 20
264.986328125
 30
0.0
  0
SEQEND
  5
174
330
170
100
AcDbEntity
  8
Ebene 1
370
     0
  0
POLYLINE
  5
175
330
3C
100
AcDbEntity
  8
Ebene 1
370
     0
100
AcDb2dPolyline
 66
     1
 10
0.0
 20
0.0
 30
0.0
  0
VERTEX
  5
176
330
175
100
AcDbEntity
  8
Ebene 1
370
     0
100
AcDbVertex
100
AcDb2dVertex
 10
450.337890625
 20
257.1328125
 30
0.0
  0
VERTEX
  5
177
330
175
100
AcDbEntity
  8
Ebene 1
370
     0
100
AcDbVertex
100
AcDb2dVertex
 10
450.337890625
 20
264.986328125
 30
0.0
  0
SEQEND
  5
178
330
175
100
AcDbEntity
  8
Ebene 1
370
     0
  0
POLYLINE
  5
179
330
3C
100
AcDbEntity
  8
Ebene 1
370
     0
100
AcDb2dPolyline
 66
     1
 10
0.0
 20
0.0
 30
0.0
  0
VERTEX
  5
17A
330
179
100
AcDbEntity
  8
Ebene 1
370
     0
100
AcDbVertex
100
AcDb2dVertex
 10
442.353515625
 20
264.986328125
 30
0.0
  0
VERTEX
  5
17B
330
179
100
AcDbEntity
  8
Ebene 1
370
     0
100
AcDbVertex
100
AcDb2dVertex
 10
442.44140625
 20
264.015625
 30
0.0
  0
VERTEX
  5
17C
330
179
100
AcDbEntity
  8
Ebene 1
370
     0
100
AcDbVertex
100
AcDb2dVertex
 10
442.6171875
 20
263.087890625
 30
0.0
  0
VERTEX
  5
17D
330
179
100
AcDbEntity
  8
Ebene 1
370
     0
100
AcDbVertex
100
AcDb2dVertex
 10
442.92578125
 20
262.20703125
 30
0.0
  0
VERTEX
  5
17E
330
179
100
AcDbEntity
  8
Ebene 1
370
     0
100
AcDbVertex
100
AcDb2dVertex
 10
443.32421875
 20
261.32421875
 30
0.0
  0
VERTEX
  5
17F
330
179
100
AcDbEntity
  8
Ebene 1
370
     0
100
AcDbVertex
100
AcDb2dVertex
 10
443.80859375
 20
260.529296875
 30
0.0
  0
VERTEX
  5
180
330
179
100
AcDbEntity
  8
Ebene 1
370
     0
100
AcDbVertex
100
AcDb2dVertex
 10
444.42578125
 20
259.779296875
 30
0.0
  0
VERTEX
  5
181
330
179
100
AcDbEntity
  8
Ebene 1
370
     0
100
AcDbVertex
100
AcDb2dVertex
 10
445.087890625
 20
259.1171875
 30
0.0
  0
VERTEX
  5
182
330
179
100
AcDbEntity
  8
Ebene 1
370
     0
100
AcDbVertex
100
AcDb2dVertex
 10
445.837890625
 20
258.5
 30
0.0
  0
VERTEX
  5
183
330
179
100
AcDbEntity
  8
Ebene 1
370
     0
100
AcDbVertex
100
AcDb2dVertex
 10
446.67578125
 20
258.015625
 30
0.0
  0
VERTEX
  5
184
330
179
100
AcDbEntity
  8
Ebene 1
370
     0
100
AcDbVertex
100
AcDb2dVertex
 10
447.5146484375
 20
257.662109375
 30
0.0
  0
VERTEX
  5
185
330
179
100
AcDbEntity
  8
Ebene 1
370
     0
100
AcDbVertex
100
AcDb2dVertex
 10
448.44140625
 20
257.353515625
 30
0.0
  0
VERTEX
  5
186
330
179
100
AcDbEntity
  8
Ebene 1
370
     0
100
AcDbVertex
100
AcDb2dVertex
 10
449.3671875
 20
257.17578125
 30
0.0
  0
VERTEX
  5
187
330
179
100
AcDbEntity
  8
Ebene 1
370
     0
100
AcDbVertex
100
AcDb2dVertex
 10
450.337890625
 20
257.1328125
 30
0.0
  0
SEQEND
  5
188
330
179
100
AcDbEntity
  8
Ebene 1
370
     0
  0
POLYLINE
  5
189
330
3C
100
AcDbEntity
  8
Ebene 1
370
     0
100
AcDb2dPolyline
 66
     1
 10
0.0
 20
0.0
 30
0.0
  0
VERTEX
  5
18A
330
189
100
AcDbEntity
  8
Ebene 1
370
     0
100
AcDbVertex
100
AcDb2dVertex
 10
659.015625
 20
257.1328125
 30
0.0
  0
VERTEX
  5
18B
330
189
100
AcDbEntity
  8
Ebene 1
370
     0
100
AcDbVertex
100
AcDb2dVertex
 10
659.984375
 20
257.17578125
 30
0.0
  0
VERTEX
  5
18C
330
189
100
AcDbEntity
  8
Ebene 1
370
     0
100
AcDbVertex
100
AcDb2dVertex
 10
660.912109375
 20
257.353515625
 30
0.0
  0
VERTEX
  5
18D
330
189
100
AcDbEntity
  8
Ebene 1
370
     0
100
AcDbVertex
100
AcDb2dVertex
 10
661.837890625
 20
257.662109375
 30
0.0
  0
VERTEX
  5
18E
330
189
100
AcDbEntity
  8
Ebene 1
370
     0
100
AcDbVertex
100
AcDb2dVertex
 10
662.67578125
 20
258.015625
 30
0.0
  0
VERTEX
  5
18F
330
189
100
AcDbEntity
  8
Ebene 1
370
     0
100
AcDbVertex
100
AcDb2dVertex
 10
663.515625
 20
258.5
 30
0.0
  0
VERTEX
  5
190
330
189
100
AcDbEntity
  8
Ebene 1
370
     0
100
AcDbVertex
100
AcDb2dVertex
 10
664.265625
 20
259.1171875
 30
0.0
  0
VERTEX
  5
191
330
189
100
AcDbEntity
  8
Ebene 1
370
     0
100
AcDbVertex
100
AcDb2dVertex
 10
664.92578125
 20
259.779296875
 30
0.0
  0
VERTEX
  5
192
330
189
100
AcDbEntity
  8
Ebene 1
370
     0
100
AcDbVertex
100
AcDb2dVertex
 10
665.544921875
 20
260.529296875
 30
0.0
  0
VERTEX
  5
193
330
189
100
AcDbEntity
  8
Ebene 1
370
     0
100
AcDbVertex
100
AcDb2dVertex
 10
666.029296875
 20
261.32421875
 30
0.0
  0
VERTEX
  5
194
330
189
100
AcDbEntity
  8
Ebene 1
370
     0
100
AcDbVertex
100
AcDb2dVertex
 10
666.42578125
 20
262.20703125
 30
0.0
  0
VERTEX
  5
195
330
189
100
AcDbEntity
  8
Ebene 1
370
     0
100
AcDbVertex
100
AcDb2dVertex
 10
666.734375
 20
263.087890625
 30
0.0
  0
VERTEX
  5
196
330
189
100
AcDbEntity
  8
Ebene 1
370
     0
100
AcDbVertex
100
AcDb2dVertex
 10
666.912109375
 20
264.015625
 30
0.0
  0
VERTEX
  5
197
330
189
100
AcDbEntity
  8
Ebene 1
370
     0
100
AcDbVertex
100
AcDb2dVertex
 10
667.0
 20
264.986328125
 30
0.0
  0
SEQEND
  5
198
330
189
100
AcDbEntity
  8
Ebene 1
370
     0
  0
POLYLINE
  5
199
330
3C
100
AcDbEntity
  8
Ebene 1
370
     0
100
AcDb2dPolyline
 66
     1
 10
0.0
 20
0.0
 30
0.0
  0
VERTEX
  5
19A
330
199
100
AcDbEntity
  8
Ebene 1
370
     0
100
AcDbVertex
100
AcDb2dVertex
 10
511.970703125
 20
361.1171875
 30
0.0
  0
VERTEX
  5
19B
330
199
100
AcDbEntity
  8
Ebene 1
370
     0
100
AcDbVertex
100
AcDb2dVertex
 10
512.80859375
 20
410.35302734375
 30
0.0
  0
SEQEND
  5
19C
330
199
100
AcDbEntity
  8
Ebene 1
370
     0
  0
POLYLINE
  5
19D
330
3C
100
AcDbEntity
  8
Ebene 1
370
     0
100
AcDb2dPolyline
 66
     1
 10
0.0
 20
0.0
 30
0.0
  0
VERTEX
  5
19E
330
19D
100
AcDbEntity
  8
Ebene 1
370
     0
100
AcDbVertex
100
AcDb2dVertex
 10
514.7939453125
 20
410.30908203125
 30
0.0
  0
VERTEX
  5
19F
330
19D
100
AcDbEntity
  8
Ebene 1
370
     0
100
AcDbVertex
100
AcDb2dVertex
 10
514.7060546875
 20
410.30908203125
 30
0.0
  0
VERTEX
  5
1A0
330
19D
100
AcDbEntity
  8
Ebene 1
370
     0
100
AcDbVertex
100
AcDb2dVertex
 10
514.529296875
 20
410.30908203125
 30
0.0
  0
VERTEX
  5
1A1
330
19D
100
AcDbEntity
  8
Ebene 1
370
     0
100
AcDbVertex
100
AcDb2dVertex
 10
514.220703125
 20
410.30908203125
 30
0.0
  0
VERTEX
  5
1A2
330
19D
100
AcDbEntity
  8
Ebene 1
370
     0
100
AcDbVertex
100
AcDb2dVertex
 10
513.82421875
 20
410.30908203125
 30
0.0
  0
VERTEX
  5
1A3
330
19D
100
AcDbEntity
  8
Ebene 1
370
     0
100
AcDbVertex
100
AcDb2dVertex
 10
513.337890625
 20
410.30908203125
 30
0.0
  0
VERTEX
  5
1A4
330
19D
100
AcDbEntity
  8
Ebene 1
370
     0
100
AcDbVertex
100
AcDb2dVertex
 10
512.80859375
 20
410.30908203125
 30
0.0
  0
SEQEND
  5
1A5
330
19D
100
AcDbEntity
  8
Ebene 1
370
     0
  0
POLYLINE
  5
1A6
330
3C
100
AcDbEntity
  8
Ebene 1
370
     0
100
AcDb2dPolyline
 66
     1
 10
0.0
 20
0.0
 30
0.0
  0
VERTEX
  5
1A7
330
1A6
100
AcDbEntity
  8
Ebene 1
370
     0
100
AcDbVertex
100
AcDb2dVertex
 10
514.837890625
 20
410.30908203125
 30
0.0
  0
VERTEX
  5
1A8
330
1A6
100
AcDbEntity
  8
Ebene 1
370
     0
100
AcDbVertex
100
AcDb2dVertex
 10
513.9560546875
 20
361.07421875
 30
0.0
  0
SEQEND
  5
1A9
330
1A6
100
AcDbEntity
  8
Ebene 1
370
     0
  0
POLYLINE
  5
1AA
330
3C
100
AcDbEntity
  8
Ebene 1
370
     0
100
AcDb2dPolyline
 66
     1
 10
0.0
 20
0.0
 30
0.0
  0
VERTEX
  5
1AB
330
1AA
100
AcDbEntity
  8
Ebene 1
370
     0
100
AcDbVertex
100
AcDb2dVertex
 10
595.353515625
 20
361.07421875
 30
0.0
  0
VERTEX
  5
1AC
330
1AA
100
AcDbEntity
  8
Ebene 1
370
     0
100
AcDbVertex
100
AcDb2dVertex
 10
594.515625
 20
410.35302734375
 30
0.0
  0
SEQEND
  5
1AD
330
1AA
100
AcDbEntity
  8
Ebene 1
370
     0
  0
POLYLINE
  5
1AE
330
3C
100
AcDbEntity
  8
Ebene 1
370
     0
100
AcDb2dPolyline
 66
     1
 10
0.0
 20
0.0
 30
0.0
  0
VERTEX
  5
1AF
330
1AE
100
AcDbEntity
  8
Ebene 1
370
     0
100
AcDbVertex
100
AcDb2dVertex
 10
596.5
 20
410.35302734375
 30
0.0
  0
VERTEX
  5
1B0
330
1AE
100
AcDbEntity
  8
Ebene 1
370
     0
100
AcDbVertex
100
AcDb2dVertex
 10
595.970703125
 20
410.35302734375
 30
0.0
  0
VERTEX
  5
1B1
330
1AE
100
AcDbEntity
  8
Ebene 1
370
     0
100
AcDbVertex
100
AcDb2dVertex
 10
595.529296875
 20
410.35302734375
 30
0.0
  0
VERTEX
  5
1B2
330
1AE
100
AcDbEntity
  8
Ebene 1
370
     0
100
AcDbVertex
100
AcDb2dVertex
 10
595.087890625
 20
410.35302734375
 30
0.0
  0
VERTEX
  5
1B3
330
1AE
100
AcDbEntity
  8
Ebene 1
370
     0
100
AcDbVertex
100
AcDb2dVertex
 10
594.779296875
 20
410.35302734375
 30
0.0
  0
VERTEX
  5
1B4
330
1AE
100
AcDbEntity
  8
Ebene 1
370
     0
100
AcDbVertex
100
AcDb2dVertex
 10
594.603515625
 20
410.35302734375
 30
0.0
  0
VERTEX
  5
1B5
330
1AE
100
AcDbEntity
  8
Ebene 1
370
     0
100
AcDbVertex
100
AcDb2dVertex
 10
594.515625
 20
410.35302734375
 30
0.0
  0
SEQEND
  5
1B6
330
1AE
100
AcDbEntity
  8
Ebene 1
370
     0
  0
POLYLINE
  5
1B7
330
3C
100
AcDbEntity
  8
Ebene 1
370
     0
100
AcDb2dPolyline
 66
     1
 10
0.0
 20
0.0
 30
0.0
  0
VERTEX
  5
1B8
330
1B7
100
AcDbEntity
  8
Ebene 1
370
     0
100
AcDbVertex
100
AcDb2dVertex
 10
596.5
 20
410.35302734375
 30
0.0
  0
VERTEX
  5
1B9
330
1B7
100
AcDbEntity
  8
Ebene 1
370
     0
100
AcDbVertex
100
AcDb2dVertex
 10
597.337890625
 20
361.1171875
 30
0.0
  0
SEQEND
  5
1BA
330
1B7
100
AcDbEntity
  8
Ebene 1
370
     0
  0
POLYLINE
  5
1BB
330
3C
100
AcDbEntity
  8
Ebene 1
370
     0
100
AcDb2dPolyline
 66
     1
 10
0.0
 20
0.0
 30
0.0
  0
VERTEX
  5
1BC
330
1BB
100
AcDbEntity
  8
Ebene 1
370
     0
100
AcDbVertex
100
AcDb2dVertex
 10
596.6328125
 20
417.27978515625
 30
0.0
  0
VERTEX
  5
1BD
330
1BB
100
AcDbEntity
  8
Ebene 1
370
     0
100
AcDbVertex
100
AcDb2dVertex
 10
596.5
 20
410.35302734375
 30
0.0
  0
SEQEND
  5
1BE
330
1BB
100
AcDbEntity
  8
Ebene 1
370
     0
  0
POLYLINE
  5
1BF
330
3C
100
AcDbEntity
  8
Ebene 1
370
     0
100
AcDb2dPolyline
 66
     1
 10
0.0
 20
0.0
 30
0.0
  0
VERTEX
  5
1C0
330
1BF
100
AcDbEntity
  8
Ebene 1
370
     0
100
AcDbVertex
100
AcDb2dVertex
 10
512.80859375
 20
410.35302734375
 30
0.0
  0
VERTEX
  5
1C1
330
1BF
100
AcDbEntity
  8
Ebene 1
370
     0
100
AcDbVertex
100
AcDb2dVertex
 10
512.67578125
 20
417.27978515625
 30
0.0
  0
SEQEND
  5
1C2
330
1BF
100
AcDbEntity
  8
Ebene 1
370
     0
  0
POLYLINE
  5
1C3
330
3C
100
AcDbEntity
  8
Ebene 1
370
     0
100
AcDb2dPolyline
 66
     1
 10
0.0
 20
0.0
 30
0.0
  0
VERTEX
  5
1C4
330
1C3
100
AcDbEntity
  8
Ebene 1
370
     0
100
AcDbVertex
100
AcDb2dVertex
 10
514.7060546875
 20
417.27978515625
 30
0.0
  0
VERTEX
  5
1C5
330
1C3
100
AcDbEntity
  8
Ebene 1
370
     0
100
AcDbVertex
100
AcDb2dVertex
 10
514.837890625
 20
410.30908203125
 30
0.0
  0
SEQEND
  5
1C6
330
1C3
100
AcDbEntity
  8
Ebene 1
370
     0
  0
POLYLINE
  5
1C7
330
3C
100
AcDbEntity
  8
Ebene 1
370
     0
100
AcDb2dPolyline
 66
     1
 10
0.0
 20
0.0
 30
0.0
  0
VERTEX
  5
1C8
330
1C7
100
AcDbEntity
  8
Ebene 1
370
     0
100
AcDbVertex
100
AcDb2dVertex
 10
594.515625
 20
410.35302734375
 30
0.0
  0
VERTEX
  5
1C9
330
1C7
100
AcDbEntity
  8
Ebene 1
370
     0
100
AcDbVertex
100
AcDb2dVertex
 10
594.603515625
 20
417.27978515625
 30
0.0
  0
SEQEND
  5
1CA
330
1C7
100
AcDbEntity
  8
Ebene 1
370
     0
  0
POLYLINE
  5
1CB
330
3C
100
AcDbEntity
  8
Ebene 1
370
     0
100
AcDb2dPolyline
 66
     1
 10
0.0
 20
0.0
 30
0.0
  0
VERTEX
  5
1CC
330
1CB
100
AcDbEntity
  8
Ebene 1
370
     0
100
AcDbVertex
100
AcDb2dVertex
 10
596.6328125
 20
417.2353515625
 30
0.0
  0
VERTEX
  5
1CD
330
1CB
100
AcDbEntity
  8
Ebene 1
370
     0
100
AcDbVertex
100
AcDb2dVertex
 10
594.603515625
 20
417.2353515625
 30
0.0
  0
SEQEND
  5
1CE
330
1CB
100
AcDbEntity
  8
Ebene 1
370
     0
  0
POLYLINE
  5
1CF
330
3C
100
AcDbEntity
  8
Ebene 1
370
     0
100
AcDb2dPolyline
 66
     1
 10
0.0
 20
0.0
 30
0.0
  0
VERTEX
  5
1D0
330
1CF
100
AcDbEntity
  8
Ebene 1
370
     0
100
AcDbVertex
100
AcDb2dVertex
 10
596.720703125
 20
425.13232421875
 30
0.0
  0
VERTEX
  5
1D1
330
1CF
100
AcDbEntity
  8
Ebene 1
370
     0
100
AcDbVertex
100
AcDb2dVertex
 10
596.720703125
 20
425.0
 30
0.0
  0
VERTEX
  5
1D2
330
1CF
100
AcDbEntity
  8
Ebene 1
370
     0
100
AcDbVertex
100
AcDb2dVertex
 10
596.720703125
 20
424.55908203125
 30
0.0
  0
VERTEX
  5
1D3
330
1CF
100
AcDbEntity
  8
Ebene 1
370
     0
100
AcDbVertex
100
AcDb2dVertex
 10
596.720703125
 20
423.80908203125
 30
0.0
  0
VERTEX
  5
1D4
330
1CF
100
AcDbEntity
  8
Ebene 1
370
     0
100
AcDbVertex
100
AcDb2dVertex
 10
596.67578125
 20
422.83837890625
 30
0.0
  0
VERTEX
  5
1D5
330
1CF
100
AcDbEntity
  8
Ebene 1
370
     0
100
AcDbVertex
100
AcDb2dVertex
 10
596.67578125
 20
421.6474609375
 30
0.0
  0
VERTEX
  5
1D6
330
1CF
100
AcDbEntity
  8
Ebene 1
370
     0
100
AcDbVertex
100
AcDb2dVertex
 10
596.67578125
 20
420.27978515625
 30
0.0
  0
VERTEX
  5
1D7
330
1CF
100
AcDbEntity
  8
Ebene 1
370
     0
100
AcDbVertex
100
AcDb2dVertex
 10
596.6328125
 20
418.82373046875
 30
0.0
  0
VERTEX
  5
1D8
330
1CF
100
AcDbEntity
  8
Ebene 1
370
     0
100
AcDbVertex
100
AcDb2dVertex
 10
596.6328125
 20
417.27978515625
 30
0.0
  0
SEQEND
  5
1D9
330
1CF
100
AcDbEntity
  8
Ebene 1
370
     0
  0
POLYLINE
  5
1DA
330
3C
100
AcDbEntity
  8
Ebene 1
370
     0
100
AcDb2dPolyline
 66
     1
 10
0.0
 20
0.0
 30
0.0
  0
VERTEX
  5
1DB
330
1DA
100
AcDbEntity
  8
Ebene 1
370
     0
100
AcDbVertex
100
AcDb2dVertex
 10
512.67578125
 20
417.27978515625
 30
0.0
  0
VERTEX
  5
1DC
330
1DA
100
AcDbEntity
  8
Ebene 1
370
     0
100
AcDbVertex
100
AcDb2dVertex
 10
512.67578125
 20
418.82373046875
 30
0.0
  0
VERTEX
  5
1DD
330
1DA
100
AcDbEntity
  8
Ebene 1
370
     0
100
AcDbVertex
100
AcDb2dVertex
 10
512.67578125
 20
420.27978515625
 30
0.0
  0
VERTEX
  5
1DE
330
1DA
100
AcDbEntity
  8
Ebene 1
370
     0
100
AcDbVertex
100
AcDb2dVertex
 10
512.6328125
 20
421.6474609375
 30
0.0
  0
VERTEX
  5
1DF
330
1DA
100
AcDbEntity
  8
Ebene 1
370
     0
100
AcDbVertex
100
AcDb2dVertex
 10
512.6328125
 20
422.83837890625
 30
0.0
  0
VERTEX
  5
1E0
330
1DA
100
AcDbEntity
  8
Ebene 1
370
     0
100
AcDbVertex
100
AcDb2dVertex
 10
512.6328125
 20
423.80908203125
 30
0.0
  0
VERTEX
  5
1E1
330
1DA
100
AcDbEntity
  8
Ebene 1
370
     0
100
AcDbVertex
100
AcDb2dVertex
 10
512.587890625
 20
424.55908203125
 30
0.0
  0
VERTEX
  5
1E2
330
1DA
100
AcDbEntity
  8
Ebene 1
370
     0
100
AcDbVertex
100
AcDb2dVertex
 10
512.587890625
 20
425.0
 30
0.0
  0
VERTEX
  5
1E3
330
1DA
100
AcDbEntity
  8
Ebene 1
370
     0
100
AcDbVertex
100
AcDb2dVertex
 10
512.587890625
 20
425.13232421875
 30
0.0
  0
SEQEND
  5
1E4
330
1DA
100
AcDbEntity
  8
Ebene 1
370
     0
  0
POLYLINE
  5
1E5
330
3C
100
AcDbEntity
  8
Ebene 1
370
     0
100
AcDb2dPolyline
 66
     1
 10
0.0
 20
0.0
 30
0.0
  0
VERTEX
  5
1E6
330
1E5
100
AcDbEntity
  8
Ebene 1
370
     0
100
AcDbVertex
100
AcDb2dVertex
 10
514.57421875
 20
423.19140625
 30
0.0
  0
VERTEX
  5
1E7
330
1E5
100
AcDbEntity
  8
Ebene 1
370
     0
100
AcDbVertex
100
AcDb2dVertex
 10
514.4853515625
 20
423.6767578125
 30
0.0
  0
VERTEX
  5
1E8
330
1E5
100
AcDbEntity
  8
Ebene 1
370
     0
100
AcDbVertex
100
AcDb2dVertex
 10
514.30859375
 20
424.162109375
 30
0.0
  0
VERTEX
  5
1E9
330
1E5
100
AcDbEntity
  8
Ebene 1
370
     0
100
AcDbVertex
100
AcDb2dVertex
 10
514.0
 20
424.55908203125
 30
0.0
  0
VERTEX
  5
1EA
330
1E5
100
AcDbEntity
  8
Ebene 1
370
     0
100
AcDbVertex
100
AcDb2dVertex
 10
513.55859375
 20
424.86767578125
 30
0.0
  0
VERTEX
  5
1EB
330
1E5
100
AcDbEntity
  8
Ebene 1
370
     0
100
AcDbVertex
100
AcDb2dVertex
 10
513.1171875
 20
425.08837890625
 30
0.0
  0
VERTEX
  5
1EC
330
1E5
100
AcDbEntity
  8
Ebene 1
370
     0
100
AcDbVertex
100
AcDb2dVertex
 10
512.587890625
 20
425.13232421875
 30
0.0
  0
SEQEND
  5
1ED
330
1E5
100
AcDbEntity
  8
Ebene 1
370
     0
  0
POLYLINE
  5
1EE
330
3C
100
AcDbEntity
  8
Ebene 1
370
     0
100
AcDb2dPolyline
 66
     1
 10
0.0
 20
0.0
 30
0.0
  0
VERTEX
  5
1EF
330
1EE
100
AcDbEntity
  8
Ebene 1
370
     0
100
AcDbVertex
100
AcDb2dVertex
 10
514.57421875
 20
423.19140625
 30
0.0
  0
VERTEX
  5
1F0
330
1EE
100
AcDbEntity
  8
Ebene 1
370
     0
100
AcDbVertex
100
AcDb2dVertex
 10
514.57421875
 20
423.05908203125
 30
0.0
  0
VERTEX
  5
1F1
330
1EE
100
AcDbEntity
  8
Ebene 1
370
     0
100
AcDbVertex
100
AcDb2dVertex
 10
514.6171875
 20
422.75
 30
0.0
  0
VERTEX
  5
1F2
330
1EE
100
AcDbEntity
  8
Ebene 1
370
     0
100
AcDbVertex
100
AcDb2dVertex
 10
514.6171875
 20
422.1767578125
 30
0.0
  0
VERTEX
  5
1F3
330
1EE
100
AcDbEntity
  8
Ebene 1
370
     0
100
AcDbVertex
100
AcDb2dVertex
 10
514.6171875
 20
421.470703125
 30
0.0
  0
VERTEX
  5
1F4
330
1EE
100
AcDbEntity
  8
Ebene 1
370
     0
100
AcDbVertex
100
AcDb2dVertex
 10
514.6171875
 20
420.54443359375
 30
0.0
  0
VERTEX
  5
1F5
330
1EE
100
AcDbEntity
  8
Ebene 1
370
     0
100
AcDbVertex
100
AcDb2dVertex
 10
514.662109375
 20
419.52978515625
 30
0.0
  0
VERTEX
  5
1F6
330
1EE
100
AcDbEntity
  8
Ebene 1
370
     0
100
AcDbVertex
100
AcDb2dVertex
 10
514.662109375
 20
418.4267578125
 30
0.0
  0
VERTEX
  5
1F7
330
1EE
100
AcDbEntity
  8
Ebene 1
370
     0
100
AcDbVertex
100
AcDb2dVertex
 10
514.7060546875
 20
417.27978515625
 30
0.0
  0
SEQEND
  5
1F8
330
1EE
100
AcDbEntity
  8
Ebene 1
370
     0
  0
POLYLINE
  5
1F9
330
3C
100
AcDbEntity
  8
Ebene 1
370
     0
100
AcDb2dPolyline
 66
     1
 10
0.0
 20
0.0
 30
0.0
  0
VERTEX
  5
1FA
330
1F9
100
AcDbEntity
  8
Ebene 1
370
     0
100
AcDbVertex
100
AcDb2dVertex
 10
594.603515625
 20
417.27978515625
 30
0.0
  0
VERTEX
  5
1FB
330
1F9
100
AcDbEntity
  8
Ebene 1
370
     0
100
AcDbVertex
100
AcDb2dVertex
 10
594.646484375
 20
418.4267578125
 30
0.0
  0
VERTEX
  5
1FC
330
1F9
100
AcDbEntity
  8
Ebene 1
370
     0
100
AcDbVertex
100
AcDb2dVertex
 10
594.646484375
 20
419.52978515625
 30
0.0
  0
VERTEX
  5
1FD
330
1F9
100
AcDbEntity
  8
Ebene 1
370
     0
100
AcDbVertex
100
AcDb2dVertex
 10
594.69140625
 20
420.54443359375
 30
0.0
  0
VERTEX
  5
1FE
330
1F9
100
AcDbEntity
  8
Ebene 1
370
     0
100
AcDbVertex
100
AcDb2dVertex
 10
594.69140625
 20
421.470703125
 30
0.0
  0
VERTEX
  5
1FF
330
1F9
100
AcDbEntity
  8
Ebene 1
370
     0
100
AcDbVertex
100
AcDb2dVertex
 10
594.69140625
 20
422.1767578125
 30
0.0
  0
VERTEX
  5
200
330
1F9
100
AcDbEntity
  8
Ebene 1
370
     0
100
AcDbVertex
100
AcDb2dVertex
 10
594.69140625
 20
422.75
 30
0.0
  0
VERTEX
  5
201
330
1F9
100
AcDbEntity
  8
Ebene 1
370
     0
100
AcDbVertex
100
AcDb2dVertex
 10
594.734375
 20
423.05908203125
 30
0.0
  0
VERTEX
  5
202
330
1F9
100
AcDbEntity
  8
Ebene 1
370
     0
100
AcDbVertex
100
AcDb2dVertex
 10
594.734375
 20
423.19140625
 30
0.0
  0
SEQEND
  5
203
330
1F9
100
AcDbEntity
  8
Ebene 1
370
     0
  0
POLYLINE
  5
204
330
3C
100
AcDbEntity
  8
Ebene 1
370
     0
100
AcDb2dPolyline
 66
     1
 10
0.0
 20
0.0
 30
0.0
  0
VERTEX
  5
205
330
204
100
AcDbEntity
  8
Ebene 1
370
     0
100
AcDbVertex
100
AcDb2dVertex
 10
596.720703125
 20
425.13232421875
 30
0.0
  0
VERTEX
  5
206
330
204
100
AcDbEntity
  8
Ebene 1
370
     0
100
AcDbVertex
100
AcDb2dVertex
 10
596.19140625
 20
425.08837890625
 30
0.0
  0
VERTEX
  5
207
330
204
100
AcDbEntity
  8
Ebene 1
370
     0
100
AcDbVertex
100
AcDb2dVertex
 10
595.75
 20
424.86767578125
 30
0.0
  0
VERTEX
  5
208
330
204
100
AcDbEntity
  8
Ebene 1
370
     0
100
AcDbVertex
100
AcDb2dVertex
 10
595.30859375
 20
424.55908203125
 30
0.0
  0
VERTEX
  5
209
330
204
100
AcDbEntity
  8
Ebene 1
370
     0
100
AcDbVertex
100
AcDb2dVertex
 10
595.0
 20
424.162109375
 30
0.0
  0
VERTEX
  5
20A
330
204
100
AcDbEntity
  8
Ebene 1
370
     0
100
AcDbVertex
100
AcDb2dVertex
 10
594.82421875
 20
423.6767578125
 30
0.0
  0
VERTEX
  5
20B
330
204
100
AcDbEntity
  8
Ebene 1
370
     0
100
AcDbVertex
100
AcDb2dVertex
 10
594.734375
 20
423.19140625
 30
0.0
  0
SEQEND
  5
20C
330
204
100
AcDbEntity
  8
Ebene 1
370
     0
  0
POLYLINE
  5
20D
330
3C
100
AcDbEntity
  8
Ebene 1
370
     0
100
AcDb2dPolyline
 66
     1
 10
0.0
 20
0.0
 30
0.0
  0
VERTEX
  5
20E
330
20D
100
AcDbEntity
  8
Ebene 1
370
     0
100
AcDbVertex
100
AcDb2dVertex
 10
542.67578125
 20
389.1328125
 30
0.0
  0
VERTEX
  5
20F
330
20D
100
AcDbEntity
  8
Ebene 1
370
     0
100
AcDbVertex
100
AcDb2dVertex
 10
554.67578125
 20
389.1328125
 30
0.0
  0
VERTEX
  5
210
330
20D
100
AcDbEntity
  8
Ebene 1
370
     0
100
AcDbVertex
100
AcDb2dVertex
 10
566.6328125
 20
389.1328125
 30
0.0
  0
SEQEND
  5
211
330
20D
100
AcDbEntity
  8
Ebene 1
370
     0
  0
POLYLINE
  5
212
330
3C
100
AcDbEntity
  8
Ebene 1
370
     0
100
AcDb2dPolyline
 66
     1
 10
0.0
 20
0.0
 30
0.0
  0
VERTEX
  5
213
330
212
100
AcDbEntity
  8
Ebene 1
370
     0
100
AcDbVertex
100
AcDb2dVertex
 10
540.646484375
 20
389.1328125
 30
0.0
  0
VERTEX
  5
214
330
212
100
AcDbEntity
  8
Ebene 1
370
     0
100
AcDbVertex
100
AcDb2dVertex
 10
542.67578125
 20
389.1328125
 30
0.0
  0
SEQEND
  5
215
330
212
100
AcDbEntity
  8
Ebene 1
370
     0
  0
POLYLINE
  5
216
330
3C
100
AcDbEntity
  8
Ebene 1
370
     0
100
AcDb2dPolyline
 66
     1
 10
0.0
 20
0.0
 30
0.0
  0
VERTEX
  5
217
330
216
100
AcDbEntity
  8
Ebene 1
370
     0
100
AcDbVertex
100
AcDb2dVertex
 10
566.6328125
 20
389.1328125
 30
0.0
  0
VERTEX
  5
218
330
216
100
AcDbEntity
  8
Ebene 1
370
     0
100
AcDbVertex
100
AcDb2dVertex
 10
568.662109375
 20
389.1328125
 30
0.0
  0
SEQEND
  5
219
330
216
100
AcDbEntity
  8
Ebene 1
370
     0
  0
POLYLINE
  5
21A
330
3C
100
AcDbEntity
  8
Ebene 1
370
     0
100
AcDb2dPolyline
 66
     1
 10
0.0
 20
0.0
 30
0.0
  0
VERTEX
  5
21B
330
21A
100
AcDbEntity
  8
Ebene 1
370
     0
100
AcDbVertex
100
AcDb2dVertex
 10
511.662109375
 20
357.146484375
 30
0.0
  0
VERTEX
  5
21C
330
21A
100
AcDbEntity
  8
Ebene 1
370
     0
100
AcDbVertex
100
AcDb2dVertex
 10
512.3671875
 20
357.19140625
 30
0.0
  0
VERTEX
  5
21D
330
21A
100
AcDbEntity
  8
Ebene 1
370
     0
100
AcDbVertex
100
AcDb2dVertex
 10
513.029296875
 20
357.3671875
 30
0.0
  0
VERTEX
  5
21E
330
21A
100
AcDbEntity
  8
Ebene 1
370
     0
100
AcDbVertex
100
AcDb2dVertex
 10
513.646484375
 20
357.67578125
 30
0.0
  0
VERTEX
  5
21F
330
21A
100
AcDbEntity
  8
Ebene 1
370
     0
100
AcDbVertex
100
AcDb2dVertex
 10
514.220703125
 20
358.07421875
 30
0.0
  0
VERTEX
  5
220
330
21A
100
AcDbEntity
  8
Ebene 1
370
     0
100
AcDbVertex
100
AcDb2dVertex
 10
514.7060546875
 20
358.55859375
 30
0.0
  0
VERTEX
  5
221
330
21A
100
AcDbEntity
  8
Ebene 1
370
     0
100
AcDbVertex
100
AcDb2dVertex
 10
515.103515625
 20
359.1328125
 30
0.0
  0
VERTEX
  5
222
330
21A
100
AcDbEntity
  8
Ebene 1
370
     0
100
AcDbVertex
100
AcDb2dVertex
 10
515.412109375
 20
359.75
 30
0.0
  0
VERTEX
  5
223
330
21A
100
AcDbEntity
  8
Ebene 1
370
     0
100
AcDbVertex
100
AcDb2dVertex
 10
515.587890625
 20
360.412109375
 30
0.0
  0
VERTEX
  5
224
330
21A
100
AcDbEntity
  8
Ebene 1
370
     0
100
AcDbVertex
100
AcDb2dVertex
 10
515.6328125
 20
361.1171875
 30
0.0
  0
SEQEND
  5
225
330
21A
100
AcDbEntity
  8
Ebene 1
370
     0
  0
POLYLINE
  5
226
330
3C
100
AcDbEntity
  8
Ebene 1
370
     0
100
AcDb2dPolyline
 66
     1
 10
0.0
 20
0.0
 30
0.0
  0
VERTEX
  5
227
330
226
100
AcDbEntity
  8
Ebene 1
370
     0
100
AcDbVertex
100
AcDb2dVertex
 10
515.67578125
 20
389.1328125
 30
0.0
  0
VERTEX
  5
228
330
226
100
AcDbEntity
  8
Ebene 1
370
     0
100
AcDbVertex
100
AcDb2dVertex
 10
515.67578125
 20
361.1171875
 30
0.0
  0
SEQEND
  5
229
330
226
100
AcDbEntity
  8
Ebene 1
370
     0
  0
POLYLINE
  5
22A
330
3C
100
AcDbEntity
  8
Ebene 1
370
     0
100
AcDb2dPolyline
 66
     1
 10
0.0
 20
0.0
 30
0.0
  0
VERTEX
  5
22B
330
22A
100
AcDbEntity
  8
Ebene 1
370
     0
100
AcDbVertex
100
AcDb2dVertex
 10
515.67578125
 20
389.1328125
 30
0.0
  0
VERTEX
  5
22C
330
22A
100
AcDbEntity
  8
Ebene 1
370
     0
100
AcDbVertex
100
AcDb2dVertex
 10
540.646484375
 20
389.1328125
 30
0.0
  0
SEQEND
  5
22D
330
22A
100
AcDbEntity
  8
Ebene 1
370
     0
  0
POLYLINE
  5
22E
330
3C
100
AcDbEntity
  8
Ebene 1
370
     0
100
AcDb2dPolyline
 66
     1
 10
0.0
 20
0.0
 30
0.0
  0
VERTEX
  5
22F
330
22E
100
AcDbEntity
  8
Ebene 1
370
     0
100
AcDbVertex
100
AcDb2dVertex
 10
593.6328125
 20
389.1328125
 30
0.0
  0
VERTEX
  5
230
330
22E
100
AcDbEntity
  8
Ebene 1
370
     0
100
AcDbVertex
100
AcDb2dVertex
 10
593.6328125
 20
361.1171875
 30
0.0
  0
SEQEND
  5
231
330
22E
100
AcDbEntity
  8
Ebene 1
370
     0
  0
POLYLINE
  5
232
330
3C
100
AcDbEntity
  8
Ebene 1
370
     0
100
AcDb2dPolyline
 66
     1
 10
0.0
 20
0.0
 30
0.0
  0
VERTEX
  5
233
330
232
100
AcDbEntity
  8
Ebene 1
370
     0
100
AcDbVertex
100
AcDb2dVertex
 10
593.67578125
 20
361.1171875
 30
0.0
  0
VERTEX
  5
234
330
232
100
AcDbEntity
  8
Ebene 1
370
     0
100
AcDbVertex
100
AcDb2dVertex
 10
593.720703125
 20
360.412109375
 30
0.0
  0
VERTEX
  5
235
330
232
100
AcDbEntity
  8
Ebene 1
370
     0
100
AcDbVertex
100
AcDb2dVertex
 10
593.896484375
 20
359.75
 30
0.0
  0
VERTEX
  5
236
330
232
100
AcDbEntity
  8
Ebene 1
370
     0
100
AcDbVertex
100
AcDb2dVertex
 10
594.205078125
 20
359.1328125
 30
0.0
  0
VERTEX
  5
237
330
232
100
AcDbEntity
  8
Ebene 1
370
     0
100
AcDbVertex
100
AcDb2dVertex
 10
594.603515625
 20
358.55859375
 30
0.0
  0
VERTEX
  5
238
330
232
100
AcDbEntity
  8
Ebene 1
370
     0
100
AcDbVertex
100
AcDb2dVertex
 10
595.087890625
 20
358.07421875
 30
0.0
  0
VERTEX
  5
239
330
232
100
AcDbEntity
  8
Ebene 1
370
     0
100
AcDbVertex
100
AcDb2dVertex
 10
595.662109375
 20
357.67578125
 30
0.0
  0
VERTEX
  5
23A
330
232
100
AcDbEntity
  8
Ebene 1
370
     0
100
AcDbVertex
100
AcDb2dVertex
 10
596.279296875
 20
357.3671875
 30
0.0
  0
VERTEX
  5
23B
330
232
100
AcDbEntity
  8
Ebene 1
370
     0
100
AcDbVertex
100
AcDb2dVertex
 10
596.94140625
 20
357.19140625
 30
0.0
  0
VERTEX
  5
23C
330
232
100
AcDbEntity
  8
Ebene 1
370
     0
100
AcDbVertex
100
AcDb2dVertex
 10
597.646484375
 20
357.146484375
 30
0.0
  0
SEQEND
  5
23D
330
232
100
AcDbEntity
  8
Ebene 1
370
     0
  0
POLYLINE
  5
23E
330
3C
100
AcDbEntity
  8
Ebene 1
370
     0
100
AcDb2dPolyline
 66
     1
 10
0.0
 20
0.0
 30
0.0
  0
VERTEX
  5
23F
330
23E
100
AcDbEntity
  8
Ebene 1
370
     0
100
AcDbVertex
100
AcDb2dVertex
 10
568.662109375
 20
389.1328125
 30
0.0
  0
VERTEX
  5
240
330
23E
100
AcDbEntity
  8
Ebene 1
370
     0
100
AcDbVertex
100
AcDb2dVertex
 10
593.6328125
 20
389.1328125
 30
0.0
  0
SEQEND
  5
241
330
23E
100
AcDbEntity
  8
Ebene 1
370
     0
  0
POLYLINE
  5
242
330
3C
100
AcDbEntity
  8
Ebene 1
370
     0
100
AcDb2dPolyline
 66
     1
 10
0.0
 20
0.0
 30
0.0
  0
VERTEX
  5
243
330
242
100
AcDbEntity
  8
Ebene 1
370
     0
100
AcDbVertex
100
AcDb2dVertex
 10
543.7353515625
 20
402.19140625
 30
0.0
  0
VERTEX
  5
244
330
242
100
AcDbEntity
  8
Ebene 1
370
     0
100
AcDbVertex
100
AcDb2dVertex
 10
543.912109375
 20
390.103515625
 30
0.0
  0
SEQEND
  5
245
330
242
100
AcDbEntity
  8
Ebene 1
370
     0
  0
POLYLINE
  5
246
330
3C
100
AcDbEntity
  8
Ebene 1
370
     0
100
AcDb2dPolyline
 66
     1
 10
0.0
 20
0.0
 30
0.0
  0
VERTEX
  5
247
330
246
100
AcDbEntity
  8
Ebene 1
370
     0
100
AcDbVertex
100
AcDb2dVertex
 10
565.396484375
 20
390.103515625
 30
0.0
  0
VERTEX
  5
248
330
246
100
AcDbEntity
  8
Ebene 1
370
     0
100
AcDbVertex
100
AcDb2dVertex
 10
565.6171875
 20
402.19140625
 30
0.0
  0
SEQEND
  5
249
330
246
100
AcDbEntity
  8
Ebene 1
370
     0
  0
POLYLINE
  5
24A
330
3C
100
AcDbEntity
  8
Ebene 1
370
     0
100
AcDb2dPolyline
 66
     1
 10
0.0
 20
0.0
 30
0.0
  0
VERTEX
  5
24B
330
24A
100
AcDbEntity
  8
Ebene 1
370
     0
100
AcDbVertex
100
AcDb2dVertex
 10
543.9560546875
 20
390.1474609375
 30
0.0
  0
VERTEX
  5
24C
330
24A
100
AcDbEntity
  8
Ebene 1
370
     0
100
AcDbVertex
100
AcDb2dVertex
 10
544.0439453125
 20
389.75
 30
0.0
  0
VERTEX
  5
24D
330
24A
100
AcDbEntity
  8
Ebene 1
370
     0
100
AcDbVertex
100
AcDb2dVertex
 10
544.2646484375
 20
389.44140625
 30
0.0
  0
VERTEX
  5
24E
330
24A
100
AcDbEntity
  8
Ebene 1
370
     0
100
AcDbVertex
100
AcDb2dVertex
 10
544.57421875
 20
389.265625
 30
0.0
  0
VERTEX
  5
24F
330
24A
100
AcDbEntity
  8
Ebene 1
370
     0
100
AcDbVertex
100
AcDb2dVertex
 10
544.92578125
 20
389.1767578125
 30
0.0
  0
SEQEND
  5
250
330
24A
100
AcDbEntity
  8
Ebene 1
370
     0
  0
POLYLINE
  5
251
330
3C
100
AcDbEntity
  8
Ebene 1
370
     0
100
AcDb2dPolyline
 66
     1
 10
0.0
 20
0.0
 30
0.0
  0
VERTEX
  5
252
330
251
100
AcDbEntity
  8
Ebene 1
370
     0
100
AcDbVertex
100
AcDb2dVertex
 10
564.3828125
 20
389.1767578125
 30
0.0
  0
VERTEX
  5
253
330
251
100
AcDbEntity
  8
Ebene 1
370
     0
100
AcDbVertex
100
AcDb2dVertex
 10
564.7353515625
 20
389.265625
 30
0.0
  0
VERTEX
  5
254
330
251
100
AcDbEntity
  8
Ebene 1
370
     0
100
AcDbVertex
100
AcDb2dVertex
 10
565.0439453125
 20
389.44140625
 30
0.0
  0
VERTEX
  5
255
330
251
100
AcDbEntity
  8
Ebene 1
370
     0
100
AcDbVertex
100
AcDb2dVertex
 10
565.2646484375
 20
389.75
 30
0.0
  0
VERTEX
  5
256
330
251
100
AcDbEntity
  8
Ebene 1
370
     0
100
AcDbVertex
100
AcDb2dVertex
 10
565.353515625
 20
390.1474609375
 30
0.0
  0
SEQEND
  5
257
330
251
100
AcDbEntity
  8
Ebene 1
370
     0
  0
POLYLINE
  5
258
330
3C
100
AcDbEntity
  8
Ebene 1
370
     0
100
AcDb2dPolyline
 66
     1
 10
0.0
 20
0.0
 30
0.0
  0
VERTEX
  5
259
330
258
100
AcDbEntity
  8
Ebene 1
370
     0
100
AcDbVertex
100
AcDb2dVertex
 10
546.3828125
 20
425.13232421875
 30
0.0
  0
VERTEX
  5
25A
330
258
100
AcDbEntity
  8
Ebene 1
370
     0
100
AcDbVertex
100
AcDb2dVertex
 10
546.162109375
 20
425.13232421875
 30
0.0
  0
SEQEND
  5
25B
330
258
100
AcDbEntity
  8
Ebene 1
370
     0
  0
POLYLINE
  5
25C
330
3C
100
AcDbEntity
  8
Ebene 1
370
     0
100
AcDb2dPolyline
 66
     1
 10
0.0
 20
0.0
 30
0.0
  0
VERTEX
  5
25D
330
25C
100
AcDbEntity
  8
Ebene 1
370
     0
100
AcDbVertex
100
AcDb2dVertex
 10
517.17578125
 20
418.4267578125
 30
0.0
  0
VERTEX
  5
25E
330
25C
100
AcDbEntity
  8
Ebene 1
370
     0
100
AcDbVertex
100
AcDb2dVertex
 10
514.662109375
 20
418.4267578125
 30
0.0
  0
SEQEND
  5
25F
330
25C
100
AcDbEntity
  8
Ebene 1
370
     0
  0
POLYLINE
  5
260
330
3C
100
AcDbEntity
  8
Ebene 1
370
     0
100
AcDb2dPolyline
 66
     1
 10
0.0
 20
0.0
 30
0.0
  0
VERTEX
  5
261
330
260
100
AcDbEntity
  8
Ebene 1
370
     0
100
AcDbVertex
100
AcDb2dVertex
 10
592.1328125
 20
423.19140625
 30
0.0
  0
VERTEX
  5
262
330
260
100
AcDbEntity
  8
Ebene 1
370
     0
100
AcDbVertex
100
AcDb2dVertex
 10
517.17578125
 20
423.19140625
 30
0.0
  0
SEQEND
  5
263
330
260
100
AcDbEntity
  8
Ebene 1
370
     0
  0
POLYLINE
  5
264
330
3C
100
AcDbEntity
  8
Ebene 1
370
     0
100
AcDb2dPolyline
 66
     1
 10
0.0
 20
0.0
 30
0.0
  0
VERTEX
  5
265
330
264
100
AcDbEntity
  8
Ebene 1
370
     0
100
AcDbVertex
100
AcDb2dVertex
 10
495.2939453125
 20
425.13232421875
 30
0.0
  0
VERTEX
  5
266
330
264
100
AcDbEntity
  8
Ebene 1
370
     0
100
AcDbVertex
100
AcDb2dVertex
 10
614.015625
 20
425.13232421875
 30
0.0
  0
SEQEND
  5
267
330
264
100
AcDbEntity
  8
Ebene 1
370
     0
  0
POLYLINE
  5
268
330
3C
100
AcDbEntity
  8
Ebene 1
370
     0
100
AcDb2dPolyline
 66
     1
 10
0.0
 20
0.0
 30
0.0
  0
VERTEX
  5
269
330
268
100
AcDbEntity
  8
Ebene 1
370
     0
100
AcDbVertex
100
AcDb2dVertex
 10
564.3828125
 20
389.1328125
 30
0.0
  0
VERTEX
  5
26A
330
268
100
AcDbEntity
  8
Ebene 1
370
     0
100
AcDbVertex
100
AcDb2dVertex
 10
544.92578125
 20
389.1328125
 30
0.0
  0
SEQEND
  5
26B
330
268
100
AcDbEntity
  8
Ebene 1
370
     0
  0
POLYLINE
  5
26C
330
3C
100
AcDbEntity
  8
Ebene 1
370
     0
100
AcDb2dPolyline
 66
     1
 10
0.0
 20
0.0
 30
0.0
  0
VERTEX
  5
26D
330
26C
100
AcDbEntity
  8
Ebene 1
370
     0
100
AcDbVertex
100
AcDb2dVertex
 10
592.1328125
 20
423.19140625
 30
0.0
  0
VERTEX
  5
26E
330
26C
100
AcDbEntity
  8
Ebene 1
370
     0
100
AcDbVertex
100
AcDb2dVertex
 10
592.1328125
 20
417.36767578125
 30
0.0
  0
SEQEND
  5
26F
330
26C
100
AcDbEntity
  8
Ebene 1
370
     0
  0
POLYLINE
  5
270
330
3C
100
AcDbEntity
  8
Ebene 1
370
     0
100
AcDb2dPolyline
 66
     1
 10
0.0
 20
0.0
 30
0.0
  0
VERTEX
  5
271
330
270
100
AcDbEntity
  8
Ebene 1
370
     0
100
AcDbVertex
100
AcDb2dVertex
 10
517.17578125
 20
417.36767578125
 30
0.0
  0
VERTEX
  5
272
330
270
100
AcDbEntity
  8
Ebene 1
370
     0
100
AcDbVertex
100
AcDb2dVertex
 10
517.17578125
 20
423.19140625
 30
0.0
  0
SEQEND
  5
273
330
270
100
AcDbEntity
  8
Ebene 1
370
     0
  0
POLYLINE
  5
274
330
3C
100
AcDbEntity
  8
Ebene 1
370
     0
100
AcDb2dPolyline
 66
     1
 10
0.0
 20
0.0
 30
0.0
  0
VERTEX
  5
275
330
274
100
AcDbEntity
  8
Ebene 1
370
     0
100
AcDbVertex
100
AcDb2dVertex
 10
588.8671875
 20
406.7353515625
 30
0.0
  0
VERTEX
  5
276
330
274
100
AcDbEntity
  8
Ebene 1
370
     0
100
AcDbVertex
100
AcDb2dVertex
 10
589.220703125
 20
406.4267578125
 30
0.0
  0
VERTEX
  5
277
330
274
100
AcDbEntity
  8
Ebene 1
370
     0
100
AcDbVertex
100
AcDb2dVertex
 10
589.662109375
 20
406.25
 30
0.0
  0
VERTEX
  5
278
330
274
100
AcDbEntity
  8
Ebene 1
370
     0
100
AcDbVertex
100
AcDb2dVertex
 10
590.146484375
 20
406.11767578125
 30
0.0
  0
VERTEX
  5
279
330
274
100
AcDbEntity
  8
Ebene 1
370
     0
100
AcDbVertex
100
AcDb2dVertex
 10
590.587890625
 20
406.11767578125
 30
0.0
  0
VERTEX
  5
27A
330
274
100
AcDbEntity
  8
Ebene 1
370
     0
100
AcDbVertex
100
AcDb2dVertex
 10
591.07421875
 20
406.25
 30
0.0
  0
VERTEX
  5
27B
330
274
100
AcDbEntity
  8
Ebene 1
370
     0
100
AcDbVertex
100
AcDb2dVertex
 10
591.470703125
 20
406.51513671875
 30
0.0
  0
VERTEX
  5
27C
330
274
100
AcDbEntity
  8
Ebene 1
370
     0
100
AcDbVertex
100
AcDb2dVertex
 10
591.82421875
 20
406.82373046875
 30
0.0
  0
VERTEX
  5
27D
330
274
100
AcDbEntity
  8
Ebene 1
370
     0
100
AcDbVertex
100
AcDb2dVertex
 10
592.087890625
 20
407.220703125
 30
0.0
  0
VERTEX
  5
27E
330
274
100
AcDbEntity
  8
Ebene 1
370
     0
100
AcDbVertex
100
AcDb2dVertex
 10
592.265625
 20
407.662109375
 30
0.0
  0
VERTEX
  5
27F
330
274
100
AcDbEntity
  8
Ebene 1
370
     0
100
AcDbVertex
100
AcDb2dVertex
 10
592.30859375
 20
408.1474609375
 30
0.0
  0
SEQEND
  5
280
330
274
100
AcDbEntity
  8
Ebene 1
370
     0
  0
POLYLINE
  5
281
330
3C
100
AcDbEntity
  8
Ebene 1
370
     0
100
AcDb2dPolyline
 66
     1
 10
0.0
 20
0.0
 30
0.0
  0
VERTEX
  5
282
330
281
100
AcDbEntity
  8
Ebene 1
370
     0
100
AcDbVertex
100
AcDb2dVertex
 10
588.82421875
 20
406.69140625
 30
0.0
  0
VERTEX
  5
283
330
281
100
AcDbEntity
  8
Ebene 1
370
     0
100
AcDbVertex
100
AcDb2dVertex
 10
587.896484375
 20
407.57373046875
 30
0.0
  0
VERTEX
  5
284
330
281
100
AcDbEntity
  8
Ebene 1
370
     0
100
AcDbVertex
100
AcDb2dVertex
 10
586.92578125
 20
408.36767578125
 30
0.0
  0
VERTEX
  5
285
330
281
100
AcDbEntity
  8
Ebene 1
370
     0
100
AcDbVertex
100
AcDb2dVertex
 10
585.8671875
 20
409.11767578125
 30
0.0
  0
VERTEX
  5
286
330
281
100
AcDbEntity
  8
Ebene 1
370
     0
100
AcDbVertex
100
AcDb2dVertex
 10
584.720703125
 20
409.69140625
 30
0.0
  0
VERTEX
  5
287
330
281
100
AcDbEntity
  8
Ebene 1
370
     0
100
AcDbVertex
100
AcDb2dVertex
 10
583.529296875
 20
410.220703125
 30
0.0
  0
VERTEX
  5
288
330
281
100
AcDbEntity
  8
Ebene 1
370
     0
100
AcDbVertex
100
AcDb2dVertex
 10
582.337890625
 20
410.61767578125
 30
0.0
  0
VERTEX
  5
289
330
281
100
AcDbEntity
  8
Ebene 1
370
     0
100
AcDbVertex
100
AcDb2dVertex
 10
581.05859375
 20
410.88232421875
 30
0.0
  0
VERTEX
  5
28A
330
281
100
AcDbEntity
  8
Ebene 1
370
     0
100
AcDbVertex
100
AcDb2dVertex
 10
579.779296875
 20
411.05908203125
 30
0.0
  0
VERTEX
  5
28B
330
281
100
AcDbEntity
  8
Ebene 1
370
     0
100
AcDbVertex
100
AcDb2dVertex
 10
578.5
 20
411.10302734375
 30
0.0
  0
VERTEX
  5
28C
330
281
100
AcDbEntity
  8
Ebene 1
370
     0
100
AcDbVertex
100
AcDb2dVertex
 10
577.220703125
 20
411.01513671875
 30
0.0
  0
VERTEX
  5
28D
330
281
100
AcDbEntity
  8
Ebene 1
370
     0
100
AcDbVertex
100
AcDb2dVertex
 10
575.9853515625
 20
410.83837890625
 30
0.0
  0
VERTEX
  5
28E
330
281
100
AcDbEntity
  8
Ebene 1
370
     0
100
AcDbVertex
100
AcDb2dVertex
 10
574.7060546875
 20
410.52978515625
 30
0.0
  0
VERTEX
  5
28F
330
281
100
AcDbEntity
  8
Ebene 1
370
     0
100
AcDbVertex
100
AcDb2dVertex
 10
573.5146484375
 20
410.13232421875
 30
0.0
  0
VERTEX
  5
290
330
281
100
AcDbEntity
  8
Ebene 1
370
     0
100
AcDbVertex
100
AcDb2dVertex
 10
572.32421875
 20
409.60302734375
 30
0.0
  0
VERTEX
  5
291
330
281
100
AcDbEntity
  8
Ebene 1
370
     0
100
AcDbVertex
100
AcDb2dVertex
 10
571.220703125
 20
408.9853515625
 30
0.0
  0
VERTEX
  5
292
330
281
100
AcDbEntity
  8
Ebene 1
370
     0
100
AcDbVertex
100
AcDb2dVertex
 10
570.162109375
 20
408.2353515625
 30
0.0
  0
VERTEX
  5
293
330
281
100
AcDbEntity
  8
Ebene 1
370
     0
100
AcDbVertex
100
AcDb2dVertex
 10
569.19140625
 20
407.44140625
 30
0.0
  0
VERTEX
  5
294
330
281
100
AcDbEntity
  8
Ebene 1
370
     0
100
AcDbVertex
100
AcDb2dVertex
 10
568.2646484375
 20
406.51513671875
 30
0.0
  0
VERTEX
  5
295
330
281
100
AcDbEntity
  8
Ebene 1
370
     0
100
AcDbVertex
100
AcDb2dVertex
 10
567.470703125
 20
405.54443359375
 30
0.0
  0
VERTEX
  5
296
330
281
100
AcDbEntity
  8
Ebene 1
370
     0
100
AcDbVertex
100
AcDb2dVertex
 10
566.720703125
 20
404.4853515625
 30
0.0
  0
VERTEX
  5
297
330
281
100
AcDbEntity
  8
Ebene 1
370
     0
100
AcDbVertex
100
AcDb2dVertex
 10
566.103515625
 20
403.33837890625
 30
0.0
  0
VERTEX
  5
298
330
281
100
AcDbEntity
  8
Ebene 1
370
     0
100
AcDbVertex
100
AcDb2dVertex
 10
565.57421875
 20
402.1474609375
 30
0.0
  0
SEQEND
  5
299
330
281
100
AcDbEntity
  8
Ebene 1
370
     0
  0
POLYLINE
  5
29A
330
3C
100
AcDbEntity
  8
Ebene 1
370
     0
100
AcDb2dPolyline
 66
     1
 10
0.0
 20
0.0
 30
0.0
  0
VERTEX
  5
29B
330
29A
100
AcDbEntity
  8
Ebene 1
370
     0
100
AcDbVertex
100
AcDb2dVertex
 10
592.1328125
 20
417.36767578125
 30
0.0
  0
VERTEX
  5
29C
330
29A
100
AcDbEntity
  8
Ebene 1
370
     0
100
AcDbVertex
100
AcDb2dVertex
 10
592.30859375
 20
408.10302734375
 30
0.0
  0
SEQEND
  5
29D
330
29A
100
AcDbEntity
  8
Ebene 1
370
     0
  0
POLYLINE
  5
29E
330
3C
100
AcDbEntity
  8
Ebene 1
370
     0
100
AcDb2dPolyline
 66
     1
 10
0.0
 20
0.0
 30
0.0
  0
VERTEX
  5
29F
330
29E
100
AcDbEntity
  8
Ebene 1
370
     0
100
AcDbVertex
100
AcDb2dVertex
 10
543.7353515625
 20
402.1474609375
 30
0.0
  0
VERTEX
  5
2A0
330
29E
100
AcDbEntity
  8
Ebene 1
370
     0
100
AcDbVertex
100
AcDb2dVertex
 10
543.2060546875
 20
403.33837890625
 30
0.0
  0
VERTEX
  5
2A1
330
29E
100
AcDbEntity
  8
Ebene 1
370
     0
100
AcDbVertex
100
AcDb2dVertex
 10
542.587890625
 20
404.4853515625
 30
0.0
  0
VERTEX
  5
2A2
330
29E
100
AcDbEntity
  8
Ebene 1
370
     0
100
AcDbVertex
100
AcDb2dVertex
 10
541.837890625
 20
405.54443359375
 30
0.0
  0
VERTEX
  5
2A3
330
29E
100
AcDbEntity
  8
Ebene 1
370
     0
100
AcDbVertex
100
AcDb2dVertex
 10
541.0439453125
 20
406.51513671875
 30
0.0
  0
VERTEX
  5
2A4
330
29E
100
AcDbEntity
  8
Ebene 1
370
     0
100
AcDbVertex
100
AcDb2dVertex
 10
540.1171875
 20
407.44140625
 30
0.0
  0
VERTEX
  5
2A5
330
29E
100
AcDbEntity
  8
Ebene 1
370
     0
100
AcDbVertex
100
AcDb2dVertex
 10
539.146484375
 20
408.2353515625
 30
0.0
  0
VERTEX
  5
2A6
330
29E
100
AcDbEntity
  8
Ebene 1
370
     0
100
AcDbVertex
100
AcDb2dVertex
 10
538.087890625
 20
408.9853515625
 30
0.0
  0
VERTEX
  5
2A7
330
29E
100
AcDbEntity
  8
Ebene 1
370
     0
100
AcDbVertex
100
AcDb2dVertex
 10
536.9853515625
 20
409.60302734375
 30
0.0
  0
VERTEX
  5
2A8
330
29E
100
AcDbEntity
  8
Ebene 1
370
     0
100
AcDbVertex
100
AcDb2dVertex
 10
535.7939453125
 20
410.13232421875
 30
0.0
  0
VERTEX
  5
2A9
330
29E
100
AcDbEntity
  8
Ebene 1
370
     0
100
AcDbVertex
100
AcDb2dVertex
 10
534.603515625
 20
410.52978515625
 30
0.0
  0
VERTEX
  5
2AA
330
29E
100
AcDbEntity
  8
Ebene 1
370
     0
100
AcDbVertex
100
AcDb2dVertex
 10
533.32421875
 20
410.83837890625
 30
0.0
  0
VERTEX
  5
2AB
330
29E
100
AcDbEntity
  8
Ebene 1
370
     0
100
AcDbVertex
100
AcDb2dVertex
 10
532.087890625
 20
411.01513671875
 30
0.0
  0
VERTEX
  5
2AC
330
29E
100
AcDbEntity
  8
Ebene 1
370
     0
100
AcDbVertex
100
AcDb2dVertex
 10
530.80859375
 20
411.10302734375
 30
0.0
  0
VERTEX
  5
2AD
330
29E
100
AcDbEntity
  8
Ebene 1
370
     0
100
AcDbVertex
100
AcDb2dVertex
 10
529.529296875
 20
411.05908203125
 30
0.0
  0
VERTEX
  5
2AE
330
29E
100
AcDbEntity
  8
Ebene 1
370
     0
100
AcDbVertex
100
AcDb2dVertex
 10
528.25
 20
410.88232421875
 30
0.0
  0
VERTEX
  5
2AF
330
29E
100
AcDbEntity
  8
Ebene 1
370
     0
100
AcDbVertex
100
AcDb2dVertex
 10
526.970703125
 20
410.61767578125
 30
0.0
  0
VERTEX
  5
2B0
330
29E
100
AcDbEntity
  8
Ebene 1
370
     0
100
AcDbVertex
100
AcDb2dVertex
 10
525.779296875
 20
410.220703125
 30
0.0
  0
VERTEX
  5
2B1
330
29E
100
AcDbEntity
  8
Ebene 1
370
     0
100
AcDbVertex
100
AcDb2dVertex
 10
524.587890625
 20
409.69140625
 30
0.0
  0
VERTEX
  5
2B2
330
29E
100
AcDbEntity
  8
Ebene 1
370
     0
100
AcDbVertex
100
AcDb2dVertex
 10
523.44140625
 20
409.11767578125
 30
0.0
  0
VERTEX
  5
2B3
330
29E
100
AcDbEntity
  8
Ebene 1
370
     0
100
AcDbVertex
100
AcDb2dVertex
 10
522.3828125
 20
408.36767578125
 30
0.0
  0
VERTEX
  5
2B4
330
29E
100
AcDbEntity
  8
Ebene 1
370
     0
100
AcDbVertex
100
AcDb2dVertex
 10
521.412109375
 20
407.57373046875
 30
0.0
  0
VERTEX
  5
2B5
330
29E
100
AcDbEntity
  8
Ebene 1
370
     0
100
AcDbVertex
100
AcDb2dVertex
 10
520.4853515625
 20
406.69140625
 30
0.0
  0
SEQEND
  5
2B6
330
29E
100
AcDbEntity
  8
Ebene 1
370
     0
  0
POLYLINE
  5
2B7
330
3C
100
AcDbEntity
  8
Ebene 1
370
     0
100
AcDb2dPolyline
 66
     1
 10
0.0
 20
0.0
 30
0.0
  0
VERTEX
  5
2B8
330
2B7
100
AcDbEntity
  8
Ebene 1
370
     0
100
AcDbVertex
100
AcDb2dVertex
 10
517.0
 20
408.1474609375
 30
0.0
  0
VERTEX
  5
2B9
330
2B7
100
AcDbEntity
  8
Ebene 1
370
     0
100
AcDbVertex
100
AcDb2dVertex
 10
517.0439453125
 20
407.662109375
 30
0.0
  0
VERTEX
  5
2BA
330
2B7
100
AcDbEntity
  8
Ebene 1
370
     0
100
AcDbVertex
100
AcDb2dVertex
 10
517.220703125
 20
407.220703125
 30
0.0
  0
VERTEX
  5
2BB
330
2B7
100
AcDbEntity
  8
Ebene 1
370
     0
100
AcDbVertex
100
AcDb2dVertex
 10
517.4853515625
 20
406.82373046875
 30
0.0
  0
VERTEX
  5
2BC
330
2B7
100
AcDbEntity
  8
Ebene 1
370
     0
100
AcDbVertex
100
AcDb2dVertex
 10
517.837890625
 20
406.51513671875
 30
0.0
  0
VERTEX
  5
2BD
330
2B7
100
AcDbEntity
  8
Ebene 1
370
     0
100
AcDbVertex
100
AcDb2dVertex
 10
518.2353515625
 20
406.25
 30
0.0
  0
VERTEX
  5
2BE
330
2B7
100
AcDbEntity
  8
Ebene 1
370
     0
100
AcDbVertex
100
AcDb2dVertex
 10
518.720703125
 20
406.11767578125
 30
0.0
  0
VERTEX
  5
2BF
330
2B7
100
AcDbEntity
  8
Ebene 1
370
     0
100
AcDbVertex
100
AcDb2dVertex
 10
519.162109375
 20
406.11767578125
 30
0.0
  0
VERTEX
  5
2C0
330
2B7
100
AcDbEntity
  8
Ebene 1
370
     0
100
AcDbVertex
100
AcDb2dVertex
 10
519.646484375
 20
406.25
 30
0.0
  0
VERTEX
  5
2C1
330
2B7
100
AcDbEntity
  8
Ebene 1
370
     0
100
AcDbVertex
100
AcDb2dVertex
 10
520.087890625
 20
406.4267578125
 30
0.0
  0
VERTEX
  5
2C2
330
2B7
100
AcDbEntity
  8
Ebene 1
370
     0
100
AcDbVertex
100
AcDb2dVertex
 10
520.44140625
 20
406.7353515625
 30
0.0
  0
SEQEND
  5
2C3
330
2B7
100
AcDbEntity
  8
Ebene 1
370
     0
  0
POLYLINE
  5
2C4
330
3C
100
AcDbEntity
  8
Ebene 1
370
     0
100
AcDb2dPolyline
 66
     1
 10
0.0
 20
0.0
 30
0.0
  0
VERTEX
  5
2C5
330
2C4
100
AcDbEntity
  8
Ebene 1
370
     0
100
AcDbVertex
100
AcDb2dVertex
 10
517.17578125
 20
417.36767578125
 30
0.0
  0
VERTEX
  5
2C6
330
2C4
100
AcDbEntity
  8
Ebene 1
370
     0
100
AcDbVertex
100
AcDb2dVertex
 10
517.0
 20
408.10302734375
 30
0.0
  0
SEQEND
  5
2C7
330
2C4
100
AcDbEntity
  8
Ebene 1
370
     0
  0
POLYLINE
  5
2C8
330
3C
100
AcDbEntity
  8
Ebene 1
370
     0
100
AcDb2dPolyline
 66
     1
 10
0.0
 20
0.0
 30
0.0
  0
VERTEX
  5
2C9
330
2C8
100
AcDbEntity
  8
Ebene 1
370
     0
100
AcDbVertex
100
AcDb2dVertex
 10
543.912109375
 20
390.103515625
 30
0.0
  0
VERTEX
  5
2CA
330
2C8
100
AcDbEntity
  8
Ebene 1
370
     0
100
AcDbVertex
100
AcDb2dVertex
 10
565.396484375
 20
390.103515625
 30
0.0
  0
SEQEND
  5
2CB
330
2C8
100
AcDbEntity
  8
Ebene 1
370
     0
  0
POLYLINE
  5
2CC
330
3C
100
AcDbEntity
  8
Ebene 1
370
     0
100
AcDb2dPolyline
 66
     1
 10
0.0
 20
0.0
 30
0.0
  0
VERTEX
  5
2CD
330
2CC
100
AcDbEntity
  8
Ebene 1
370
     0
100
AcDbVertex
100
AcDb2dVertex
 10
594.162109375
 20
425.13232421875
 30
0.0
  0
VERTEX
  5
2CE
330
2CC
100
AcDbEntity
  8
Ebene 1
370
     0
100
AcDbVertex
100
AcDb2dVertex
 10
593.6328125
 20
425.08837890625
 30
0.0
  0
VERTEX
  5
2CF
330
2CC
100
AcDbEntity
  8
Ebene 1
370
     0
100
AcDbVertex
100
AcDb2dVertex
 10
593.19140625
 20
424.86767578125
 30
0.0
  0
VERTEX
  5
2D0
330
2CC
100
AcDbEntity
  8
Ebene 1
370
     0
100
AcDbVertex
100
AcDb2dVertex
 10
592.75
 20
424.55908203125
 30
0.0
  0
VERTEX
  5
2D1
330
2CC
100
AcDbEntity
  8
Ebene 1
370
     0
100
AcDbVertex
100
AcDb2dVertex
 10
592.44140625
 20
424.162109375
 30
0.0
  0
VERTEX
  5
2D2
330
2CC
100
AcDbEntity
  8
Ebene 1
370
     0
100
AcDbVertex
100
AcDb2dVertex
 10
592.265625
 20
423.6767578125
 30
0.0
  0
VERTEX
  5
2D3
330
2CC
100
AcDbEntity
  8
Ebene 1
370
     0
100
AcDbVertex
100
AcDb2dVertex
 10
592.17578125
 20
423.19140625
 30
0.0
  0
SEQEND
  5
2D4
330
2CC
100
AcDbEntity
  8
Ebene 1
370
     0
  0
POLYLINE
  5
2D5
330
3C
100
AcDbEntity
  8
Ebene 1
370
     0
100
AcDb2dPolyline
 66
     1
 10
0.0
 20
0.0
 30
0.0
  0
VERTEX
  5
2D6
330
2D5
100
AcDbEntity
  8
Ebene 1
370
     0
100
AcDbVertex
100
AcDb2dVertex
 10
517.17578125
 20
423.19140625
 30
0.0
  0
VERTEX
  5
2D7
330
2D5
100
AcDbEntity
  8
Ebene 1
370
     0
100
AcDbVertex
100
AcDb2dVertex
 10
517.087890625
 20
423.6767578125
 30
0.0
  0
VERTEX
  5
2D8
330
2D5
100
AcDbEntity
  8
Ebene 1
370
     0
100
AcDbVertex
100
AcDb2dVertex
 10
516.912109375
 20
424.162109375
 30
0.0
  0
VERTEX
  5
2D9
330
2D5
100
AcDbEntity
  8
Ebene 1
370
     0
100
AcDbVertex
100
AcDb2dVertex
 10
516.603515625
 20
424.55908203125
 30
0.0
  0
VERTEX
  5
2DA
330
2D5
100
AcDbEntity
  8
Ebene 1
370
     0
100
AcDbVertex
100
AcDb2dVertex
 10
516.162109375
 20
424.86767578125
 30
0.0
  0
VERTEX
  5
2DB
330
2D5
100
AcDbEntity
  8
Ebene 1
370
     0
100
AcDbVertex
100
AcDb2dVertex
 10
515.720703125
 20
425.08837890625
 30
0.0
  0
VERTEX
  5
2DC
330
2D5
100
AcDbEntity
  8
Ebene 1
370
     0
100
AcDbVertex
100
AcDb2dVertex
 10
515.19140625
 20
425.13232421875
 30
0.0
  0
SEQEND
  5
2DD
330
2D5
100
AcDbEntity
  8
Ebene 1
370
     0
  0
POLYLINE
  5
2DE
330
3C
100
AcDbEntity
  8
Ebene 1
370
     0
100
AcDb2dPolyline
 66
     1
 10
0.0
 20
0.0
 30
0.0
  0
VERTEX
  5
2DF
330
2DE
100
AcDbEntity
  8
Ebene 1
370
     0
100
AcDbVertex
100
AcDb2dVertex
 10
594.646484375
 20
418.4267578125
 30
0.0
  0
VERTEX
  5
2E0
330
2DE
100
AcDbEntity
  8
Ebene 1
370
     0
100
AcDbVertex
100
AcDb2dVertex
 10
592.17578125
 20
418.4267578125
 30
0.0
  0
SEQEND
  5
2E1
330
2DE
100
AcDbEntity
  8
Ebene 1
370
     0
  0
POLYLINE
  5
2E2
330
3C
100
AcDbEntity
  8
Ebene 1
370
     0
100
AcDb2dPolyline
 66
     1
 10
0.0
 20
0.0
 30
0.0
  0
VERTEX
  5
2E3
330
2E2
100
AcDbEntity
  8
Ebene 1
370
     0
100
AcDbVertex
100
AcDb2dVertex
 10
718.57421875
 20
389.265625
 30
0.0
  0
VERTEX
  5
2E4
330
2E2
100
AcDbEntity
  8
Ebene 1
370
     0
100
AcDbVertex
100
AcDb2dVertex
 10
718.57421875
 20
534.9853515625
 30
0.0
  0
SEQEND
  5
2E5
330
2E2
100
AcDbEntity
  8
Ebene 1
370
     0
  0
POLYLINE
  5
2E6
330
3C
100
AcDbEntity
  8
Ebene 1
370
     0
100
AcDb2dPolyline
 66
     1
 10
0.0
 20
0.0
 30
0.0
  0
VERTEX
  5
2E7
330
2E6
100
AcDbEntity
  8
Ebene 1
370
     0
100
AcDbVertex
100
AcDb2dVertex
 10
440.7646484375
 20
369.146484375
 30
0.0
  0
VERTEX
  5
2E8
330
2E6
100
AcDbEntity
  8
Ebene 1
370
     0
100
AcDbVertex
100
AcDb2dVertex
 10
440.7646484375
 20
534.9853515625
 30
0.0
  0
SEQEND
  5
2E9
330
2E6
100
AcDbEntity
  8
Ebene 1
370
     0
  0
POLYLINE
  5
2EA
330
3C
100
AcDbEntity
  8
Ebene 1
370
     0
100
AcDb2dPolyline
 66
     1
 10
0.0
 20
0.0
 30
0.0
  0
VERTEX
  5
2EB
330
2EA
100
AcDbEntity
  8
Ebene 1
370
     0
100
AcDbVertex
100
AcDb2dVertex
 10
698.587890625
 20
519.01513671875
 30
0.0
  0
VERTEX
  5
2EC
330
2EA
100
AcDbEntity
  8
Ebene 1
370
     0
100
AcDbVertex
100
AcDb2dVertex
 10
460.7939453125
 20
519.01513671875
 30
0.0
  0
SEQEND
  5
2ED
330
2EA
100
AcDbEntity
  8
Ebene 1
370
     0
  0
POLYLINE
  5
2EE
330
3C
100
AcDbEntity
  8
Ebene 1
370
     0
100
AcDb2dPolyline
 66
     1
 10
0.0
 20
0.0
 30
0.0
  0
VERTEX
  5
2EF
330
2EE
100
AcDbEntity
  8
Ebene 1
370
     0
100
AcDbVertex
100
AcDb2dVertex
 10
698.587890625
 20
522.32373046875
 30
0.0
  0
VERTEX
  5
2F0
330
2EE
100
AcDbEntity
  8
Ebene 1
370
     0
100
AcDbVertex
100
AcDb2dVertex
 10
698.587890625
 20
515.662109375
 30
0.0
  0
VERTEX
  5
2F1
330
2EE
100
AcDbEntity
  8
Ebene 1
370
     0
100
AcDbVertex
100
AcDb2dVertex
 10
718.57421875
 20
519.01513671875
 30
0.0
  0
VERTEX
  5
2F2
330
2EE
100
AcDbEntity
  8
Ebene 1
370
     0
100
AcDbVertex
100
AcDb2dVertex
 10
698.587890625
 20
522.32373046875
 30
0.0
  0
SEQEND
  5
2F3
330
2EE
100
AcDbEntity
  8
Ebene 1
370
     0
  0
HATCH
  5
2F4
330
3C
100
AcDbEntity
  8
Ebene 1
 62
   251
420
  6710886
100
AcDbHatch
 10
0.0
 20
0.0
 30
0.0
210
0.0
220
0.0
230
1.0
  2
SOLID
 70
     1
 71
     0
 91
        1
 92
        1
 93
        3
 72
     1
 10
698.587890625
 20
522.32373046875
 11
698.587890625
 21
515.662109375
 72
     1
 10
698.587890625
 20
515.662109375
 11
718.57421875
 21
519.01513671875
 72
     1
 10
718.57421875
 20
519.01513671875
 11
698.587890625
 21
522.32373046875
 97
        0
 75
     0
 76
     1
 98
        0
  0
POLYLINE
  5
2F5
330
3C
100
AcDbEntity
  8
Ebene 1
370
     0
100
AcDb2dPolyline
 66
     1
 10
0.0
 20
0.0
 30
0.0
  0
VERTEX
  5
2F6
330
2F5
100
AcDbEntity
  8
Ebene 1
370
     0
100
AcDbVertex
100
AcDb2dVertex
 10
460.7939453125
 20
522.32373046875
 30
0.0
  0
VERTEX
  5
2F7
330
2F5
100
AcDbEntity
  8
Ebene 1
370
     0
100
AcDbVertex
100
AcDb2dVertex
 10
460.7939453125
 20
515.662109375
 30
0.0
  0
VERTEX
  5
2F8
330
2F5
100
AcDbEntity
  8
Ebene 1
370
     0
100
AcDbVertex
100
AcDb2dVertex
 10
440.7646484375
 20
519.01513671875
 30
0.0
  0
VERTEX
  5
2F9
330
2F5
100
AcDbEntity
  8
Ebene 1
370
     0
100
AcDbVertex
100
AcDb2dVertex
 10
460.7939453125
 20
522.32373046875
 30
0.0
  0
SEQEND
  5
2FA
330
2F5
100
AcDbEntity
  8
Ebene 1
370
     0
  0
HATCH
  5
2FB
330
3C
100
AcDbEntity
  8
Ebene 1
 62
   251
420
  6710886
100
AcDbHatch
 10
0.0
 20
0.0
 30
0.0
210
0.0
220
0.0
230
1.0
  2
SOLID
 70
     1
 71
     0
 91
        1
 92
        1
 93
        3
 72
     1
 10
460.7939453125
 20
522.32373046875
 11
460.7939453125
 21
515.662109375
 72
     1
 10
460.7939453125
 20
515.662109375
 11
440.7646484375
 21
519.01513671875
 72
     1
 10
440.7646484375
 20
519.01513671875
 11
460.7939453125
 21
522.32373046875
 97
        0
 75
     0
 76
     1
 98
        0
  0
POLYLINE
  5
2FC
330
3C
100
AcDbEntity
  8
Ebene 1
370
     0
100
AcDb2dPolyline
 66
     1
 10
0.0
 20
0.0
 30
0.0
  0
VERTEX
  5
2FD
330
2FC
100
AcDbEntity
  8
Ebene 1
370
     0
100
AcDbVertex
100
AcDb2dVertex
 10
513.42578125
 20
551.0
 30
0.0
  0
VERTEX
  5
2FE
330
2FC
100
AcDbEntity
  8
Ebene 1
370
     0
100
AcDbVertex
100
AcDb2dVertex
 10
513.42578125
 20
527.0
 30
0.0
  0
SEQEND
  5
2FF
330
2FC
100
AcDbEntity
  8
Ebene 1
370
     0
  0
POLYLINE
  5
300
330
3C
100
AcDbEntity
  8
Ebene 1
370
     0
100
AcDb2dPolyline
 66
     1
 10
0.0
 20
0.0
 30
0.0
  0
VERTEX
  5
301
330
300
100
AcDbEntity
  8
Ebene 1
370
     0
100
AcDbVertex
100
AcDb2dVertex
 10
513.42578125
 20
551.0
 30
0.0
  0
VERTEX
  5
302
330
300
100
AcDbEntity
  8
Ebene 1
370
     0
100
AcDbVertex
100
AcDb2dVertex
 10
520.75
 20
527.0
 30
0.0
  0
VERTEX
  5
303
330
300
100
AcDbEntity
  8
Ebene 1
370
     0
100
AcDbVertex
100
AcDb2dVertex
 10
528.029296875
 20
551.0
 30
0.0
  0
VERTEX
  5
304
330
300
100
AcDbEntity
  8
Ebene 1
370
     0
100
AcDbVertex
100
AcDb2dVertex
 10
528.029296875
 20
527.0
 30
0.0
  0
SEQEND
  5
305
330
300
100
AcDbEntity
  8
Ebene 1
370
     0
  0
POLYLINE
  5
306
330
3C
100
AcDbEntity
  8
Ebene 1
370
     0
100
AcDb2dPolyline
 66
     1
 10
0.0
 20
0.0
 30
0.0
  0
VERTEX
  5
307
330
306
100
AcDbEntity
  8
Ebene 1
370
     0
100
AcDbVertex
100
AcDb2dVertex
 10
534.42578125
 20
549.85302734375
 30
0.0
  0
VERTEX
  5
308
330
306
100
AcDbEntity
  8
Ebene 1
370
     0
100
AcDbVertex
100
AcDb2dVertex
 10
535.353515625
 20
548.7060546875
 30
0.0
  0
VERTEX
  5
309
330
306
100
AcDbEntity
  8
Ebene 1
370
     0
100
AcDbVertex
100
AcDb2dVertex
 10
536.279296875
 20
549.85302734375
 30
0.0
  0
VERTEX
  5
30A
330
306
100
AcDbEntity
  8
Ebene 1
370
     0
100
AcDbVertex
100
AcDb2dVertex
 10
535.353515625
 20
551.0
 30
0.0
  0
VERTEX
  5
30B
330
306
100
AcDbEntity
  8
Ebene 1
370
     0
100
AcDbVertex
100
AcDb2dVertex
 10
534.42578125
 20
549.85302734375
 30
0.0
  0
VERTEX
  5
30C
330
306
100
AcDbEntity
  8
Ebene 1
370
     0
100
AcDbVertex
100
AcDb2dVertex
 10
534.42578125
 20
549.85302734375
 30
0.0
  0
SEQEND
  5
30D
330
306
100
AcDbEntity
  8
Ebene 1
370
     0
  0
POLYLINE
  5
30E
330
3C
100
AcDbEntity
  8
Ebene 1
370
     0
100
AcDb2dPolyline
 66
     1
 10
0.0
 20
0.0
 30
0.0
  0
VERTEX
  5
30F
330
30E
100
AcDbEntity
  8
Ebene 1
370
     0
100
AcDbVertex
100
AcDb2dVertex
 10
535.353515625
 20
541.86767578125
 30
0.0
  0
VERTEX
  5
310
330
30E
100
AcDbEntity
  8
Ebene 1
370
     0
100
AcDbVertex
100
AcDb2dVertex
 10
535.353515625
 20
527.0
 30
0.0
  0
SEQEND
  5
311
330
30E
100
AcDbEntity
  8
Ebene 1
370
     0
  0
POLYLINE
  5
312
330
3C
100
AcDbEntity
  8
Ebene 1
370
     0
100
AcDb2dPolyline
 66
     1
 10
0.0
 20
0.0
 30
0.0
  0
VERTEX
  5
313
330
312
100
AcDbEntity
  8
Ebene 1
370
     0
100
AcDbVertex
100
AcDb2dVertex
 10
542.67578125
 20
543.01513671875
 30
0.0
  0
VERTEX
  5
314
330
312
100
AcDbEntity
  8
Ebene 1
370
     0
100
AcDbVertex
100
AcDb2dVertex
 10
542.67578125
 20
527.0
 30
0.0
  0
SEQEND
  5
315
330
312
100
AcDbEntity
  8
Ebene 1
370
     0
  0
POLYLINE
  5
316
330
3C
100
AcDbEntity
  8
Ebene 1
370
     0
100
AcDb2dPolyline
 66
     1
 10
0.0
 20
0.0
 30
0.0
  0
VERTEX
  5
317
330
316
100
AcDbEntity
  8
Ebene 1
370
     0
100
AcDbVertex
100
AcDb2dVertex
 10
542.67578125
 20
538.4267578125
 30
0.0
  0
VERTEX
  5
318
330
316
100
AcDbEntity
  8
Ebene 1
370
     0
100
AcDbVertex
100
AcDb2dVertex
 10
545.412109375
 20
541.86767578125
 30
0.0
  0
VERTEX
  5
319
330
316
100
AcDbEntity
  8
Ebene 1
370
     0
100
AcDbVertex
100
AcDb2dVertex
 10
547.220703125
 20
543.01513671875
 30
0.0
  0
VERTEX
  5
31A
330
316
100
AcDbEntity
  8
Ebene 1
370
     0
100
AcDbVertex
100
AcDb2dVertex
 10
549.9560546875
 20
543.01513671875
 30
0.0
  0
VERTEX
  5
31B
330
316
100
AcDbEntity
  8
Ebene 1
370
     0
100
AcDbVertex
100
AcDb2dVertex
 10
551.80859375
 20
541.86767578125
 30
0.0
  0
VERTEX
  5
31C
330
316
100
AcDbEntity
  8
Ebene 1
370
     0
100
AcDbVertex
100
AcDb2dVertex
 10
552.7353515625
 20
538.4267578125
 30
0.0
  0
VERTEX
  5
31D
330
316
100
AcDbEntity
  8
Ebene 1
370
     0
100
AcDbVertex
100
AcDb2dVertex
 10
552.7353515625
 20
527.0
 30
0.0
  0
SEQEND
  5
31E
330
316
100
AcDbEntity
  8
Ebene 1
370
     0
  0
POLYLINE
  5
31F
330
3C
100
AcDbEntity
  8
Ebene 1
370
     0
100
AcDb2dPolyline
 66
     1
 10
0.0
 20
0.0
 30
0.0
  0
VERTEX
  5
320
330
31F
100
AcDbEntity
  8
Ebene 1
370
     0
100
AcDbVertex
100
AcDb2dVertex
 10
560.94140625
 20
529.29443359375
 30
0.0
  0
VERTEX
  5
321
330
31F
100
AcDbEntity
  8
Ebene 1
370
     0
100
AcDbVertex
100
AcDb2dVertex
 10
560.0146484375
 20
528.1474609375
 30
0.0
  0
VERTEX
  5
322
330
31F
100
AcDbEntity
  8
Ebene 1
370
     0
100
AcDbVertex
100
AcDb2dVertex
 10
560.94140625
 20
527.0
 30
0.0
  0
VERTEX
  5
323
330
31F
100
AcDbEntity
  8
Ebene 1
370
     0
100
AcDbVertex
100
AcDb2dVertex
 10
561.8671875
 20
528.1474609375
 30
0.0
  0
VERTEX
  5
324
330
31F
100
AcDbEntity
  8
Ebene 1
370
     0
100
AcDbVertex
100
AcDb2dVertex
 10
560.94140625
 20
529.29443359375
 30
0.0
  0
VERTEX
  5
325
330
31F
100
AcDbEntity
  8
Ebene 1
370
     0
100
AcDbVertex
100
AcDb2dVertex
 10
560.94140625
 20
529.29443359375
 30
0.0
  0
SEQEND
  5
326
330
31F
100
AcDbEntity
  8
Ebene 1
370
     0
  0
POLYLINE
  5
327
330
3C
100
AcDbEntity
  8
Ebene 1
370
     0
100
AcDb2dPolyline
 66
     1
 10
0.0
 20
0.0
 30
0.0
  0
VERTEX
  5
328
330
327
100
AcDbEntity
  8
Ebene 1
370
     0
100
AcDbVertex
100
AcDb2dVertex
 10
599.32421875
 20
547.55908203125
 30
0.0
  0
VERTEX
  5
329
330
327
100
AcDbEntity
  8
Ebene 1
370
     0
100
AcDbVertex
100
AcDb2dVertex
 10
598.396484375
 20
549.85302734375
 30
0.0
  0
VERTEX
  5
32A
330
327
100
AcDbEntity
  8
Ebene 1
370
     0
100
AcDbVertex
100
AcDb2dVertex
 10
595.662109375
 20
551.0
 30
0.0
  0
VERTEX
  5
32B
330
327
100
AcDbEntity
  8
Ebene 1
370
     0
100
AcDbVertex
100
AcDb2dVertex
 10
593.853515625
 20
551.0
 30
0.0
  0
VERTEX
  5
32C
330
327
100
AcDbEntity
  8
Ebene 1
370
     0
100
AcDbVertex
100
AcDb2dVertex
 10
591.1171875
 20
549.85302734375
 30
0.0
  0
VERTEX
  5
32D
330
327
100
AcDbEntity
  8
Ebene 1
370
     0
100
AcDbVertex
100
AcDb2dVertex
 10
589.265625
 20
546.412109375
 30
0.0
  0
VERTEX
  5
32E
330
327
100
AcDbEntity
  8
Ebene 1
370
     0
100
AcDbVertex
100
AcDb2dVertex
 10
588.337890625
 20
540.720703125
 30
0.0
  0
VERTEX
  5
32F
330
327
100
AcDbEntity
  8
Ebene 1
370
     0
100
AcDbVertex
100
AcDb2dVertex
 10
588.337890625
 20
534.9853515625
 30
0.0
  0
VERTEX
  5
330
330
327
100
AcDbEntity
  8
Ebene 1
370
     0
100
AcDbVertex
100
AcDb2dVertex
 10
589.265625
 20
530.44140625
 30
0.0
  0
VERTEX
  5
331
330
327
100
AcDbEntity
  8
Ebene 1
370
     0
100
AcDbVertex
100
AcDb2dVertex
 10
591.1171875
 20
528.1474609375
 30
0.0
  0
VERTEX
  5
332
330
327
100
AcDbEntity
  8
Ebene 1
370
     0
100
AcDbVertex
100
AcDb2dVertex
 10
593.853515625
 20
527.0
 30
0.0
  0
VERTEX
  5
333
330
327
100
AcDbEntity
  8
Ebene 1
370
     0
100
AcDbVertex
100
AcDb2dVertex
 10
594.734375
 20
527.0
 30
0.0
  0
VERTEX
  5
334
330
327
100
AcDbEntity
  8
Ebene 1
370
     0
100
AcDbVertex
100
AcDb2dVertex
 10
597.515625
 20
528.1474609375
 30
0.0
  0
VERTEX
  5
335
330
327
100
AcDbEntity
  8
Ebene 1
370
     0
100
AcDbVertex
100
AcDb2dVertex
 10
599.32421875
 20
530.44140625
 30
0.0
  0
VERTEX
  5
336
330
327
100
AcDbEntity
  8
Ebene 1
370
     0
100
AcDbVertex
100
AcDb2dVertex
 10
600.25
 20
533.83837890625
 30
0.0
  0
VERTEX
  5
337
330
327
100
AcDbEntity
  8
Ebene 1
370
     0
100
AcDbVertex
100
AcDb2dVertex
 10
600.25
 20
534.9853515625
 30
0.0
  0
VERTEX
  5
338
330
327
100
AcDbEntity
  8
Ebene 1
370
     0
100
AcDbVertex
100
AcDb2dVertex
 10
599.32421875
 20
538.4267578125
 30
0.0
  0
VERTEX
  5
339
330
327
100
AcDbEntity
  8
Ebene 1
370
     0
100
AcDbVertex
100
AcDb2dVertex
 10
597.515625
 20
540.720703125
 30
0.0
  0
VERTEX
  5
33A
330
327
100
AcDbEntity
  8
Ebene 1
370
     0
100
AcDbVertex
100
AcDb2dVertex
 10
594.734375
 20
541.86767578125
 30
0.0
  0
VERTEX
  5
33B
330
327
100
AcDbEntity
  8
Ebene 1
370
     0
100
AcDbVertex
100
AcDb2dVertex
 10
593.853515625
 20
541.86767578125
 30
0.0
  0
VERTEX
  5
33C
330
327
100
AcDbEntity
  8
Ebene 1
370
     0
100
AcDbVertex
100
AcDb2dVertex
 10
591.1171875
 20
540.720703125
 30
0.0
  0
VERTEX
  5
33D
330
327
100
AcDbEntity
  8
Ebene 1
370
     0
100
AcDbVertex
100
AcDb2dVertex
 10
589.265625
 20
538.4267578125
 30
0.0
  0
VERTEX
  5
33E
330
327
100
AcDbEntity
  8
Ebene 1
370
     0
100
AcDbVertex
100
AcDb2dVertex
 10
588.337890625
 20
534.9853515625
 30
0.0
  0
SEQEND
  5
33F
330
327
100
AcDbEntity
  8
Ebene 1
370
     0
  0
POLYLINE
  5
340
330
3C
100
AcDbEntity
  8
Ebene 1
370
     0
100
AcDb2dPolyline
 66
     1
 10
0.0
 20
0.0
 30
0.0
  0
VERTEX
  5
341
330
340
100
AcDbEntity
  8
Ebene 1
370
     0
100
AcDbVertex
100
AcDb2dVertex
 10
617.587890625
 20
543.01513671875
 30
0.0
  0
VERTEX
  5
342
330
340
100
AcDbEntity
  8
Ebene 1
370
     0
100
AcDbVertex
100
AcDb2dVertex
 10
616.705078125
 20
539.57373046875
 30
0.0
  0
VERTEX
  5
343
330
340
100
AcDbEntity
  8
Ebene 1
370
     0
100
AcDbVertex
100
AcDb2dVertex
 10
614.853515625
 20
537.27978515625
 30
0.0
  0
VERTEX
  5
344
330
340
100
AcDbEntity
  8
Ebene 1
370
     0
100
AcDbVertex
100
AcDb2dVertex
 10
612.1171875
 20
536.13232421875
 30
0.0
  0
VERTEX
  5
345
330
340
100
AcDbEntity
  8
Ebene 1
370
     0
100
AcDbVertex
100
AcDb2dVertex
 10
611.19140625
 20
536.13232421875
 30
0.0
  0
VERTEX
  5
346
330
340
100
AcDbEntity
  8
Ebene 1
370
     0
100
AcDbVertex
100
AcDb2dVertex
 10
608.455078125
 20
537.27978515625
 30
0.0
  0
VERTEX
  5
347
330
340
100
AcDbEntity
  8
Ebene 1
370
     0
100
AcDbVertex
100
AcDb2dVertex
 10
606.646484375
 20
539.57373046875
 30
0.0
  0
VERTEX
  5
348
330
340
100
AcDbEntity
  8
Ebene 1
370
     0
100
AcDbVertex
100
AcDb2dVertex
 10
605.720703125
 20
543.01513671875
 30
0.0
  0
VERTEX
  5
349
330
340
100
AcDbEntity
  8
Ebene 1
370
     0
100
AcDbVertex
100
AcDb2dVertex
 10
605.720703125
 20
544.162109375
 30
0.0
  0
VERTEX
  5
34A
330
340
100
AcDbEntity
  8
Ebene 1
370
     0
100
AcDbVertex
100
AcDb2dVertex
 10
606.646484375
 20
547.55908203125
 30
0.0
  0
VERTEX
  5
34B
330
340
100
AcDbEntity
  8
Ebene 1
370
     0
100
AcDbVertex
100
AcDb2dVertex
 10
608.455078125
 20
549.85302734375
 30
0.0
  0
VERTEX
  5
34C
330
340
100
AcDbEntity
  8
Ebene 1
370
     0
100
AcDbVertex
100
AcDb2dVertex
 10
611.19140625
 20
551.0
 30
0.0
  0
VERTEX
  5
34D
330
340
100
AcDbEntity
  8
Ebene 1
370
     0
100
AcDbVertex
100
AcDb2dVertex
 10
612.1171875
 20
551.0
 30
0.0
  0
VERTEX
  5
34E
330
340
100
AcDbEntity
  8
Ebene 1
370
     0
100
AcDbVertex
100
AcDb2dVertex
 10
614.853515625
 20
549.85302734375
 30
0.0
  0
VERTEX
  5
34F
330
340
100
AcDbEntity
  8
Ebene 1
370
     0
100
AcDbVertex
100
AcDb2dVertex
 10
616.705078125
 20
547.55908203125
 30
0.0
  0
VERTEX
  5
350
330
340
100
AcDbEntity
  8
Ebene 1
370
     0
100
AcDbVertex
100
AcDb2dVertex
 10
617.587890625
 20
543.01513671875
 30
0.0
  0
VERTEX
  5
351
330
340
100
AcDbEntity
  8
Ebene 1
370
     0
100
AcDbVertex
100
AcDb2dVertex
 10
617.587890625
 20
537.27978515625
 30
0.0
  0
VERTEX
  5
352
330
340
100
AcDbEntity
  8
Ebene 1
370
     0
100
AcDbVertex
100
AcDb2dVertex
 10
616.705078125
 20
531.58837890625
 30
0.0
  0
VERTEX
  5
353
330
340
100
AcDbEntity
  8
Ebene 1
370
     0
100
AcDbVertex
100
AcDb2dVertex
 10
614.853515625
 20
528.1474609375
 30
0.0
  0
VERTEX
  5
354
330
340
100
AcDbEntity
  8
Ebene 1
370
     0
100
AcDbVertex
100
AcDb2dVertex
 10
612.1171875
 20
527.0
 30
0.0
  0
VERTEX
  5
355
330
340
100
AcDbEntity
  8
Ebene 1
370
     0
100
AcDbVertex
100
AcDb2dVertex
 10
610.30859375
 20
527.0
 30
0.0
  0
VERTEX
  5
356
330
340
100
AcDbEntity
  8
Ebene 1
370
     0
100
AcDbVertex
100
AcDb2dVertex
 10
607.529296875
 20
528.1474609375
 30
0.0
  0
VERTEX
  5
357
330
340
100
AcDbEntity
  8
Ebene 1
370
     0
100
AcDbVertex
100
AcDb2dVertex
 10
606.646484375
 20
530.44140625
 30
0.0
  0
SEQEND
  5
358
330
340
100
AcDbEntity
  8
Ebene 1
370
     0
  0
POLYLINE
  5
359
330
3C
100
AcDbEntity
  8
Ebene 1
370
     0
100
AcDb2dPolyline
 66
     1
 10
0.0
 20
0.0
 30
0.0
  0
VERTEX
  5
35A
330
359
100
AcDbEntity
  8
Ebene 1
370
     0
100
AcDbVertex
100
AcDb2dVertex
 10
625.837890625
 20
529.29443359375
 30
0.0
  0
VERTEX
  5
35B
330
359
100
AcDbEntity
  8
Ebene 1
370
     0
100
AcDbVertex
100
AcDb2dVertex
 10
624.912109375
 20
528.1474609375
 30
0.0
  0
VERTEX
  5
35C
330
359
100
AcDbEntity
  8
Ebene 1
370
     0
100
AcDbVertex
100
AcDb2dVertex
 10
625.837890625
 20
527.0
 30
0.0
  0
VERTEX
  5
35D
330
359
100
AcDbEntity
  8
Ebene 1
370
     0
100
AcDbVertex
100
AcDb2dVertex
 10
626.720703125
 20
528.1474609375
 30
0.0
  0
VERTEX
  5
35E
330
359
100
AcDbEntity
  8
Ebene 1
370
     0
100
AcDbVertex
100
AcDb2dVertex
 10
625.837890625
 20
529.29443359375
 30
0.0
  0
VERTEX
  5
35F
330
359
100
AcDbEntity
  8
Ebene 1
370
     0
100
AcDbVertex
100
AcDb2dVertex
 10
625.837890625
 20
529.29443359375
 30
0.0
  0
SEQEND
  5
360
330
359
100
AcDbEntity
  8
Ebene 1
370
     0
  0
POLYLINE
  5
361
330
3C
100
AcDbEntity
  8
Ebene 1
370
     0
100
AcDb2dPolyline
 66
     1
 10
0.0
 20
0.0
 30
0.0
  0
VERTEX
  5
362
330
361
100
AcDbEntity
  8
Ebene 1
370
     0
100
AcDbVertex
100
AcDb2dVertex
 10
-134.0
 20
239.353515625
 30
0.0
  0
VERTEX
  5
363
330
361
100
AcDbEntity
  8
Ebene 1
370
     0
100
AcDbVertex
100
AcDb2dVertex
 10
-134.0
 20
239.353515625
 30
0.0
  0
SEQEND
  5
364
330
361
100
AcDbEntity
  8
Ebene 1
370
     0
  0
POLYLINE
  5
365
330
3C
100
AcDbEntity
  8
Ebene 1
370
     0
100
AcDb2dPolyline
 66
     1
 10
0.0
 20
0.0
 30
0.0
  0
VERTEX
  5
366
330
365
100
AcDbEntity
  8
Ebene 1
370
     0
100
AcDbVertex
100
AcDb2dVertex
 10
-134.0
 20
239.353515625
 30
0.0
  0
VERTEX
  5
367
330
365
100
AcDbEntity
  8
Ebene 1
370
     0
100
AcDbVertex
100
AcDb2dVertex
 10
-134.0
 20
239.353515625
 30
0.0
  0
SEQEND
  5
368
330
365
100
AcDbEntity
  8
Ebene 1
370
     0
  0
POLYLINE
  5
369
330
3C
100
AcDbEntity
  8
Ebene 1
370
     0
100
AcDb2dPolyline
 66
     1
 10
0.0
 20
0.0
 30
0.0
  0
VERTEX
  5
36A
330
369
100
AcDbEntity
  8
Ebene 1
370
     0
100
AcDbVertex
100
AcDb2dVertex
 10
-134.0
 20
239.353515625
 30
0.0
  0
VERTEX
  5
36B
330
369
100
AcDbEntity
  8
Ebene 1
370
     0
100
AcDbVertex
100
AcDb2dVertex
 10
-134.0
 20
239.353515625
 30
0.0
  0
SEQEND
  5
36C
330
369
100
AcDbEntity
  8
Ebene 1
370
     0
  0
POLYLINE
  5
36D
330
3C
100
AcDbEntity
  8
Ebene 1
370
     0
100
AcDb2dPolyline
 66
     1
 10
0.0
 20
0.0
 30
0.0
  0
VERTEX
  5
36E
330
36D
100
AcDbEntity
  8
Ebene 1
370
     0
100
AcDbVertex
100
AcDb2dVertex
 10
644.103515625
 20
551.0
 30
0.0
  0
VERTEX
  5
36F
330
36D
100
AcDbEntity
  8
Ebene 1
370
     0
100
AcDbVertex
100
AcDb2dVertex
 10
634.970703125
 20
551.0
 30
0.0
  0
VERTEX
  5
370
330
36D
100
AcDbEntity
  8
Ebene 1
370
     0
100
AcDbVertex
100
AcDb2dVertex
 10
634.044921875
 20
540.720703125
 30
0.0
  0
VERTEX
  5
371
330
36D
100
AcDbEntity
  8
Ebene 1
370
     0
100
AcDbVertex
100
AcDb2dVertex
 10
634.970703125
 20
541.86767578125
 30
0.0
  0
VERTEX
  5
372
330
36D
100
AcDbEntity
  8
Ebene 1
370
     0
100
AcDbVertex
100
AcDb2dVertex
 10
637.705078125
 20
543.01513671875
 30
0.0
  0
VERTEX
  5
373
330
36D
100
AcDbEntity
  8
Ebene 1
370
     0
100
AcDbVertex
100
AcDb2dVertex
 10
640.44140625
 20
543.01513671875
 30
0.0
  0
VERTEX
  5
374
330
36D
100
AcDbEntity
  8
Ebene 1
370
     0
100
AcDbVertex
100
AcDb2dVertex
 10
643.17578125
 20
541.86767578125
 30
0.0
  0
VERTEX
  5
375
330
36D
100
AcDbEntity
  8
Ebene 1
370
     0
100
AcDbVertex
100
AcDb2dVertex
 10
645.029296875
 20
539.57373046875
 30
0.0
  0
VERTEX
  5
376
330
36D
100
AcDbEntity
  8
Ebene 1
370
     0
100
AcDbVertex
100
AcDb2dVertex
 10
645.912109375
 20
536.13232421875
 30
0.0
  0
VERTEX
  5
377
330
36D
100
AcDbEntity
  8
Ebene 1
370
     0
100
AcDbVertex
100
AcDb2dVertex
 10
645.912109375
 20
533.83837890625
 30
0.0
  0
VERTEX
  5
378
330
36D
100
AcDbEntity
  8
Ebene 1
370
     0
100
AcDbVertex
100
AcDb2dVertex
 10
645.029296875
 20
530.44140625
 30
0.0
  0
VERTEX
  5
379
330
36D
100
AcDbEntity
  8
Ebene 1
370
     0
100
AcDbVertex
100
AcDb2dVertex
 10
643.17578125
 20
528.1474609375
 30
0.0
  0
VERTEX
  5
37A
330
36D
100
AcDbEntity
  8
Ebene 1
370
     0
100
AcDbVertex
100
AcDb2dVertex
 10
640.44140625
 20
527.0
 30
0.0
  0
VERTEX
  5
37B
330
36D
100
AcDbEntity
  8
Ebene 1
370
     0
100
AcDbVertex
100
AcDb2dVertex
 10
637.705078125
 20
527.0
 30
0.0
  0
VERTEX
  5
37C
330
36D
100
AcDbEntity
  8
Ebene 1
370
     0
100
AcDbVertex
100
AcDb2dVertex
 10
634.970703125
 20
528.1474609375
 30
0.0
  0
VERTEX
  5
37D
330
36D
100
AcDbEntity
  8
Ebene 1
370
     0
100
AcDbVertex
100
AcDb2dVertex
 10
634.044921875
 20
529.29443359375
 30
0.0
  0
VERTEX
  5
37E
330
36D
100
AcDbEntity
  8
Ebene 1
370
     0
100
AcDbVertex
100
AcDb2dVertex
 10
633.1171875
 20
531.58837890625
 30
0.0
  0
SEQEND
  5
37F
330
36D
100
AcDbEntity
  8
Ebene 1
370
     0
  0
POLYLINE
  5
380
330
3C
100
AcDbEntity
  8
Ebene 1
370
     0
100
AcDb2dPolyline
 66
     1
 10
0.0
 20
0.0
 30
0.0
  0
VERTEX
  5
381
330
380
100
AcDbEntity
  8
Ebene 1
370
     0
100
AcDbVertex
100
AcDb2dVertex
 10
668.587890625
 20
365.1328125
 30
0.0
  0
VERTEX
  5
382
330
380
100
AcDbEntity
  8
Ebene 1
370
     0
100
AcDbVertex
100
AcDb2dVertex
 10
668.587890625
 20
470.57373046875
 30
0.0
  0
SEQEND
  5
383
330
380
100
AcDbEntity
  8
Ebene 1
370
     0
  0
POLYLINE
  5
384
330
3C
100
AcDbEntity
  8
Ebene 1
370
     0
100
AcDb2dPolyline
 66
     1
 10
0.0
 20
0.0
 30
0.0
  0
VERTEX
  5
385
330
384
100
AcDbEntity
  8
Ebene 1
370
     0
100
AcDbVertex
100
AcDb2dVertex
 10
440.7646484375
 20
369.146484375
 30
0.0
  0
VERTEX
  5
386
330
384
100
AcDbEntity
  8
Ebene 1
370
     0
100
AcDbVertex
100
AcDb2dVertex
 10
440.7646484375
 20
470.57373046875
 30
0.0
  0
SEQEND
  5
387
330
384
100
AcDbEntity
  8
Ebene 1
370
     0
  0
POLYLINE
  5
388
330
3C
100
AcDbEntity
  8
Ebene 1
370
     0
100
AcDb2dPolyline
 66
     1
 10
0.0
 20
0.0
 30
0.0
  0
VERTEX
  5
389
330
388
100
AcDbEntity
  8
Ebene 1
370
     0
100
AcDbVertex
100
AcDb2dVertex
 10
648.603515625
 20
454.55908203125
 30
0.0
  0
VERTEX
  5
38A
330
388
100
AcDbEntity
  8
Ebene 1
370
     0
100
AcDbVertex
100
AcDb2dVertex
 10
460.7939453125
 20
454.55908203125
 30
0.0
  0
SEQEND
  5
38B
330
388
100
AcDbEntity
  8
Ebene 1
370
     0
  0
POLYLINE
  5
38C
330
3C
100
AcDbEntity
  8
Ebene 1
370
     0
100
AcDb2dPolyline
 66
     1
 10
0.0
 20
0.0
 30
0.0
  0
VERTEX
  5
38D
330
38C
100
AcDbEntity
  8
Ebene 1
370
     0
100
AcDbVertex
100
AcDb2dVertex
 10
648.603515625
 20
457.86767578125
 30
0.0
  0
VERTEX
  5
38E
330
38C
100
AcDbEntity
  8
Ebene 1
370
     0
100
AcDbVertex
100
AcDb2dVertex
 10
648.603515625
 20
451.2060546875
 30
0.0
  0
VERTEX
  5
38F
330
38C
100
AcDbEntity
  8
Ebene 1
370
     0
100
AcDbVertex
100
AcDb2dVertex
 10
668.587890625
 20
454.55908203125
 30
0.0
  0
VERTEX
  5
390
330
38C
100
AcDbEntity
  8
Ebene 1
370
     0
100
AcDbVertex
100
AcDb2dVertex
 10
648.603515625
 20
457.86767578125
 30
0.0
  0
SEQEND
  5
391
330
38C
100
AcDbEntity
  8
Ebene 1
370
     0
  0
HATCH
  5
392
330
3C
100
AcDbEntity
  8
Ebene 1
 62
   251
420
  6710886
100
AcDbHatch
 10
0.0
 20
0.0
 30
0.0
210
0.0
220
0.0
230
1.0
  2
SOLID
 70
     1
 71
     0
 91
        1
 92
        1
 93
        3
 72
     1
 10
648.603515625
 20
457.86767578125
 11
648.603515625
 21
451.2060546875
 72
     1
 10
648.603515625
 20
451.2060546875
 11
668.587890625
 21
454.55908203125
 72
     1
 10
668.587890625
 20
454.55908203125
 11
648.603515625
 21
457.86767578125
 97
        0
 75
     0
 76
     1
 98
        0
  0
POLYLINE
  5
393
330
3C
100
AcDbEntity
  8
Ebene 1
370
     0
100
AcDb2dPolyline
 66
     1
 10
0.0
 20
0.0
 30
0.0
  0
VERTEX
  5
394
330
393
100
AcDbEntity
  8
Ebene 1
370
     0
100
AcDbVertex
100
AcDb2dVertex
 10
460.7939453125
 20
457.86767578125
 30
0.0
  0
VERTEX
  5
395
330
393
100
AcDbEntity
  8
Ebene 1
370
     0
100
AcDbVertex
100
AcDb2dVertex
 10
460.7939453125
 20
451.2060546875
 30
0.0
  0
VERTEX
  5
396
330
393
100
AcDbEntity
  8
Ebene 1
370
     0
100
AcDbVertex
100
AcDb2dVertex
 10
440.7646484375
 20
454.55908203125
 30
0.0
  0
VERTEX
  5
397
330
393
100
AcDbEntity
  8
Ebene 1
370
     0
100
AcDbVertex
100
AcDb2dVertex
 10
460.7939453125
 20
457.86767578125
 30
0.0
  0
SEQEND
  5
398
330
393
100
AcDbEntity
  8
Ebene 1
370
     0
  0
HATCH
  5
399
330
3C
100
AcDbEntity
  8
Ebene 1
 62
   251
420
  6710886
100
AcDbHatch
 10
0.0
 20
0.0
 30
0.0
210
0.0
220
0.0
230
1.0
  2
SOLID
 70
     1
 71
     0
 91
        1
 92
        1
 93
        3
 72
     1
 10
460.7939453125
 20
457.86767578125
 11
460.7939453125
 21
451.2060546875
 72
     1
 10
460.7939453125
 20
451.2060546875
 11
440.7646484375
 21
454.55908203125
 72
     1
 10
440.7646484375
 20
454.55908203125
 11
460.7939453125
 21
457.86767578125
 97
        0
 75
     0
 76
     1
 98
        0
  0
POLYLINE
  5
39A
330
3C
100
AcDbEntity
  8
Ebene 1
370
     0
100
AcDb2dPolyline
 66
     1
 10
0.0
 20
0.0
 30
0.0
  0
VERTEX
  5
39B
330
39A
100
AcDbEntity
  8
Ebene 1
370
     0
100
AcDbVertex
100
AcDb2dVertex
 10
-134.0
 20
239.353515625
 30
0.0
  0
VERTEX
  5
39C
330
39A
100
AcDbEntity
  8
Ebene 1
370
     0
100
AcDbVertex
100
AcDb2dVertex
 10
-134.0
 20
239.353515625
 30
0.0
  0
SEQEND
  5
39D
330
39A
100
AcDbEntity
  8
Ebene 1
370
     0
  0
POLYLINE
  5
39E
330
3C
100
AcDbEntity
  8
Ebene 1
370
     0
100
AcDb2dPolyline
 66
     1
 10
0.0
 20
0.0
 30
0.0
  0
VERTEX
  5
39F
330
39E
100
AcDbEntity
  8
Ebene 1
370
     0
100
AcDbVertex
100
AcDb2dVertex
 10
-134.0
 20
239.353515625
 30
0.0
  0
VERTEX
  5
3A0
330
39E
100
AcDbEntity
  8
Ebene 1
370
     0
100
AcDbVertex
100
AcDb2dVertex
 10
-134.0
 20
239.353515625
 30
0.0
  0
SEQEND
  5
3A1
330
39E
100
AcDbEntity
  8
Ebene 1
370
     0
  0
POLYLINE
  5
3A2
330
3C
100
AcDbEntity
  8
Ebene 1
370
     0
100
AcDb2dPolyline
 66
     1
 10
0.0
 20
0.0
 30
0.0
  0
VERTEX
  5
3A3
330
3A2
100
AcDbEntity
  8
Ebene 1
370
     0
100
AcDbVertex
100
AcDb2dVertex
 10
-134.0
 20
239.353515625
 30
0.0
  0
VERTEX
  5
3A4
330
3A2
100
AcDbEntity
  8
Ebene 1
370
     0
100
AcDbVertex
100
AcDb2dVertex
 10
-134.0
 20
239.353515625
 30
0.0
  0
SEQEND
  5
3A5
330
3A2
100
AcDbEntity
  8
Ebene 1
370
     0
  0
POLYLINE
  5
3A6
330
3C
100
AcDbEntity
  8
Ebene 1
370
     0
100
AcDb2dPolyline
 66
     1
 10
0.0
 20
0.0
 30
0.0
  0
VERTEX
  5
3A7
330
3A6
100
AcDbEntity
  8
Ebene 1
370
     0
100
AcDbVertex
100
AcDb2dVertex
 10
550.1328125
 20
486.54443359375
 30
0.0
  0
VERTEX
  5
3A8
330
3A6
100
AcDbEntity
  8
Ebene 1
370
     0
100
AcDbVertex
100
AcDb2dVertex
 10
541.0
 20
486.54443359375
 30
0.0
  0
VERTEX
  5
3A9
330
3A6
100
AcDbEntity
  8
Ebene 1
370
     0
100
AcDbVertex
100
AcDb2dVertex
 10
540.07421875
 20
476.26513671875
 30
0.0
  0
VERTEX
  5
3AA
330
3A6
100
AcDbEntity
  8
Ebene 1
370
     0
100
AcDbVertex
100
AcDb2dVertex
 10
541.0
 20
477.412109375
 30
0.0
  0
VERTEX
  5
3AB
330
3A6
100
AcDbEntity
  8
Ebene 1
370
     0
100
AcDbVertex
100
AcDb2dVertex
 10
543.7353515625
 20
478.55908203125
 30
0.0
  0
VERTEX
  5
3AC
330
3A6
100
AcDbEntity
  8
Ebene 1
370
     0
100
AcDbVertex
100
AcDb2dVertex
 10
546.470703125
 20
478.55908203125
 30
0.0
  0
VERTEX
  5
3AD
330
3A6
100
AcDbEntity
  8
Ebene 1
370
     0
100
AcDbVertex
100
AcDb2dVertex
 10
549.2060546875
 20
477.412109375
 30
0.0
  0
VERTEX
  5
3AE
330
3A6
100
AcDbEntity
  8
Ebene 1
370
     0
100
AcDbVertex
100
AcDb2dVertex
 10
551.05859375
 20
475.11767578125
 30
0.0
  0
VERTEX
  5
3AF
330
3A6
100
AcDbEntity
  8
Ebene 1
370
     0
100
AcDbVertex
100
AcDb2dVertex
 10
551.94140625
 20
471.6767578125
 30
0.0
  0
VERTEX
  5
3B0
330
3A6
100
AcDbEntity
  8
Ebene 1
370
     0
100
AcDbVertex
100
AcDb2dVertex
 10
551.94140625
 20
469.4267578125
 30
0.0
  0
VERTEX
  5
3B1
330
3A6
100
AcDbEntity
  8
Ebene 1
370
     0
100
AcDbVertex
100
AcDb2dVertex
 10
551.05859375
 20
465.9853515625
 30
0.0
  0
VERTEX
  5
3B2
330
3A6
100
AcDbEntity
  8
Ebene 1
370
     0
100
AcDbVertex
100
AcDb2dVertex
 10
549.2060546875
 20
463.69140625
 30
0.0
  0
VERTEX
  5
3B3
330
3A6
100
AcDbEntity
  8
Ebene 1
370
     0
100
AcDbVertex
100
AcDb2dVertex
 10
546.470703125
 20
462.54443359375
 30
0.0
  0
VERTEX
  5
3B4
330
3A6
100
AcDbEntity
  8
Ebene 1
370
     0
100
AcDbVertex
100
AcDb2dVertex
 10
543.7353515625
 20
462.54443359375
 30
0.0
  0
VERTEX
  5
3B5
330
3A6
100
AcDbEntity
  8
Ebene 1
370
     0
100
AcDbVertex
100
AcDb2dVertex
 10
541.0
 20
463.69140625
 30
0.0
  0
VERTEX
  5
3B6
330
3A6
100
AcDbEntity
  8
Ebene 1
370
     0
100
AcDbVertex
100
AcDb2dVertex
 10
540.07421875
 20
464.83837890625
 30
0.0
  0
VERTEX
  5
3B7
330
3A6
100
AcDbEntity
  8
Ebene 1
370
     0
100
AcDbVertex
100
AcDb2dVertex
 10
539.146484375
 20
467.13232421875
 30
0.0
  0
SEQEND
  5
3B8
330
3A6
100
AcDbEntity
  8
Ebene 1
370
     0
  0
POLYLINE
  5
3B9
330
3C
100
AcDbEntity
  8
Ebene 1
370
     0
100
AcDb2dPolyline
 66
     1
 10
0.0
 20
0.0
 30
0.0
  0
VERTEX
  5
3BA
330
3B9
100
AcDbEntity
  8
Ebene 1
370
     0
100
AcDbVertex
100
AcDb2dVertex
 10
570.2060546875
 20
486.54443359375
 30
0.0
  0
VERTEX
  5
3BB
330
3B9
100
AcDbEntity
  8
Ebene 1
370
     0
100
AcDbVertex
100
AcDb2dVertex
 10
561.07421875
 20
462.54443359375
 30
0.0
  0
SEQEND
  5
3BC
330
3B9
100
AcDbEntity
  8
Ebene 1
370
     0
  0
POLYLINE
  5
3BD
330
3C
100
AcDbEntity
  8
Ebene 1
370
     0
100
AcDb2dPolyline
 66
     1
 10
0.0
 20
0.0
 30
0.0
  0
VERTEX
  5
3BE
330
3BD
100
AcDbEntity
  8
Ebene 1
370
     0
100
AcDbVertex
100
AcDb2dVertex
 10
557.412109375
 20
486.54443359375
 30
0.0
  0
VERTEX
  5
3BF
330
3BD
100
AcDbEntity
  8
Ebene 1
370
     0
100
AcDbVertex
100
AcDb2dVertex
 10
570.2060546875
 20
486.54443359375
 30
0.0
  0
SEQEND
  5
3C0
330
3BD
100
AcDbEntity
  8
Ebene 1
370
     0
  0
POLYLINE
  5
3C1
330
3C
100
AcDbEntity
  8
Ebene 1
370
     0
100
AcDb2dPolyline
 66
     1
 10
0.0
 20
0.0
 30
0.0
  0
VERTEX
  5
3C2
330
3C1
100
AcDbEntity
  8
Ebene 1
370
     0
100
AcDbVertex
100
AcDb2dVertex
 10
442.30859375
 20
257.1328125
 30
0.0
  0
VERTEX
  5
3C3
330
3C1
100
AcDbEntity
  8
Ebene 1
370
     0
100
AcDbVertex
100
AcDb2dVertex
 10
392.94140625
 20
257.1328125
 30
0.0
  0
SEQEND
  5
3C4
330
3C1
100
AcDbEntity
  8
Ebene 1
370
     0
  0
POLYLINE
  5
3C5
330
3C
100
AcDbEntity
  8
Ebene 1
370
     0
100
AcDb2dPolyline
 66
     1
 10
0.0
 20
0.0
 30
0.0
  0
VERTEX
  5
3C6
330
3C5
100
AcDbEntity
  8
Ebene 1
370
     0
100
AcDbVertex
100
AcDb2dVertex
 10
445.0
 20
425.13232421875
 30
0.0
  0
VERTEX
  5
3C7
330
3C5
100
AcDbEntity
  8
Ebene 1
370
     0
100
AcDbVertex
100
AcDb2dVertex
 10
392.94140625
 20
425.13232421875
 30
0.0
  0
SEQEND
  5
3C8
330
3C5
100
AcDbEntity
  8
Ebene 1
370
     0
  0
POLYLINE
  5
3C9
330
3C
100
AcDbEntity
  8
Ebene 1
370
     0
100
AcDb2dPolyline
 66
     1
 10
0.0
 20
0.0
 30
0.0
  0
VERTEX
  5
3CA
330
3C9
100
AcDbEntity
  8
Ebene 1
370
     0
100
AcDbVertex
100
AcDb2dVertex
 10
408.9560546875
 20
277.1171875
 30
0.0
  0
VERTEX
  5
3CB
330
3C9
100
AcDbEntity
  8
Ebene 1
370
     0
100
AcDbVertex
100
AcDb2dVertex
 10
408.9560546875
 20
405.1474609375
 30
0.0
  0
SEQEND
  5
3CC
330
3C9
100
AcDbEntity
  8
Ebene 1
370
     0
  0
POLYLINE
  5
3CD
330
3C
100
AcDbEntity
  8
Ebene 1
370
     0
100
AcDb2dPolyline
 66
     1
 10
0.0
 20
0.0
 30
0.0
  0
VERTEX
  5
3CE
330
3CD
100
AcDbEntity
  8
Ebene 1
370
     0
100
AcDbVertex
100
AcDb2dVertex
 10
405.603515625
 20
277.1171875
 30
0.0
  0
VERTEX
  5
3CF
330
3CD
100
AcDbEntity
  8
Ebene 1
370
     0
100
AcDbVertex
100
AcDb2dVertex
 10
412.2646484375
 20
277.1171875
 30
0.0
  0
VERTEX
  5
3D0
330
3CD
100
AcDbEntity
  8
Ebene 1
370
     0
100
AcDbVertex
100
AcDb2dVertex
 10
408.9560546875
 20
257.1328125
 30
0.0
  0
VERTEX
  5
3D1
330
3CD
100
AcDbEntity
  8
Ebene 1
370
     0
100
AcDbVertex
100
AcDb2dVertex
 10
405.603515625
 20
277.1171875
 30
0.0
  0
SEQEND
  5
3D2
330
3CD
100
AcDbEntity
  8
Ebene 1
370
     0
  0
HATCH
  5
3D3
330
3C
100
AcDbEntity
  8
Ebene 1
 62
   251
420
  6710886
100
AcDbHatch
 10
0.0
 20
0.0
 30
0.0
210
0.0
220
0.0
230
1.0
  2
SOLID
 70
     1
 71
     0
 91
        1
 92
        1
 93
        3
 72
     1
 10
405.603515625
 20
277.1171875
 11
412.2646484375
 21
277.1171875
 72
     1
 10
412.2646484375
 20
277.1171875
 11
408.9560546875
 21
257.1328125
 72
     1
 10
408.9560546875
 20
257.1328125
 11
405.603515625
 21
277.1171875
 97
        0
 75
     0
 76
     1
 98
        0
  0
POLYLINE
  5
3D4
330
3C
100
AcDbEntity
  8
Ebene 1
370
     0
100
AcDb2dPolyline
 66
     1
 10
0.0
 20
0.0
 30
0.0
  0
VERTEX
  5
3D5
330
3D4
100
AcDbEntity
  8
Ebene 1
370
     0
100
AcDbVertex
100
AcDb2dVertex
 10
405.603515625
 20
405.1474609375
 30
0.0
  0
VERTEX
  5
3D6
330
3D4
100
AcDbEntity
  8
Ebene 1
370
     0
100
AcDbVertex
100
AcDb2dVertex
 10
412.2646484375
 20
405.1474609375
 30
0.0
  0
VERTEX
  5
3D7
330
3D4
100
AcDbEntity
  8
Ebene 1
370
     0
100
AcDbVertex
100
AcDb2dVertex
 10
408.9560546875
 20
425.13232421875
 30
0.0
  0
VERTEX
  5
3D8
330
3D4
100
AcDbEntity
  8
Ebene 1
370
     0
100
AcDbVertex
100
AcDb2dVertex
 10
405.603515625
 20
405.1474609375
 30
0.0
  0
SEQEND
  5
3D9
330
3D4
100
AcDbEntity
  8
Ebene 1
370
     0
  0
HATCH
  5
3DA
330
3C
100
AcDbEntity
  8
Ebene 1
 62
   251
420
  6710886
100
AcDbHatch
 10
0.0
 20
0.0
 30
0.0
210
0.0
220
0.0
230
1.0
  2
SOLID
 70
     1
 71
     0
 91
        1
 92
        1
 93
        3
 72
     1
 10
405.603515625
 20
405.1474609375
 11
412.2646484375
 21
405.1474609375
 72
     1
 10
412.2646484375
 20
405.1474609375
 11
408.9560546875
 21
425.13232421875
 72
     1
 10
408.9560546875
 20
425.13232421875
 11
405.603515625
 21
405.1474609375
 97
        0
 75
     0
 76
     1
 98
        0
  0
POLYLINE
  5
3DB
330
3C
100
AcDbEntity
  8
Ebene 1
370
     0
100
AcDb2dPolyline
 66
     1
 10
0.0
 20
0.0
 30
0.0
  0
VERTEX
  5
3DC
330
3DB
100
AcDbEntity
  8
Ebene 1
370
     0
100
AcDbVertex
100
AcDb2dVertex
 10
-134.0
 20
239.353515625
 30
0.0
  0
VERTEX
  5
3DD
330
3DB
100
AcDbEntity
  8
Ebene 1
370
     0
100
AcDbVertex
100
AcDb2dVertex
 10
-134.0
 20
239.353515625
 30
0.0
  0
SEQEND
  5
3DE
330
3DB
100
AcDbEntity
  8
Ebene 1
370
     0
  0
POLYLINE
  5
3DF
330
3C
100
AcDbEntity
  8
Ebene 1
370
     0
100
AcDb2dPolyline
 66
     1
 10
0.0
 20
0.0
 30
0.0
  0
VERTEX
  5
3E0
330
3DF
100
AcDbEntity
  8
Ebene 1
370
     0
100
AcDbVertex
100
AcDb2dVertex
 10
-134.0
 20
239.353515625
 30
0.0
  0
VERTEX
  5
3E1
330
3DF
100
AcDbEntity
  8
Ebene 1
370
     0
100
AcDbVertex
100
AcDb2dVertex
 10
-134.0
 20
239.353515625
 30
0.0
  0
SEQEND
  5
3E2
330
3DF
100
AcDbEntity
  8
Ebene 1
370
     0
  0
POLYLINE
  5
3E3
330
3C
100
AcDbEntity
  8
Ebene 1
370
     0
100
AcDb2dPolyline
 66
     1
 10
0.0
 20
0.0
 30
0.0
  0
VERTEX
  5
3E4
330
3E3
100
AcDbEntity
  8
Ebene 1
370
     0
100
AcDbVertex
100
AcDb2dVertex
 10
-134.0
 20
239.353515625
 30
0.0
  0
VERTEX
  5
3E5
330
3E3
100
AcDbEntity
  8
Ebene 1
370
     0
100
AcDbVertex
100
AcDb2dVertex
 10
-134.0
 20
239.353515625
 30
0.0
  0
SEQEND
  5
3E6
330
3E3
100
AcDbEntity
  8
Ebene 1
370
     0
  0
POLYLINE
  5
3E7
330
3C
100
AcDbEntity
  8
Ebene 1
370
     0
100
AcDb2dPolyline
 66
     1
 10
0.0
 20
0.0
 30
0.0
  0
VERTEX
  5
3E8
330
3E7
100
AcDbEntity
  8
Ebene 1
370
     0
100
AcDbVertex
100
AcDb2dVertex
 10
376.970703125
 20
334.736328125
 30
0.0
  0
VERTEX
  5
3E9
330
3E7
100
AcDbEntity
  8
Ebene 1
370
     0
100
AcDbVertex
100
AcDb2dVertex
 10
392.94140625
 20
325.603515625
 30
0.0
  0
VERTEX
  5
3EA
330
3E7
100
AcDbEntity
  8
Ebene 1
370
     0
100
AcDbVertex
100
AcDb2dVertex
 10
392.94140625
 20
339.32421875
 30
0.0
  0
SEQEND
  5
3EB
330
3E7
100
AcDbEntity
  8
Ebene 1
370
     0
  0
POLYLINE
  5
3EC
330
3C
100
AcDbEntity
  8
Ebene 1
370
     0
100
AcDb2dPolyline
 66
     1
 10
0.0
 20
0.0
 30
0.0
  0
VERTEX
  5
3ED
330
3EC
100
AcDbEntity
  8
Ebene 1
370
     0
100
AcDbVertex
100
AcDb2dVertex
 10
376.970703125
 20
334.736328125
 30
0.0
  0
VERTEX
  5
3EE
330
3EC
100
AcDbEntity
  8
Ebene 1
370
     0
100
AcDbVertex
100
AcDb2dVertex
 10
400.92578125
 20
334.736328125
 30
0.0
  0
SEQEND
  5
3EF
330
3EC
100
AcDbEntity
  8
Ebene 1
370
     0
  0
POLYLINE
  5
3F0
330
3C
100
AcDbEntity
  8
Ebene 1
370
     0
100
AcDb2dPolyline
 66
     1
 10
0.0
 20
0.0
 30
0.0
  0
VERTEX
  5
3F1
330
3F0
100
AcDbEntity
  8
Ebene 1
370
     0
100
AcDbVertex
100
AcDb2dVertex
 10
382.662109375
 20
344.794921875
 30
0.0
  0
VERTEX
  5
3F2
330
3F0
100
AcDbEntity
  8
Ebene 1
370
     0
100
AcDbVertex
100
AcDb2dVertex
 10
381.5146484375
 20
344.794921875
 30
0.0
  0
VERTEX
  5
3F3
330
3F0
100
AcDbEntity
  8
Ebene 1
370
     0
100
AcDbVertex
100
AcDb2dVertex
 10
379.220703125
 20
345.720703125
 30
0.0
  0
VERTEX
  5
3F4
330
3F0
100
AcDbEntity
  8
Ebene 1
370
     0
100
AcDbVertex
100
AcDb2dVertex
 10
378.07421875
 20
346.603515625
 30
0.0
  0
VERTEX
  5
3F5
330
3F0
100
AcDbEntity
  8
Ebene 1
370
     0
100
AcDbVertex
100
AcDb2dVertex
 10
376.970703125
 20
348.45703125
 30
0.0
  0
VERTEX
  5
3F6
330
3F0
100
AcDbEntity
  8
Ebene 1
370
     0
100
AcDbVertex
100
AcDb2dVertex
 10
376.970703125
 20
352.1171875
 30
0.0
  0
VERTEX
  5
3F7
330
3F0
100
AcDbEntity
  8
Ebene 1
370
     0
100
AcDbVertex
100
AcDb2dVertex
 10
378.07421875
 20
353.92578125
 30
0.0
  0
VERTEX
  5
3F8
330
3F0
100
AcDbEntity
  8
Ebene 1
370
     0
100
AcDbVertex
100
AcDb2dVertex
 10
379.220703125
 20
354.853515625
 30
0.0
  0
VERTEX
  5
3F9
330
3F0
100
AcDbEntity
  8
Ebene 1
370
     0
100
AcDbVertex
100
AcDb2dVertex
 10
381.5146484375
 20
355.779296875
 30
0.0
  0
VERTEX
  5
3FA
330
3F0
100
AcDbEntity
  8
Ebene 1
370
     0
100
AcDbVertex
100
AcDb2dVertex
 10
383.80859375
 20
355.779296875
 30
0.0
  0
VERTEX
  5
3FB
330
3F0
100
AcDbEntity
  8
Ebene 1
370
     0
100
AcDbVertex
100
AcDb2dVertex
 10
386.103515625
 20
354.853515625
 30
0.0
  0
VERTEX
  5
3FC
330
3F0
100
AcDbEntity
  8
Ebene 1
370
     0
100
AcDbVertex
100
AcDb2dVertex
 10
389.5
 20
353.0
 30
0.0
  0
VERTEX
  5
3FD
330
3F0
100
AcDbEntity
  8
Ebene 1
370
     0
100
AcDbVertex
100
AcDb2dVertex
 10
400.92578125
 20
343.8671875
 30
0.0
  0
VERTEX
  5
3FE
330
3F0
100
AcDbEntity
  8
Ebene 1
370
     0
100
AcDbVertex
100
AcDb2dVertex
 10
400.92578125
 20
356.662109375
 30
0.0
  0
SEQEND
  5
3FF
330
3F0
100
AcDbEntity
  8
Ebene 1
370
     0
  0
POLYLINE
  5
400
330
3C
100
AcDbEntity
  8
Ebene 1
370
     0
100
AcDb2dPolyline
 66
     1
 10
0.0
 20
0.0
 30
0.0
  0
VERTEX
  5
401
330
400
100
AcDbEntity
  8
Ebene 1
370
     0
100
AcDbVertex
100
AcDb2dVertex
 10
685.75
 20
370.515625
 30
0.0
  0
VERTEX
  5
402
330
400
100
AcDbEntity
  8
Ebene 1
370
     0
100
AcDbVertex
100
AcDb2dVertex
 10
685.75
 20
392.4853515625
 30
0.0
  0
SEQEND
  5
403
330
400
100
AcDbEntity
  8
Ebene 1
370
     0
  0
POLYLINE
  5
404
330
3C
100
AcDbEntity
  8
Ebene 1
370
     0
100
AcDb2dPolyline
 66
     1
 10
0.0
 20
0.0
 30
0.0
  0
VERTEX
  5
405
330
404
100
AcDbEntity
  8
Ebene 1
370
     0
100
AcDbVertex
100
AcDb2dVertex
 10
682.1328125
 20
370.3828125
 30
0.0
  0
VERTEX
  5
406
330
404
100
AcDbEntity
  8
Ebene 1
370
     0
100
AcDbVertex
100
AcDb2dVertex
 10
682.1328125
 20
370.515625
 30
0.0
  0
SEQEND
  5
407
330
404
100
AcDbEntity
  8
Ebene 1
370
     0
  0
POLYLINE
  5
408
330
3C
100
AcDbEntity
  8
Ebene 1
370
     0
100
AcDb2dPolyline
 66
     1
 10
0.0
 20
0.0
 30
0.0
  0
VERTEX
  5
409
330
408
100
AcDbEntity
  8
Ebene 1
370
     0
100
AcDbVertex
100
AcDb2dVertex
 10
682.1328125
 20
392.4853515625
 30
0.0
  0
VERTEX
  5
40A
330
408
100
AcDbEntity
  8
Ebene 1
370
     0
100
AcDbVertex
100
AcDb2dVertex
 10
682.1328125
 20
392.6171875
 30
0.0
  0
SEQEND
  5
40B
330
408
100
AcDbEntity
  8
Ebene 1
370
     0
  0
POLYLINE
  5
40C
330
3C
100
AcDbEntity
  8
Ebene 1
370
     0
100
AcDb2dPolyline
 66
     1
 10
0.0
 20
0.0
 30
0.0
  0
VERTEX
  5
40D
330
40C
100
AcDbEntity
  8
Ebene 1
370
     0
100
AcDbVertex
100
AcDb2dVertex
 10
678.07421875
 20
350.265625
 30
0.0
  0
VERTEX
  5
40E
330
40C
100
AcDbEntity
  8
Ebene 1
370
     0
100
AcDbVertex
100
AcDb2dVertex
 10
678.07421875
 20
353.265625
 30
0.0
  0
SEQEND
  5
40F
330
40C
100
AcDbEntity
  8
Ebene 1
370
     0
  0
POLYLINE
  5
410
330
3C
100
AcDbEntity
  8
Ebene 1
370
     0
100
AcDb2dPolyline
 66
     1
 10
0.0
 20
0.0
 30
0.0
  0
VERTEX
  5
411
330
410
100
AcDbEntity
  8
Ebene 1
370
     0
100
AcDbVertex
100
AcDb2dVertex
 10
678.07421875
 20
361.25
 30
0.0
  0
VERTEX
  5
412
330
410
100
AcDbEntity
  8
Ebene 1
370
     0
100
AcDbVertex
100
AcDb2dVertex
 10
678.07421875
 20
362.353515625
 30
0.0
  0
SEQEND
  5
413
330
410
100
AcDbEntity
  8
Ebene 1
370
     0
  0
POLYLINE
  5
414
330
3C
100
AcDbEntity
  8
Ebene 1
370
     0
100
AcDb2dPolyline
 66
     1
 10
0.0
 20
0.0
 30
0.0
  0
VERTEX
  5
415
330
414
100
AcDbEntity
  8
Ebene 1
370
     0
100
AcDbVertex
100
AcDb2dVertex
 10
678.07421875
 20
400.60302734375
 30
0.0
  0
VERTEX
  5
416
330
414
100
AcDbEntity
  8
Ebene 1
370
     0
100
AcDbVertex
100
AcDb2dVertex
 10
678.07421875
 20
401.26513671875
 30
0.0
  0
SEQEND
  5
417
330
414
100
AcDbEntity
  8
Ebene 1
370
     0
  0
POLYLINE
  5
418
330
3C
100
AcDbEntity
  8
Ebene 1
370
     0
100
AcDb2dPolyline
 66
     1
 10
0.0
 20
0.0
 30
0.0
  0
VERTEX
  5
419
330
418
100
AcDbEntity
  8
Ebene 1
370
     0
100
AcDbVertex
100
AcDb2dVertex
 10
678.07421875
 20
409.25
 30
0.0
  0
VERTEX
  5
41A
330
418
100
AcDbEntity
  8
Ebene 1
370
     0
100
AcDbVertex
100
AcDb2dVertex
 10
678.07421875
 20
412.25
 30
0.0
  0
SEQEND
  5
41B
330
418
100
AcDbEntity
  8
Ebene 1
370
     0
  0
POLYLINE
  5
41C
330
3C
100
AcDbEntity
  8
Ebene 1
370
     0
100
AcDb2dPolyline
 66
     1
 10
0.0
 20
0.0
 30
0.0
  0
VERTEX
  5
41D
330
41C
100
AcDbEntity
  8
Ebene 1
370
     0
100
AcDbVertex
100
AcDb2dVertex
 10
695.80859375
 20
392.6171875
 30
0.0
  0
VERTEX
  5
41E
330
41C
100
AcDbEntity
  8
Ebene 1
370
     0
100
AcDbVertex
100
AcDb2dVertex
 10
695.80859375
 20
400.60302734375
 30
0.0
  0
SEQEND
  5
41F
330
41C
100
AcDbEntity
  8
Ebene 1
370
     0
  0
POLYLINE
  5
420
330
3C
100
AcDbEntity
  8
Ebene 1
370
     0
100
AcDb2dPolyline
 66
     1
 10
0.0
 20
0.0
 30
0.0
  0
VERTEX
  5
421
330
420
100
AcDbEntity
  8
Ebene 1
370
     0
100
AcDbVertex
100
AcDb2dVertex
 10
695.80859375
 20
362.353515625
 30
0.0
  0
VERTEX
  5
422
330
420
100
AcDbEntity
  8
Ebene 1
370
     0
100
AcDbVertex
100
AcDb2dVertex
 10
695.80859375
 20
370.3828125
 30
0.0
  0
SEQEND
  5
423
330
420
100
AcDbEntity
  8
Ebene 1
370
     0
  0
POLYLINE
  5
424
330
3C
100
AcDbEntity
  8
Ebene 1
370
     0
100
AcDb2dPolyline
 66
     1
 10
0.0
 20
0.0
 30
0.0
  0
VERTEX
  5
425
330
424
100
AcDbEntity
  8
Ebene 1
370
     0
100
AcDbVertex
100
AcDb2dVertex
 10
668.19140625
 20
370.515625
 30
0.0
  0
VERTEX
  5
426
330
424
100
AcDbEntity
  8
Ebene 1
370
     0
100
AcDbVertex
100
AcDb2dVertex
 10
685.75
 20
370.515625
 30
0.0
  0
SEQEND
  5
427
330
424
100
AcDbEntity
  8
Ebene 1
370
     0
  0
POLYLINE
  5
428
330
3C
100
AcDbEntity
  8
Ebene 1
370
     0
100
AcDb2dPolyline
 66
     1
 10
0.0
 20
0.0
 30
0.0
  0
VERTEX
  5
429
330
428
100
AcDbEntity
  8
Ebene 1
370
     0
100
AcDbVertex
100
AcDb2dVertex
 10
667.8828125
 20
392.4853515625
 30
0.0
  0
VERTEX
  5
42A
330
428
100
AcDbEntity
  8
Ebene 1
370
     0
100
AcDbVertex
100
AcDb2dVertex
 10
685.75
 20
392.4853515625
 30
0.0
  0
SEQEND
  5
42B
330
428
100
AcDbEntity
  8
Ebene 1
370
     0
  0
POLYLINE
  5
42C
330
3C
100
AcDbEntity
  8
Ebene 1
370
     0
100
AcDb2dPolyline
 66
     1
 10
0.0
 20
0.0
 30
0.0
  0
VERTEX
  5
42D
330
42C
100
AcDbEntity
  8
Ebene 1
370
     0
100
AcDbVertex
100
AcDb2dVertex
 10
668.455078125
 20
350.265625
 30
0.0
  0
VERTEX
  5
42E
330
42C
100
AcDbEntity
  8
Ebene 1
370
     0
100
AcDbVertex
100
AcDb2dVertex
 10
678.07421875
 20
350.265625
 30
0.0
  0
SEQEND
  5
42F
330
42C
100
AcDbEntity
  8
Ebene 1
370
     0
  0
POLYLINE
  5
430
330
3C
100
AcDbEntity
  8
Ebene 1
370
     0
100
AcDb2dPolyline
 66
     1
 10
0.0
 20
0.0
 30
0.0
  0
VERTEX
  5
431
330
430
100
AcDbEntity
  8
Ebene 1
370
     0
100
AcDbVertex
100
AcDb2dVertex
 10
667.6171875
 20
412.25
 30
0.0
  0
VERTEX
  5
432
330
430
100
AcDbEntity
  8
Ebene 1
370
     0
100
AcDbVertex
100
AcDb2dVertex
 10
678.07421875
 20
412.25
 30
0.0
  0
SEQEND
  5
433
330
430
100
AcDbEntity
  8
Ebene 1
370
     0
  0
POLYLINE
  5
434
330
3C
100
AcDbEntity
  8
Ebene 1
370
     0
100
AcDb2dPolyline
 66
     1
 10
0.0
 20
0.0
 30
0.0
  0
VERTEX
  5
435
330
434
100
AcDbEntity
  8
Ebene 1
370
     0
100
AcDbVertex
100
AcDb2dVertex
 10
693.779296875
 20
392.6171875
 30
0.0
  0
VERTEX
  5
436
330
434
100
AcDbEntity
  8
Ebene 1
370
     0
100
AcDbVertex
100
AcDb2dVertex
 10
693.779296875
 20
400.60302734375
 30
0.0
  0
SEQEND
  5
437
330
434
100
AcDbEntity
  8
Ebene 1
370
     0
  0
POLYLINE
  5
438
330
3C
100
AcDbEntity
  8
Ebene 1
370
     0
100
AcDb2dPolyline
 66
     1
 10
0.0
 20
0.0
 30
0.0
  0
VERTEX
  5
439
330
438
100
AcDbEntity
  8
Ebene 1
370
     0
100
AcDbVertex
100
AcDb2dVertex
 10
667.8828125
 20
392.6171875
 30
0.0
  0
VERTEX
  5
43A
330
438
100
AcDbEntity
  8
Ebene 1
370
     0
100
AcDbVertex
100
AcDb2dVertex
 10
693.779296875
 20
392.6171875
 30
0.0
  0
SEQEND
  5
43B
330
438
100
AcDbEntity
  8
Ebene 1
370
     0
  0
POLYLINE
  5
43C
330
3C
100
AcDbEntity
  8
Ebene 1
370
     0
100
AcDb2dPolyline
 66
     1
 10
0.0
 20
0.0
 30
0.0
  0
VERTEX
  5
43D
330
43C
100
AcDbEntity
  8
Ebene 1
370
     0
100
AcDbVertex
100
AcDb2dVertex
 10
667.794921875
 20
400.60302734375
 30
0.0
  0
VERTEX
  5
43E
330
43C
100
AcDbEntity
  8
Ebene 1
370
     0
100
AcDbVertex
100
AcDb2dVertex
 10
693.779296875
 20
400.60302734375
 30
0.0
  0
SEQEND
  5
43F
330
43C
100
AcDbEntity
  8
Ebene 1
370
     0
  0
POLYLINE
  5
440
330
3C
100
AcDbEntity
  8
Ebene 1
370
     0
100
AcDb2dPolyline
 66
     1
 10
0.0
 20
0.0
 30
0.0
  0
VERTEX
  5
441
330
440
100
AcDbEntity
  8
Ebene 1
370
     0
100
AcDbVertex
100
AcDb2dVertex
 10
695.80859375
 20
392.6171875
 30
0.0
  0
VERTEX
  5
442
330
440
100
AcDbEntity
  8
Ebene 1
370
     0
100
AcDbVertex
100
AcDb2dVertex
 10
693.779296875
 20
392.6171875
 30
0.0
  0
SEQEND
  5
443
330
440
100
AcDbEntity
  8
Ebene 1
370
     0
  0
POLYLINE
  5
444
330
3C
100
AcDbEntity
  8
Ebene 1
370
     0
100
AcDb2dPolyline
 66
     1
 10
0.0
 20
0.0
 30
0.0
  0
VERTEX
  5
445
330
444
100
AcDbEntity
  8
Ebene 1
370
     0
100
AcDbVertex
100
AcDb2dVertex
 10
693.779296875
 20
400.60302734375
 30
0.0
  0
VERTEX
  5
446
330
444
100
AcDbEntity
  8
Ebene 1
370
     0
100
AcDbVertex
100
AcDb2dVertex
 10
695.80859375
 20
400.60302734375
 30
0.0
  0
SEQEND
  5
447
330
444
100
AcDbEntity
  8
Ebene 1
370
     0
  0
POLYLINE
  5
448
330
3C
100
AcDbEntity
  8
Ebene 1
370
     0
100
AcDb2dPolyline
 66
     1
 10
0.0
 20
0.0
 30
0.0
  0
VERTEX
  5
449
330
448
100
AcDbEntity
  8
Ebene 1
370
     0
100
AcDbVertex
100
AcDb2dVertex
 10
693.779296875
 20
362.353515625
 30
0.0
  0
VERTEX
  5
44A
330
448
100
AcDbEntity
  8
Ebene 1
370
     0
100
AcDbVertex
100
AcDb2dVertex
 10
693.779296875
 20
370.3828125
 30
0.0
  0
SEQEND
  5
44B
330
448
100
AcDbEntity
  8
Ebene 1
370
     0
  0
POLYLINE
  5
44C
330
3C
100
AcDbEntity
  8
Ebene 1
370
     0
100
AcDb2dPolyline
 66
     1
 10
0.0
 20
0.0
 30
0.0
  0
VERTEX
  5
44D
330
44C
100
AcDbEntity
  8
Ebene 1
370
     0
100
AcDbVertex
100
AcDb2dVertex
 10
668.32421875
 20
362.353515625
 30
0.0
  0
VERTEX
  5
44E
330
44C
100
AcDbEntity
  8
Ebene 1
370
     0
100
AcDbVertex
100
AcDb2dVertex
 10
693.779296875
 20
362.353515625
 30
0.0
  0
SEQEND
  5
44F
330
44C
100
AcDbEntity
  8
Ebene 1
370
     0
  0
POLYLINE
  5
450
330
3C
100
AcDbEntity
  8
Ebene 1
370
     0
100
AcDb2dPolyline
 66
     1
 10
0.0
 20
0.0
 30
0.0
  0
VERTEX
  5
451
330
450
100
AcDbEntity
  8
Ebene 1
370
     0
100
AcDbVertex
100
AcDb2dVertex
 10
668.19140625
 20
370.3828125
 30
0.0
  0
VERTEX
  5
452
330
450
100
AcDbEntity
  8
Ebene 1
370
     0
100
AcDbVertex
100
AcDb2dVertex
 10
693.779296875
 20
370.3828125
 30
0.0
  0
SEQEND
  5
453
330
450
100
AcDbEntity
  8
Ebene 1
370
     0
  0
POLYLINE
  5
454
330
3C
100
AcDbEntity
  8
Ebene 1
370
     0
100
AcDb2dPolyline
 66
     1
 10
0.0
 20
0.0
 30
0.0
  0
VERTEX
  5
455
330
454
100
AcDbEntity
  8
Ebene 1
370
     0
100
AcDbVertex
100
AcDb2dVertex
 10
695.80859375
 20
362.353515625
 30
0.0
  0
VERTEX
  5
456
330
454
100
AcDbEntity
  8
Ebene 1
370
     0
100
AcDbVertex
100
AcDb2dVertex
 10
693.779296875
 20
362.353515625
 30
0.0
  0
SEQEND
  5
457
330
454
100
AcDbEntity
  8
Ebene 1
370
     0
  0
POLYLINE
  5
458
330
3C
100
AcDbEntity
  8
Ebene 1
370
     0
100
AcDb2dPolyline
 66
     1
 10
0.0
 20
0.0
 30
0.0
  0
VERTEX
  5
459
330
458
100
AcDbEntity
  8
Ebene 1
370
     0
100
AcDbVertex
100
AcDb2dVertex
 10
693.779296875
 20
370.3828125
 30
0.0
  0
VERTEX
  5
45A
330
458
100
AcDbEntity
  8
Ebene 1
370
     0
100
AcDbVertex
100
AcDb2dVertex
 10
695.80859375
 20
370.3828125
 30
0.0
  0
SEQEND
  5
45B
330
458
100
AcDbEntity
  8
Ebene 1
370
     0
  0
POLYLINE
  5
45C
330
3C
100
AcDbEntity
  8
Ebene 1
370
     0
100
AcDb2dPolyline
 66
     1
 10
0.0
 20
0.0
 30
0.0
  0
VERTEX
  5
45D
330
45C
100
AcDbEntity
  8
Ebene 1
370
     0
100
AcDbVertex
100
AcDb2dVertex
 10
718.6171875
 20
393.587890625
 30
0.0
  0
VERTEX
  5
45E
330
45C
100
AcDbEntity
  8
Ebene 1
370
     0
100
AcDbVertex
100
AcDb2dVertex
 10
717.470703125
 20
393.544921875
 30
0.0
  0
VERTEX
  5
45F
330
45C
100
AcDbEntity
  8
Ebene 1
370
     0
100
AcDbVertex
100
AcDb2dVertex
 10
716.32421875
 20
393.3671875
 30
0.0
  0
VERTEX
  5
460
330
45C
100
AcDbEntity
  8
Ebene 1
370
     0
100
AcDbVertex
100
AcDb2dVertex
 10
715.17578125
 20
393.103515625
 30
0.0
  0
VERTEX
  5
461
330
45C
100
AcDbEntity
  8
Ebene 1
370
     0
100
AcDbVertex
100
AcDb2dVertex
 10
714.07421875
 20
392.75
 30
0.0
  0
VERTEX
  5
462
330
45C
100
AcDbEntity
  8
Ebene 1
370
     0
100
AcDbVertex
100
AcDb2dVertex
 10
713.015625
 20
392.265625
 30
0.0
  0
VERTEX
  5
463
330
45C
100
AcDbEntity
  8
Ebene 1
370
     0
100
AcDbVertex
100
AcDb2dVertex
 10
712.0
 20
391.69140625
 30
0.0
  0
VERTEX
  5
464
330
45C
100
AcDbEntity
  8
Ebene 1
370
     0
100
AcDbVertex
100
AcDb2dVertex
 10
711.07421875
 20
391.029296875
 30
0.0
  0
VERTEX
  5
465
330
45C
100
AcDbEntity
  8
Ebene 1
370
     0
100
AcDbVertex
100
AcDb2dVertex
 10
710.146484375
 20
390.279296875
 30
0.0
  0
VERTEX
  5
466
330
45C
100
AcDbEntity
  8
Ebene 1
370
     0
100
AcDbVertex
100
AcDb2dVertex
 10
709.353515625
 20
389.44140625
 30
0.0
  0
VERTEX
  5
467
330
45C
100
AcDbEntity
  8
Ebene 1
370
     0
100
AcDbVertex
100
AcDb2dVertex
 10
708.603515625
 20
388.55859375
 30
0.0
  0
VERTEX
  5
468
330
45C
100
AcDbEntity
  8
Ebene 1
370
     0
100
AcDbVertex
100
AcDb2dVertex
 10
707.984375
 20
387.587890625
 30
0.0
  0
VERTEX
  5
469
330
45C
100
AcDbEntity
  8
Ebene 1
370
     0
100
AcDbVertex
100
AcDb2dVertex
 10
707.412109375
 20
386.57421875
 30
0.0
  0
VERTEX
  5
46A
330
45C
100
AcDbEntity
  8
Ebene 1
370
     0
100
AcDbVertex
100
AcDb2dVertex
 10
706.970703125
 20
385.470703125
 30
0.0
  0
VERTEX
  5
46B
330
45C
100
AcDbEntity
  8
Ebene 1
370
     0
100
AcDbVertex
100
AcDb2dVertex
 10
706.6171875
 20
384.3671875
 30
0.0
  0
VERTEX
  5
46C
330
45C
100
AcDbEntity
  8
Ebene 1
370
     0
100
AcDbVertex
100
AcDb2dVertex
 10
706.396484375
 20
383.265625
 30
0.0
  0
VERTEX
  5
46D
330
45C
100
AcDbEntity
  8
Ebene 1
370
     0
100
AcDbVertex
100
AcDb2dVertex
 10
706.265625
 20
382.1171875
 30
0.0
  0
VERTEX
  5
46E
330
45C
100
AcDbEntity
  8
Ebene 1
370
     0
100
AcDbVertex
100
AcDb2dVertex
 10
706.220703125
 20
380.9267578125
 30
0.0
  0
VERTEX
  5
46F
330
45C
100
AcDbEntity
  8
Ebene 1
370
     0
100
AcDbVertex
100
AcDb2dVertex
 10
706.30859375
 20
379.779296875
 30
0.0
  0
VERTEX
  5
470
330
45C
100
AcDbEntity
  8
Ebene 1
370
     0
100
AcDbVertex
100
AcDb2dVertex
 10
706.484375
 20
378.6328125
 30
0.0
  0
VERTEX
  5
471
330
45C
100
AcDbEntity
  8
Ebene 1
370
     0
100
AcDbVertex
100
AcDb2dVertex
 10
706.794921875
 20
377.529296875
 30
0.0
  0
VERTEX
  5
472
330
45C
100
AcDbEntity
  8
Ebene 1
370
     0
100
AcDbVertex
100
AcDb2dVertex
 10
707.19140625
 20
376.42578125
 30
0.0
  0
VERTEX
  5
473
330
45C
100
AcDbEntity
  8
Ebene 1
370
     0
100
AcDbVertex
100
AcDb2dVertex
 10
707.67578125
 20
375.412109375
 30
0.0
  0
VERTEX
  5
474
330
45C
100
AcDbEntity
  8
Ebene 1
370
     0
100
AcDbVertex
100
AcDb2dVertex
 10
708.294921875
 20
374.396484375
 30
0.0
  0
VERTEX
  5
475
330
45C
100
AcDbEntity
  8
Ebene 1
370
     0
100
AcDbVertex
100
AcDb2dVertex
 10
708.955078125
 20
373.470703125
 30
0.0
  0
VERTEX
  5
476
330
45C
100
AcDbEntity
  8
Ebene 1
370
     0
100
AcDbVertex
100
AcDb2dVertex
 10
709.75
 20
372.587890625
 30
0.0
  0
VERTEX
  5
477
330
45C
100
AcDbEntity
  8
Ebene 1
370
     0
100
AcDbVertex
100
AcDb2dVertex
 10
710.587890625
 20
371.794921875
 30
0.0
  0
VERTEX
  5
478
330
45C
100
AcDbEntity
  8
Ebene 1
370
     0
100
AcDbVertex
100
AcDb2dVertex
 10
711.515625
 20
371.087890625
 30
0.0
  0
VERTEX
  5
479
330
45C
100
AcDbEntity
  8
Ebene 1
370
     0
100
AcDbVertex
100
AcDb2dVertex
 10
712.484375
 20
370.470703125
 30
0.0
  0
VERTEX
  5
47A
330
45C
100
AcDbEntity
  8
Ebene 1
370
     0
100
AcDbVertex
100
AcDb2dVertex
 10
713.544921875
 20
369.986328125
 30
0.0
  0
VERTEX
  5
47B
330
45C
100
AcDbEntity
  8
Ebene 1
370
     0
100
AcDbVertex
100
AcDb2dVertex
 10
714.603515625
 20
369.544921875
 30
0.0
  0
VERTEX
  5
47C
330
45C
100
AcDbEntity
  8
Ebene 1
370
     0
100
AcDbVertex
100
AcDb2dVertex
 10
715.75
 20
369.236328125
 30
0.0
  0
VERTEX
  5
47D
330
45C
100
AcDbEntity
  8
Ebene 1
370
     0
100
AcDbVertex
100
AcDb2dVertex
 10
716.896484375
 20
369.015625
 30
0.0
  0
VERTEX
  5
47E
330
45C
100
AcDbEntity
  8
Ebene 1
370
     0
100
AcDbVertex
100
AcDb2dVertex
 10
718.044921875
 20
368.8828125
 30
0.0
  0
VERTEX
  5
47F
330
45C
100
AcDbEntity
  8
Ebene 1
370
     0
100
AcDbVertex
100
AcDb2dVertex
 10
719.19140625
 20
368.8828125
 30
0.0
  0
VERTEX
  5
480
330
45C
100
AcDbEntity
  8
Ebene 1
370
     0
100
AcDbVertex
100
AcDb2dVertex
 10
720.337890625
 20
369.015625
 30
0.0
  0
VERTEX
  5
481
330
45C
100
AcDbEntity
  8
Ebene 1
370
     0
100
AcDbVertex
100
AcDb2dVertex
 10
721.484375
 20
369.236328125
 30
0.0
  0
VERTEX
  5
482
330
45C
100
AcDbEntity
  8
Ebene 1
370
     0
100
AcDbVertex
100
AcDb2dVertex
 10
722.6328125
 20
369.544921875
 30
0.0
  0
VERTEX
  5
483
330
45C
100
AcDbEntity
  8
Ebene 1
370
     0
100
AcDbVertex
100
AcDb2dVertex
 10
723.69140625
 20
369.986328125
 30
0.0
  0
VERTEX
  5
484
330
45C
100
AcDbEntity
  8
Ebene 1
370
     0
100
AcDbVertex
100
AcDb2dVertex
 10
724.75
 20
370.470703125
 30
0.0
  0
VERTEX
  5
485
330
45C
100
AcDbEntity
  8
Ebene 1
370
     0
100
AcDbVertex
100
AcDb2dVertex
 10
725.720703125
 20
371.087890625
 30
0.0
  0
VERTEX
  5
486
330
45C
100
AcDbEntity
  8
Ebene 1
370
     0
100
AcDbVertex
100
AcDb2dVertex
 10
726.646484375
 20
371.794921875
 30
0.0
  0
VERTEX
  5
487
330
45C
100
AcDbEntity
  8
Ebene 1
370
     0
100
AcDbVertex
100
AcDb2dVertex
 10
727.484375
 20
372.587890625
 30
0.0
  0
VERTEX
  5
488
330
45C
100
AcDbEntity
  8
Ebene 1
370
     0
100
AcDbVertex
100
AcDb2dVertex
 10
728.279296875
 20
373.470703125
 30
0.0
  0
VERTEX
  5
489
330
45C
100
AcDbEntity
  8
Ebene 1
370
     0
100
AcDbVertex
100
AcDb2dVertex
 10
728.94140625
 20
374.396484375
 30
0.0
  0
VERTEX
  5
48A
330
45C
100
AcDbEntity
  8
Ebene 1
370
     0
100
AcDbVertex
100
AcDb2dVertex
 10
729.55859375
 20
375.412109375
 30
0.0
  0
VERTEX
  5
48B
330
45C
100
AcDbEntity
  8
Ebene 1
370
     0
100
AcDbVertex
100
AcDb2dVertex
 10
730.044921875
 20
376.42578125
 30
0.0
  0
VERTEX
  5
48C
330
45C
100
AcDbEntity
  8
Ebene 1
370
     0
100
AcDbVertex
100
AcDb2dVertex
 10
730.44140625
 20
377.529296875
 30
0.0
  0
VERTEX
  5
48D
330
45C
100
AcDbEntity
  8
Ebene 1
370
     0
100
AcDbVertex
100
AcDb2dVertex
 10
730.75
 20
378.6328125
 30
0.0
  0
VERTEX
  5
48E
330
45C
100
AcDbEntity
  8
Ebene 1
370
     0
100
AcDbVertex
100
AcDb2dVertex
 10
730.92578125
 20
379.779296875
 30
0.0
  0
VERTEX
  5
48F
330
45C
100
AcDbEntity
  8
Ebene 1
370
     0
100
AcDbVertex
100
AcDb2dVertex
 10
731.015625
 20
380.9267578125
 30
0.0
  0
VERTEX
  5
490
330
45C
100
AcDbEntity
  8
Ebene 1
370
     0
100
AcDbVertex
100
AcDb2dVertex
 10
730.970703125
 20
382.1171875
 30
0.0
  0
VERTEX
  5
491
330
45C
100
AcDbEntity
  8
Ebene 1
370
     0
100
AcDbVertex
100
AcDb2dVertex
 10
730.837890625
 20
383.265625
 30
0.0
  0
VERTEX
  5
492
330
45C
100
AcDbEntity
  8
Ebene 1
370
     0
100
AcDbVertex
100
AcDb2dVertex
 10
730.6171875
 20
384.3671875
 30
0.0
  0
VERTEX
  5
493
330
45C
100
AcDbEntity
  8
Ebene 1
370
     0
100
AcDbVertex
100
AcDb2dVertex
 10
730.265625
 20
385.470703125
 30
0.0
  0
VERTEX
  5
494
330
45C
100
AcDbEntity
  8
Ebene 1
370
     0
100
AcDbVertex
100
AcDb2dVertex
 10
729.82421875
 20
386.57421875
 30
0.0
  0
VERTEX
  5
495
330
45C
100
AcDbEntity
  8
Ebene 1
370
     0
100
AcDbVertex
100
AcDb2dVertex
 10
729.25
 20
387.587890625
 30
0.0
  0
VERTEX
  5
496
330
45C
100
AcDbEntity
  8
Ebene 1
370
     0
100
AcDbVertex
100
AcDb2dVertex
 10
728.6328125
 20
388.55859375
 30
0.0
  0
VERTEX
  5
497
330
45C
100
AcDbEntity
  8
Ebene 1
370
     0
100
AcDbVertex
100
AcDb2dVertex
 10
727.8828125
 20
389.44140625
 30
0.0
  0
VERTEX
  5
498
330
45C
100
AcDbEntity
  8
Ebene 1
370
     0
100
AcDbVertex
100
AcDb2dVertex
 10
727.087890625
 20
390.279296875
 30
0.0
  0
VERTEX
  5
499
330
45C
100
AcDbEntity
  8
Ebene 1
370
     0
100
AcDbVertex
100
AcDb2dVertex
 10
726.162109375
 20
391.029296875
 30
0.0
  0
VERTEX
  5
49A
330
45C
100
AcDbEntity
  8
Ebene 1
370
     0
100
AcDbVertex
100
AcDb2dVertex
 10
725.234375
 20
391.69140625
 30
0.0
  0
VERTEX
  5
49B
330
45C
100
AcDbEntity
  8
Ebene 1
370
     0
100
AcDbVertex
100
AcDb2dVertex
 10
724.220703125
 20
392.265625
 30
0.0
  0
VERTEX
  5
49C
330
45C
100
AcDbEntity
  8
Ebene 1
370
     0
100
AcDbVertex
100
AcDb2dVertex
 10
723.162109375
 20
392.75
 30
0.0
  0
VERTEX
  5
49D
330
45C
100
AcDbEntity
  8
Ebene 1
370
     0
100
AcDbVertex
100
AcDb2dVertex
 10
722.05859375
 20
393.103515625
 30
0.0
  0
VERTEX
  5
49E
330
45C
100
AcDbEntity
  8
Ebene 1
370
     0
100
AcDbVertex
100
AcDb2dVertex
 10
720.912109375
 20
393.3671875
 30
0.0
  0
VERTEX
  5
49F
330
45C
100
AcDbEntity
  8
Ebene 1
370
     0
100
AcDbVertex
100
AcDb2dVertex
 10
719.765625
 20
393.544921875
 30
0.0
  0
VERTEX
  5
4A0
330
45C
100
AcDbEntity
  8
Ebene 1
370
     0
100
AcDbVertex
100
AcDb2dVertex
 10
718.6171875
 20
393.587890625
 30
0.0
  0
VERTEX
  5
4A1
330
45C
100
AcDbEntity
  8
Ebene 1
370
     0
100
AcDbVertex
100
AcDb2dVertex
 10
718.6171875
 20
393.587890625
 30
0.0
  0
SEQEND
  5
4A2
330
45C
100
AcDbEntity
  8
Ebene 1
370
     0
  0
POLYLINE
  5
4A3
330
3C
100
AcDbEntity
  8
Ebene 1
370
     0
100
AcDb2dPolyline
 66
     1
 10
0.0
 20
0.0
 30
0.0
  0
VERTEX
  5
4A4
330
4A3
100
AcDbEntity
  8
Ebene 1
370
     0
100
AcDbVertex
100
AcDb2dVertex
 10
746.587890625
 20
381.279296875
 30
0.0
  0
VERTEX
  5
4A5
330
4A3
100
AcDbEntity
  8
Ebene 1
370
     0
100
AcDbVertex
100
AcDb2dVertex
 10
746.544921875
 20
383.044921875
 30
0.0
  0
VERTEX
  5
4A6
330
4A3
100
AcDbEntity
  8
Ebene 1
370
     0
100
AcDbVertex
100
AcDb2dVertex
 10
746.3671875
 20
384.765625
 30
0.0
  0
VERTEX
  5
4A7
330
4A3
100
AcDbEntity
  8
Ebene 1
370
     0
100
AcDbVertex
100
AcDb2dVertex
 10
746.103515625
 20
386.529296875
 30
0.0
  0
VERTEX
  5
4A8
330
4A3
100
AcDbEntity
  8
Ebene 1
370
     0
100
AcDbVertex
100
AcDb2dVertex
 10
745.705078125
 20
388.2060546875
 30
0.0
  0
VERTEX
  5
4A9
330
4A3
100
AcDbEntity
  8
Ebene 1
370
     0
100
AcDbVertex
100
AcDb2dVertex
 10
745.220703125
 20
389.9267578125
 30
0.0
  0
VERTEX
  5
4AA
330
4A3
100
AcDbEntity
  8
Ebene 1
370
     0
100
AcDbVertex
100
AcDb2dVertex
 10
744.646484375
 20
391.55859375
 30
0.0
  0
VERTEX
  5
4AB
330
4A3
100
AcDbEntity
  8
Ebene 1
370
     0
100
AcDbVertex
100
AcDb2dVertex
 10
743.94140625
 20
393.19140625
 30
0.0
  0
VERTEX
  5
4AC
330
4A3
100
AcDbEntity
  8
Ebene 1
370
     0
100
AcDbVertex
100
AcDb2dVertex
 10
743.146484375
 20
394.7353515625
 30
0.0
  0
VERTEX
  5
4AD
330
4A3
100
AcDbEntity
  8
Ebene 1
370
     0
100
AcDbVertex
100
AcDb2dVertex
 10
742.220703125
 20
396.27978515625
 30
0.0
  0
VERTEX
  5
4AE
330
4A3
100
AcDbEntity
  8
Ebene 1
370
     0
100
AcDbVertex
100
AcDb2dVertex
 10
741.25
 20
397.69140625
 30
0.0
  0
VERTEX
  5
4AF
330
4A3
100
AcDbEntity
  8
Ebene 1
370
     0
100
AcDbVertex
100
AcDb2dVertex
 10
740.19140625
 20
399.10302734375
 30
0.0
  0
VERTEX
  5
4B0
330
4A3
100
AcDbEntity
  8
Ebene 1
370
     0
100
AcDbVertex
100
AcDb2dVertex
 10
739.0
 20
400.4267578125
 30
0.0
  0
VERTEX
  5
4B1
330
4A3
100
AcDbEntity
  8
Ebene 1
370
     0
100
AcDbVertex
100
AcDb2dVertex
 10
737.765625
 20
401.662109375
 30
0.0
  0
VERTEX
  5
4B2
330
4A3
100
AcDbEntity
  8
Ebene 1
370
     0
100
AcDbVertex
100
AcDb2dVertex
 10
736.44140625
 20
402.80908203125
 30
0.0
  0
VERTEX
  5
4B3
330
4A3
100
AcDbEntity
  8
Ebene 1
370
     0
100
AcDbVertex
100
AcDb2dVertex
 10
735.07421875
 20
403.912109375
 30
0.0
  0
VERTEX
  5
4B4
330
4A3
100
AcDbEntity
  8
Ebene 1
370
     0
100
AcDbVertex
100
AcDb2dVertex
 10
733.6171875
 20
404.88232421875
 30
0.0
  0
VERTEX
  5
4B5
330
4A3
100
AcDbEntity
  8
Ebene 1
370
     0
100
AcDbVertex
100
AcDb2dVertex
 10
732.1171875
 20
405.76513671875
 30
0.0
  0
VERTEX
  5
4B6
330
4A3
100
AcDbEntity
  8
Ebene 1
370
     0
100
AcDbVertex
100
AcDb2dVertex
 10
730.529296875
 20
406.60302734375
 30
0.0
  0
VERTEX
  5
4B7
330
4A3
100
AcDbEntity
  8
Ebene 1
370
     0
100
AcDbVertex
100
AcDb2dVertex
 10
728.94140625
 20
407.26513671875
 30
0.0
  0
VERTEX
  5
4B8
330
4A3
100
AcDbEntity
  8
Ebene 1
370
     0
100
AcDbVertex
100
AcDb2dVertex
 10
727.265625
 20
407.88232421875
 30
0.0
  0
VERTEX
  5
4B9
330
4A3
100
AcDbEntity
  8
Ebene 1
370
     0
100
AcDbVertex
100
AcDb2dVertex
 10
725.587890625
 20
408.36767578125
 30
0.0
  0
VERTEX
  5
4BA
330
4A3
100
AcDbEntity
  8
Ebene 1
370
     0
100
AcDbVertex
100
AcDb2dVertex
 10
723.8671875
 20
408.76513671875
 30
0.0
  0
VERTEX
  5
4BB
330
4A3
100
AcDbEntity
  8
Ebene 1
370
     0
100
AcDbVertex
100
AcDb2dVertex
 10
722.146484375
 20
409.02978515625
 30
0.0
  0
VERTEX
  5
4BC
330
4A3
100
AcDbEntity
  8
Ebene 1
370
     0
100
AcDbVertex
100
AcDb2dVertex
 10
720.3828125
 20
409.2060546875
 30
0.0
  0
VERTEX
  5
4BD
330
4A3
100
AcDbEntity
  8
Ebene 1
370
     0
100
AcDbVertex
100
AcDb2dVertex
 10
718.6171875
 20
409.25
 30
0.0
  0
SEQEND
  5
4BE
330
4A3
100
AcDbEntity
  8
Ebene 1
370
     0
  0
POLYLINE
  5
4BF
330
3C
100
AcDbEntity
  8
Ebene 1
370
     0
100
AcDb2dPolyline
 66
     1
 10
0.0
 20
0.0
 30
0.0
  0
VERTEX
  5
4C0
330
4BF
100
AcDbEntity
  8
Ebene 1
370
     0
100
AcDbVertex
100
AcDb2dVertex
 10
718.6171875
 20
353.265625
 30
0.0
  0
VERTEX
  5
4C1
330
4BF
100
AcDbEntity
  8
Ebene 1
370
     0
100
AcDbVertex
100
AcDb2dVertex
 10
720.3828125
 20
353.30859375
 30
0.0
  0
VERTEX
  5
4C2
330
4BF
100
AcDbEntity
  8
Ebene 1
370
     0
100
AcDbVertex
100
AcDb2dVertex
 10
722.146484375
 20
353.486328125
 30
0.0
  0
VERTEX
  5
4C3
330
4BF
100
AcDbEntity
  8
Ebene 1
370
     0
100
AcDbVertex
100
AcDb2dVertex
 10
723.8671875
 20
353.75
 30
0.0
  0
VERTEX
  5
4C4
330
4BF
100
AcDbEntity
  8
Ebene 1
370
     0
100
AcDbVertex
100
AcDb2dVertex
 10
725.587890625
 20
354.146484375
 30
0.0
  0
VERTEX
  5
4C5
330
4BF
100
AcDbEntity
  8
Ebene 1
370
     0
100
AcDbVertex
100
AcDb2dVertex
 10
727.265625
 20
354.6328125
 30
0.0
  0
VERTEX
  5
4C6
330
4BF
100
AcDbEntity
  8
Ebene 1
370
     0
100
AcDbVertex
100
AcDb2dVertex
 10
728.94140625
 20
355.25
 30
0.0
  0
VERTEX
  5
4C7
330
4BF
100
AcDbEntity
  8
Ebene 1
370
     0
100
AcDbVertex
100
AcDb2dVertex
 10
730.529296875
 20
355.912109375
 30
0.0
  0
VERTEX
  5
4C8
330
4BF
100
AcDbEntity
  8
Ebene 1
370
     0
100
AcDbVertex
100
AcDb2dVertex
 10
732.1171875
 20
356.75
 30
0.0
  0
VERTEX
  5
4C9
330
4BF
100
AcDbEntity
  8
Ebene 1
370
     0
100
AcDbVertex
100
AcDb2dVertex
 10
733.6171875
 20
357.6328125
 30
0.0
  0
VERTEX
  5
4CA
330
4BF
100
AcDbEntity
  8
Ebene 1
370
     0
100
AcDbVertex
100
AcDb2dVertex
 10
735.07421875
 20
358.603515625
 30
0.0
  0
VERTEX
  5
4CB
330
4BF
100
AcDbEntity
  8
Ebene 1
370
     0
100
AcDbVertex
100
AcDb2dVertex
 10
736.44140625
 20
359.70703125
 30
0.0
  0
VERTEX
  5
4CC
330
4BF
100
AcDbEntity
  8
Ebene 1
370
     0
100
AcDbVertex
100
AcDb2dVertex
 10
737.765625
 20
360.853515625
 30
0.0
  0
VERTEX
  5
4CD
330
4BF
100
AcDbEntity
  8
Ebene 1
370
     0
100
AcDbVertex
100
AcDb2dVertex
 10
739.0
 20
362.087890625
 30
0.0
  0
VERTEX
  5
4CE
330
4BF
100
AcDbEntity
  8
Ebene 1
370
     0
100
AcDbVertex
100
AcDb2dVertex
 10
740.19140625
 20
363.412109375
 30
0.0
  0
VERTEX
  5
4CF
330
4BF
100
AcDbEntity
  8
Ebene 1
370
     0
100
AcDbVertex
100
AcDb2dVertex
 10
741.25
 20
364.779296875
 30
0.0
  0
VERTEX
  5
4D0
330
4BF
100
AcDbEntity
  8
Ebene 1
370
     0
100
AcDbVertex
100
AcDb2dVertex
 10
742.220703125
 20
366.236328125
 30
0.0
  0
VERTEX
  5
4D1
330
4BF
100
AcDbEntity
  8
Ebene 1
370
     0
100
AcDbVertex
100
AcDb2dVertex
 10
743.146484375
 20
367.779296875
 30
0.0
  0
VERTEX
  5
4D2
330
4BF
100
AcDbEntity
  8
Ebene 1
370
     0
100
AcDbVertex
100
AcDb2dVertex
 10
743.94140625
 20
369.32421875
 30
0.0
  0
VERTEX
  5
4D3
330
4BF
100
AcDbEntity
  8
Ebene 1
370
     0
100
AcDbVertex
100
AcDb2dVertex
 10
744.646484375
 20
370.95703125
 30
0.0
  0
VERTEX
  5
4D4
330
4BF
100
AcDbEntity
  8
Ebene 1
370
     0
100
AcDbVertex
100
AcDb2dVertex
 10
745.220703125
 20
372.587890625
 30
0.0
  0
VERTEX
  5
4D5
330
4BF
100
AcDbEntity
  8
Ebene 1
370
     0
100
AcDbVertex
100
AcDb2dVertex
 10
745.705078125
 20
374.30859375
 30
0.0
  0
VERTEX
  5
4D6
330
4BF
100
AcDbEntity
  8
Ebene 1
370
     0
100
AcDbVertex
100
AcDb2dVertex
 10
746.103515625
 20
375.986328125
 30
0.0
  0
VERTEX
  5
4D7
330
4BF
100
AcDbEntity
  8
Ebene 1
370
     0
100
AcDbVertex
100
AcDb2dVertex
 10
746.3671875
 20
377.75
 30
0.0
  0
VERTEX
  5
4D8
330
4BF
100
AcDbEntity
  8
Ebene 1
370
     0
100
AcDbVertex
100
AcDb2dVertex
 10
746.544921875
 20
379.470703125
 30
0.0
  0
VERTEX
  5
4D9
330
4BF
100
AcDbEntity
  8
Ebene 1
370
     0
100
AcDbVertex
100
AcDb2dVertex
 10
746.587890625
 20
381.2353515625
 30
0.0
  0
SEQEND
  5
4DA
330
4BF
100
AcDbEntity
  8
Ebene 1
370
     0
  0
POLYLINE
  5
4DB
330
3C
100
AcDbEntity
  8
Ebene 1
370
     0
100
AcDb2dPolyline
 66
     1
 10
0.0
 20
0.0
 30
0.0
  0
VERTEX
  5
4DC
330
4DB
100
AcDbEntity
  8
Ebene 1
370
     0
100
AcDbVertex
100
AcDb2dVertex
 10
698.67578125
 20
361.25
 30
0.0
  0
VERTEX
  5
4DD
330
4DB
100
AcDbEntity
  8
Ebene 1
370
     0
100
AcDbVertex
100
AcDb2dVertex
 10
698.67578125
 20
401.26513671875
 30
0.0
  0
SEQEND
  5
4DE
330
4DB
100
AcDbEntity
  8
Ebene 1
370
     0
  0
POLYLINE
  5
4DF
330
3C
100
AcDbEntity
  8
Ebene 1
370
     0
100
AcDb2dPolyline
 66
     1
 10
0.0
 20
0.0
 30
0.0
  0
VERTEX
  5
4E0
330
4DF
100
AcDbEntity
  8
Ebene 1
370
     0
100
AcDbVertex
100
AcDb2dVertex
 10
668.412109375
 20
353.265625
 30
0.0
  0
VERTEX
  5
4E1
330
4DF
100
AcDbEntity
  8
Ebene 1
370
     0
100
AcDbVertex
100
AcDb2dVertex
 10
718.6171875
 20
353.265625
 30
0.0
  0
SEQEND
  5
4E2
330
4DF
100
AcDbEntity
  8
Ebene 1
370
     0
  0
POLYLINE
  5
4E3
330
3C
100
AcDbEntity
  8
Ebene 1
370
     0
100
AcDb2dPolyline
 66
     1
 10
0.0
 20
0.0
 30
0.0
  0
VERTEX
  5
4E4
330
4E3
100
AcDbEntity
  8
Ebene 1
370
     0
100
AcDbVertex
100
AcDb2dVertex
 10
668.32421875
 20
361.25
 30
0.0
  0
VERTEX
  5
4E5
330
4E3
100
AcDbEntity
  8
Ebene 1
370
     0
100
AcDbVertex
100
AcDb2dVertex
 10
698.67578125
 20
361.25
 30
0.0
  0
SEQEND
  5
4E6
330
4E3
100
AcDbEntity
  8
Ebene 1
370
     0
  0
POLYLINE
  5
4E7
330
3C
100
AcDbEntity
  8
Ebene 1
370
     0
100
AcDb2dPolyline
 66
     1
 10
0.0
 20
0.0
 30
0.0
  0
VERTEX
  5
4E8
330
4E7
100
AcDbEntity
  8
Ebene 1
370
     0
100
AcDbVertex
100
AcDb2dVertex
 10
698.67578125
 20
401.26513671875
 30
0.0
  0
VERTEX
  5
4E9
330
4E7
100
AcDbEntity
  8
Ebene 1
370
     0
100
AcDbVertex
100
AcDb2dVertex
 10
667.794921875
 20
401.26513671875
 30
0.0
  0
SEQEND
  5
4EA
330
4E7
100
AcDbEntity
  8
Ebene 1
370
     0
  0
POLYLINE
  5
4EB
330
3C
100
AcDbEntity
  8
Ebene 1
370
     0
100
AcDb2dPolyline
 66
     1
 10
0.0
 20
0.0
 30
0.0
  0
VERTEX
  5
4EC
330
4EB
100
AcDbEntity
  8
Ebene 1
370
     0
100
AcDbVertex
100
AcDb2dVertex
 10
718.6171875
 20
409.25
 30
0.0
  0
VERTEX
  5
4ED
330
4EB
100
AcDbEntity
  8
Ebene 1
370
     0
100
AcDbVertex
100
AcDb2dVertex
 10
667.662109375
 20
409.25
 30
0.0
  0
SEQEND
  5
4EE
330
4EB
100
AcDbEntity
  8
Ebene 1
370
     0
  0
POLYLINE
  5
4EF
330
3C
100
AcDbEntity
  8
Ebene 1
370
     0
100
AcDb2dPolyline
 66
     1
 10
0.0
 20
0.0
 30
0.0
  0
VERTEX
  5
4F0
330
4EF
100
AcDbEntity
  8
Ebene 1
370
     0
100
AcDbVertex
100
AcDb2dVertex
 10
696.294921875
 20
401.26513671875
 30
0.0
  0
VERTEX
  5
4F1
330
4EF
100
AcDbEntity
  8
Ebene 1
370
     0
100
AcDbVertex
100
AcDb2dVertex
 10
696.294921875
 20
361.25
 30
0.0
  0
SEQEND
  5
4F2
330
4EF
100
AcDbEntity
  8
Ebene 1
370
     0
  0
POLYLINE
  5
4F3
330
3C
100
AcDbEntity
  8
Ebene 1
370
     0
100
AcDb2dPolyline
 66
     1
 10
0.0
 20
0.0
 30
0.0
  0
VERTEX
  5
4F4
330
4F3
100
AcDbEntity
  8
Ebene 1
370
     0
100
AcDbVertex
100
AcDb2dVertex
 10
717.470703125
 20
368.92578125
 30
0.0
  0
VERTEX
  5
4F5
330
4F3
100
AcDbEntity
  8
Ebene 1
370
     0
100
AcDbVertex
100
AcDb2dVertex
 10
718.6171875
 20
369.103515625
 30
0.0
  0
VERTEX
  5
4F6
330
4F3
100
AcDbEntity
  8
Ebene 1
370
     0
100
AcDbVertex
100
AcDb2dVertex
 10
719.765625
 20
369.3671875
 30
0.0
  0
VERTEX
  5
4F7
330
4F3
100
AcDbEntity
  8
Ebene 1
370
     0
100
AcDbVertex
100
AcDb2dVertex
 10
720.912109375
 20
369.765625
 30
0.0
  0
VERTEX
  5
4F8
330
4F3
100
AcDbEntity
  8
Ebene 1
370
     0
100
AcDbVertex
100
AcDb2dVertex
 10
721.970703125
 20
370.25
 30
0.0
  0
VERTEX
  5
4F9
330
4F3
100
AcDbEntity
  8
Ebene 1
370
     0
100
AcDbVertex
100
AcDb2dVertex
 10
722.984375
 20
370.8671875
 30
0.0
  0
VERTEX
  5
4FA
330
4F3
100
AcDbEntity
  8
Ebene 1
370
     0
100
AcDbVertex
100
AcDb2dVertex
 10
723.955078125
 20
371.529296875
 30
0.0
  0
VERTEX
  5
4FB
330
4F3
100
AcDbEntity
  8
Ebene 1
370
     0
100
AcDbVertex
100
AcDb2dVertex
 10
724.837890625
 20
372.279296875
 30
0.0
  0
VERTEX
  5
4FC
330
4F3
100
AcDbEntity
  8
Ebene 1
370
     0
100
AcDbVertex
100
AcDb2dVertex
 10
725.6328125
 20
373.162109375
 30
0.0
  0
VERTEX
  5
4FD
330
4F3
100
AcDbEntity
  8
Ebene 1
370
     0
100
AcDbVertex
100
AcDb2dVertex
 10
726.3828125
 20
374.087890625
 30
0.0
  0
VERTEX
  5
4FE
330
4F3
100
AcDbEntity
  8
Ebene 1
370
     0
100
AcDbVertex
100
AcDb2dVertex
 10
727.0
 20
375.05859375
 30
0.0
  0
VERTEX
  5
4FF
330
4F3
100
AcDbEntity
  8
Ebene 1
370
     0
100
AcDbVertex
100
AcDb2dVertex
 10
727.57421875
 20
376.1171875
 30
0.0
  0
VERTEX
  5
500
330
4F3
100
AcDbEntity
  8
Ebene 1
370
     0
100
AcDbVertex
100
AcDb2dVertex
 10
728.015625
 20
377.17578125
 30
0.0
  0
VERTEX
  5
501
330
4F3
100
AcDbEntity
  8
Ebene 1
370
     0
100
AcDbVertex
100
AcDb2dVertex
 10
728.32421875
 20
378.32421875
 30
0.0
  0
VERTEX
  5
502
330
4F3
100
AcDbEntity
  8
Ebene 1
370
     0
100
AcDbVertex
100
AcDb2dVertex
 10
728.544921875
 20
379.470703125
 30
0.0
  0
VERTEX
  5
503
330
4F3
100
AcDbEntity
  8
Ebene 1
370
     0
100
AcDbVertex
100
AcDb2dVertex
 10
728.67578125
 20
380.662109375
 30
0.0
  0
VERTEX
  5
504
330
4F3
100
AcDbEntity
  8
Ebene 1
370
     0
100
AcDbVertex
100
AcDb2dVertex
 10
728.67578125
 20
381.80859375
 30
0.0
  0
VERTEX
  5
505
330
4F3
100
AcDbEntity
  8
Ebene 1
370
     0
100
AcDbVertex
100
AcDb2dVertex
 10
728.544921875
 20
383.0
 30
0.0
  0
VERTEX
  5
506
330
4F3
100
AcDbEntity
  8
Ebene 1
370
     0
100
AcDbVertex
100
AcDb2dVertex
 10
728.32421875
 20
384.1474609375
 30
0.0
  0
VERTEX
  5
507
330
4F3
100
AcDbEntity
  8
Ebene 1
370
     0
100
AcDbVertex
100
AcDb2dVertex
 10
728.015625
 20
385.294921875
 30
0.0
  0
VERTEX
  5
508
330
4F3
100
AcDbEntity
  8
Ebene 1
370
     0
100
AcDbVertex
100
AcDb2dVertex
 10
727.57421875
 20
386.353515625
 30
0.0
  0
VERTEX
  5
509
330
4F3
100
AcDbEntity
  8
Ebene 1
370
     0
100
AcDbVertex
100
AcDb2dVertex
 10
727.0
 20
387.412109375
 30
0.0
  0
VERTEX
  5
50A
330
4F3
100
AcDbEntity
  8
Ebene 1
370
     0
100
AcDbVertex
100
AcDb2dVertex
 10
726.3828125
 20
388.3828125
 30
0.0
  0
VERTEX
  5
50B
330
4F3
100
AcDbEntity
  8
Ebene 1
370
     0
100
AcDbVertex
100
AcDb2dVertex
 10
725.6328125
 20
389.30859375
 30
0.0
  0
VERTEX
  5
50C
330
4F3
100
AcDbEntity
  8
Ebene 1
370
     0
100
AcDbVertex
100
AcDb2dVertex
 10
724.837890625
 20
390.19140625
 30
0.0
  0
VERTEX
  5
50D
330
4F3
100
AcDbEntity
  8
Ebene 1
370
     0
100
AcDbVertex
100
AcDb2dVertex
 10
723.955078125
 20
390.94140625
 30
0.0
  0
VERTEX
  5
50E
330
4F3
100
AcDbEntity
  8
Ebene 1
370
     0
100
AcDbVertex
100
AcDb2dVertex
 10
722.984375
 20
391.603515625
 30
0.0
  0
VERTEX
  5
50F
330
4F3
100
AcDbEntity
  8
Ebene 1
370
     0
100
AcDbVertex
100
AcDb2dVertex
 10
721.970703125
 20
392.220703125
 30
0.0
  0
VERTEX
  5
510
330
4F3
100
AcDbEntity
  8
Ebene 1
370
     0
100
AcDbVertex
100
AcDb2dVertex
 10
720.912109375
 20
392.7060546875
 30
0.0
  0
VERTEX
  5
511
330
4F3
100
AcDbEntity
  8
Ebene 1
370
     0
100
AcDbVertex
100
AcDb2dVertex
 10
719.765625
 20
393.103515625
 30
0.0
  0
VERTEX
  5
512
330
4F3
100
AcDbEntity
  8
Ebene 1
370
     0
100
AcDbVertex
100
AcDb2dVertex
 10
718.6171875
 20
393.3671875
 30
0.0
  0
VERTEX
  5
513
330
4F3
100
AcDbEntity
  8
Ebene 1
370
     0
100
AcDbVertex
100
AcDb2dVertex
 10
717.470703125
 20
393.544921875
 30
0.0
  0
SEQEND
  5
514
330
4F3
100
AcDbEntity
  8
Ebene 1
370
     0
  0
ENDBLK
  5
3F
330
3C
100
AcDbEntity
  8
0
100
AcDbBlockEnd
  0
ENDSEC
  0
SECTION
  2
ENTITIES
  0
INSERT
  5
3D
330
1F
100
AcDbEntity
  8
Ebene 1
100
AcDbBlockReference
  2
block 2
 10
0.0
 20
0.0
 30
0.0
  0
ENDSEC
  0
SECTION
  2
OBJECTS
  0
DICTIONARY
  5
C
330
0
100
AcDbDictionary
281
     1
  3
ACAD_GROUP
350
D
  3
ACAD_LAYOUT
350
1A
  3
ACAD_MLINESTYLE
350
17
  3
ACAD_PLOTSETTINGS
350
19
  3
ACAD_PLOTSTYLENAME
350
E
  3
ACAD_TABLESTYLE
350
515
  3
ACAD_VISUALSTYLE
350
2A
  0
DICTIONARY
  5
D
102
{ACAD_REACTORS
330
C
102
}
330
C
100
AcDbDictionary
281
     1
  0
DICTIONARY
  5
1A
102
{ACAD_REACTORS
330
C
102
}
330
C
100
AcDbDictionary
281
     1
  3
Layout1
350
1E
  3
Layout2
350
26
  3
Model
350
22
  0
DICTIONARY
  5
17
102
{ACAD_REACTORS
330
C
102
}
330
C
100
AcDbDictionary
281
     1
  3
Standard
350
18
  0
DICTIONARY
  5
19
102
{ACAD_REACTORS
330
C
102
}
330
C
100
AcDbDictionary
281
     1
  0
ACDBDICTIONARYWDFLT
  5
E
102
{ACAD_REACTORS
330
C
102
}
330
C
100
AcDbDictionary
281
     1
  3
Normal
350
F
100
AcDbDictionaryWithDefault
340
F
  0
DICTIONARY
  5
515
102
{ACAD_REACTORS
330
C
102
}
330
C
100
AcDbDictionary
281
     1
  0
DICTIONARY
  5
2A
102
{ACAD_REACTORS
330
C
102
}
330
C
100
AcDbDictionary
281
     1
  3
2dWireframe
350
2F
  3
3D Hidden
350
31
  3
3dWireframe
350
30
  3
Basic
350
32
  3
Brighten
350
36
  3
ColorChange
350
3A
  3
Conceptual
350
34
  3
Dim
350
35
  3
Facepattern
350
39
  3
Flat
350
2B
  3
FlatWithEdges
350
2C
  3
Gouraud
350
2D
  3
GouraudWithEdges
350
2E
  3
Linepattern
350
38
  3
Realistic
350
33
  3
Thicken
350
37
  0
LAYOUT
  5
1E
102
{ACAD_REACTORS
330
1A
102
}
330
1A
100
AcDbPlotSettings
  1

  2
none_device
  4

  6

 40
0.0
 41
0.0
 42
0.0
 43
0.0
 44
0.0
 45
0.0
 46
0.0
 47
0.0
 48
0.0
 49
0.0
140
0.0
141
0.0
142
1.0
143
1.0
 70
   688
 72
     0
 73
     0
 74
     5
  7

 75
    16
 76
     0
 77
     2
 78
   300
147
1.0
148
0.0
149
0.0
100
AcDbLayout
  1
Layout1
 70
     1
 71
     1
 10
0.0
 20
0.0
 11
12.0
 21
9.0
 12
0.0
 22
0.0
 32
0.0
 14
1.000000000000000E+20
 24
1.000000000000000E+20
 34
1.000000000000000E+20
 15
-1.000000000000000E+20
 25
-1.000000000000000E+20
 35
-1.000000000000000E+20
146
0.0
 13
0.0
 23
0.0
 33
0.0
 16
1.0
 26
0.0
 36
0.0
 17
0.0
 27
1.0
 37
0.0
 76
     0
330
1B
  0
LAYOUT
  5
26
102
{ACAD_REACTORS
330
1A
102
}
330
1A
100
AcDbPlotSettings
  1

  2
none_device
  4

  6

 40
0.0
 41
0.0
 42
0.0
 43
0.0
 44
0.0
 45
0.0
 46
0.0
 47
0.0
 48
0.0
 49
0.0
140
0.0
141
0.0
142
1.0
143
1.0
 70
   688
 72
     0
 73
     0
 74
     5
  7

 75
    16
 76
     0
 77
     2
 78
   300
147
1.0
148
0.0
149
0.0
100
AcDbLayout
  1
Layout2
 70
     1
 71
     2
 10
0.0
 20
0.0
 11
0.0
 21
0.0
 12
0.0
 22
0.0
 32
0.0
 14
0.0
 24
0.0
 34
0.0
 15
0.0
 25
0.0
 35
0.0
146
0.0
 13
0.0
 23
0.0
 33
0.0
 16
1.0
 26
0.0
 36
0.0
 17
0.0
 27
1.0
 37
0.0
 76
     0
330
23
  0
LAYOUT
  5
22
102
{ACAD_REACTORS
330
1A
102
}
330
1A
100
AcDbPlotSettings
  1

  2
none_device
  4

  6

 40
0.0
 41
0.0
 42
0.0
 43
0.0
 44
0.0
 45
0.0
 46
0.0
 47
0.0
 48
0.0
 49
0.0
140
0.0
141
0.0
142
1.0
143
1.0
 70
  1712
 72
     0
 73
     0
 74
     0
  7

 75
     0
 76
     0
 77
     2
 78
   300
147
1.0
148
0.0
149
0.0
100
AcDbLayout
  1
Model
 70
     1
 71
     0
 10
0.0
 20
0.0
 11
12.0
 21
9.0
 12
0.0
 22
0.0
 32
0.0
 14
1.000000000000000E+20
 24
1.000000000000000E+20
 34
1.000000000000000E+20
 15
-1.000000000000000E+20
 25
-1.000000000000000E+20
 35
-1.000000000000000E+20
146
0.0
 13
0.0
 23
0.0
 33
0.0
 16
1.0
 26
0.0
 36
0.0
 17
0.0
 27
1.0
 37
0.0
 76
     0
330
1F
331
29
  0
MLINESTYLE
  5
18
102
{ACAD_REACTORS
330
17
102
}
330
17
100
AcDbMlineStyle
  2
Standard
 70
     0
  3

 62
   256
 51
90.0
 52
90.0
 71
     2
 49
0.5
 62
   256
  6
BYLAYER
 49
-0.5
 62
   256
  6
BYLAYER
  0
ACDBPLACEHOLDER
  5
F
102
{ACAD_REACTORS
330
E
102
}
330
E
  0
VISUALSTYLE
  5
2F
102
{ACAD_REACTORS
330
2A
102
}
330
2A
100
AcDbVisualStyle
  2
2dWireframe
 70
     4
 71
     0
 72
     2
 73
     0
 90
        0
 40
-0.6
 41
-30.0
 62
     5
 63
     7
421
 16777215
 74
     1
 91
        4
 64
     7
 65
   257
 75
     1
175
     1
 42
1.0
 92
        0
 66
   257
 43
1.0
 76
     1
 77
     6
 78
     2
 67
     7
 79
     5
170
     0
171
     0
290
     0
174
     0
 93
        1
 44
0.0
173
     0
291
     0
 45
0.0
1001
ACAD
1000
AcDbSavedByObjectVersion
1070
     0
  0
VISUALSTYLE
  5
31
102
{ACAD_REACTORS
330
2A
102
}
330
2A
100
AcDbVisualStyle
  2
3D Hidden
 70
     6
 71
     1
 72
     2
 73
     2
 90
        0
 40
-0.6
 41
-30.0
 62
     5
 63
     7
421
 16777215
 74
     2
 91
        2
 64
     7
 65
   257
 75
     2
175
     1
 42
40.0
 92
        0
 66
   257
 43
1.0
 76
     1
 77
     6
 78
     2
 67
     7
 79
     3
170
     0
171
     0
290
     0
174
     0
 93
        1
 44
0.0
173
     0
291
     0
 45
0.0
1001
ACAD
1000
AcDbSavedByObjectVersion
1070
     0
  0
VISUALSTYLE
  5
30
102
{ACAD_REACTORS
330
2A
102
}
330
2A
100
AcDbVisualStyle
  2
3dWireframe
 70
     5
 71
     0
 72
     2
 73
     0
 90
        0
 40
-0.6
 41
-30.0
 62
     5
 63
     7
421
 16777215
 74
     1
 91
        4
 64
     7
 65
   257
 75
     1
175
     1
 42
1.0
 92
        0
 66
   257
 43
1.0
 76
     1
 77
     6
 78
     2
 67
     7
 79
     5
170
     0
171
     0
290
     0
174
     0
 93
        1
 44
0.0
173
     0
291
     0
 45
0.0
1001
ACAD
1000
AcDbSavedByObjectVersion
1070
     0
  0
VISUALSTYLE
  5
32
102
{ACAD_REACTORS
330
2A
102
}
330
2A
100
AcDbVisualStyle
  2
Basic
 70
     7
 71
     1
 72
     0
 73
     1
 90
        0
 40
-0.6
 41
-30.0
 62
     5
 63
     7
421
 16777215
 74
     0
 91
        4
 64
     7
 65
   257
 75
     1
175
     1
 42
1.0
 92
        8
 66
     7
 43
1.0
 76
     1
 77
     6
 78
     2
 67
     7
 79
     5
170
     0
171
     0
290
     0
174
     0
 93
        1
 44
0.0
173
     0
291
     1
 45
0.0
1001
ACAD
1000
AcDbSavedByObjectVersion
1070
     0
  0
VISUALSTYLE
  5
36
102
{ACAD_REACTORS
330
2A
102
}
330
2A
100
AcDbVisualStyle
  2
Brighten
 70
    12
 71
     2
 72
     2
 73
     0
 90
        0
 40
-0.6
 41
-30.0
 62
     5
 63
     7
421
 16777215
 74
     1
 91
        4
 64
     7
 65
   257
 75
     1
175
     1
 42
1.0
 92
        8
 66
     7
 43
1.0
 76
     1
 77
     6
 78
     2
 67
     7
 79
     5
170
     0
171
     0
290
     0
174
     0
 93
        1
 44
50.0
173
     0
291
     1
 45
0.0
1001
ACAD
1000
AcDbSavedByObjectVersion
1070
     0
  0
VISUALSTYLE
  5
3A
102
{ACAD_REACTORS
330
2A
102
}
330
2A
100
AcDbVisualStyle
  2
ColorChange
 70
    16
 71
     2
 72
     2
 73
     3
 90
        0
 40
-0.6
 41
-30.0
 62
     5
 63
     8
421
  8421504
 74
     1
 91
        4
 64
     7
 65
   257
 75
     1
175
     1
 42
1.0
 92
        8
 66
     8
424
  8421504
 43
1.0
 76
     1
 77
     6
 78
     2
 67
     7
 79
     5
170
     0
171
     0
290
     0
174
     0
 93
        1
 44
0.0
173
     0
291
     1
 45
0.0
1001
ACAD
1000
AcDbSavedByObjectVersion
1070
     0
  0
VISUALSTYLE
  5
34
102
{ACAD_REACTORS
330
2A
102
}
330
2A
100
AcDbVisualStyle
  2
Conceptual
 70
     9
 71
     3
 72
     2
 73
     0
 90
        0
 40
-0.6
 41
-30.0
 62
     5
 63
     7
421
 16777215
 74
     2
 91
        2
 64
     7
 65
   257
 75
     1
175
     1
 42
40.0
 92
        8
 66
     7
 43
1.0
 76
     1
 77
     6
 78
     2
 67
     7
 79
     3
170
     0
171
     0
290
     0
174
     0
 93
        1
 44
0.0
173
     0
291
     0
 45
0.0
1001
ACAD
1000
AcDbSavedByObjectVersion
1070
     0
  0
VISUALSTYLE
  5
35
102
{ACAD_REACTORS
330
2A
102
}
330
2A
100
AcDbVisualStyle
  2
Dim
 70
    11
 71
     2
 72
     2
 73
     0
 90
        0
 40
-0.6
 41
-30.0
 62
     5
 63
     7
421
 16777215
 74
     1
 91
        4
 64
     7
 65
   257
 75
     1
175
     1
 42
1.0
 92
        8
 66
     7
 43
1.0
 76
     1
 77
     6
 78
     2
 67
     7
 79
     5
170
     0
171
     0
290
     0
174
     0
 93
        1
 44
-50.0
173
     0
291
     1
 45
0.0
1001
ACAD
1000
AcDbSavedByObjectVersion
1070
     0
  0
VISUALSTYLE
  5
39
102
{ACAD_REACTORS
330
2A
102
}
330
2A
100
AcDbVisualStyle
  2
Facepattern
 70
    15
 71
     2
 72
     2
 73
     0
 90
        0
 40
-0.6
 41
-30.0
 62
     5
 63
     7
421
 16777215
 74
     1
 91
        4
 64
     7
 65
   257
 75
     1
175
     1
 42
1.0
 92
        8
 66
     7
 43
1.0
 76
     1
 77
     6
 78
     2
 67
     7
 79
     5
170
     0
171
     0
290
     0
174
     0
 93
        1
 44
0.0
173
     0
291
     1
 45
0.0
1001
ACAD
1000
AcDbSavedByObjectVersion
1070
     0
  0
VISUALSTYLE
  5
2B
102
{ACAD_REACTORS
330
2A
102
}
330
2A
100
AcDbVisualStyle
  2
Flat
 70
     0
 71
     2
 72
     1
 73
     1
 90
        2
 40
-0.6
 41
30.0
 62
     5
 63
     7
421
 16777215
 74
     0
 91
        4
 64
     7
 65
   257
 75
     1
175
     1
 42
1.0
 92
        8
 66
     7
 43
1.0
 76
     1
 77
     6
 78
     2
 67
     7
 79
     5
170
     0
171
     0
290
     0
174
     0
 93
       13
 44
0.0
173
     0
291
     1
 45
0.0
1001
ACAD
1000
AcDbSavedByObjectVersion
1070
     0
  0
VISUALSTYLE
  5
2C
102
{ACAD_REACTORS
330
2A
102
}
330
2A
100
AcDbVisualStyle
  2
FlatWithEdges
 70
     1
 71
     2
 72
     1
 73
     1
 90
        2
 40
-0.6
 41
30.0
 62
     5
 63
     7
421
 16777215
 74
     1
 91
        4
 64
     7
 65
   257
 75
     1
175
     1
 42
1.0
 92
        0
 66
   257
 43
1.0
 76
     1
 77
     6
 78
     2
 67
     7
 79
     5
170
     0
171
     0
290
     0
174
     0
 93
       13
 44
0.0
173
     0
291
     1
 45
0.0
1001
ACAD
1000
AcDbSavedByObjectVersion
1070
     0
  0
VISUALSTYLE
  5
2D
102
{ACAD_REACTORS
330
2A
102
}
330
2A
100
AcDbVisualStyle
  2
Gouraud
 70
     2
 71
     2
 72
     2
 73
     1
 90
        2
 40
-0.6
 41
30.0
 62
     5
 63
     7
421
 16777215
 74
     0
 91
        4
 64
     7
 65
   257
 75
     1
175
     1
 42
1.0
 92
        0
 66
     7
 43
1.0
 76
     1
 77
     6
 78
     2
 67
     7
 79
     5
170
     0
171
     0
290
     0
174
     0
 93
       13
 44
0.0
173
     0
291
     1
 45
0.0
1001
ACAD
1000
AcDbSavedByObjectVersion
1070
     0
  0
VISUALSTYLE
  5
2E
102
{ACAD_REACTORS
330
2A
102
}
330
2A
100
AcDbVisualStyle
  2
GouraudWithEdges
 70
     3
 71
     2
 72
     2
 73
     1
 90
        2
 40
-0.6
 41
30.0
 62
     5
 63
     7
421
 16777215
 74
     1
 91
        4
 64
     7
 65
   257
 75
     1
175
     1
 42
1.0
 92
        0
 66
   257
 43
1.0
 76
     1
 77
     6
 78
     2
 67
     7
 79
     5
170
     0
171
     0
290
     0
174
     0
 93
       13
 44
0.0
173
     0
291
     1
 45
0.0
1001
ACAD
1000
AcDbSavedByObjectVersion
1070
     0
  0
VISUALSTYLE
  5
38
102
{ACAD_REACTORS
330
2A
102
}
330
2A
100
AcDbVisualStyle
  2
Linepattern
 70
    14
 71
     2
 72
     2
 73
     0
 90
        0
 40
-0.6
 41
-30.0
 62
     5
 63
     7
421
 16777215
 74
     1
 91
        4
 64
     7
 65
   257
 75
     7
175
     7
 42
1.0
 92
        8
 66
     7
 43
1.0
 76
     1
 77
     6
 78
     2
 67
     7
 79
     5
170
     0
171
     0
290
     0
174
     0
 93
        1
 44
0.0
173
     0
291
     1
 45
0.0
1001
ACAD
1000
AcDbSavedByObjectVersion
1070
     0
  0
VISUALSTYLE
  5
33
102
{ACAD_REACTORS
330
2A
102
}
330
2A
100
AcDbVisualStyle
  2
Realistic
 70
     8
 71
     2
 72
     2
 73
     0
 90
        0
 40
-0.6
 41
-30.0
 62
     5
 63
     7
421
 16777215
 74
     1
 91
        0
 64
     7
 65
   257
 75
     1
175
     1
 42
1.0
 92
        8
 66
     8
424
  7895160
 43
1.0
 76
     1
 77
     6
 78
     2
 67
     7
 79
     5
170
     0
171
     0
290
     0
174
     0
 93
       13
 44
0.0
173
     0
291
     0
 45
0.0
1001
ACAD
1000
AcDbSavedByObjectVersion
1070
     0
  0
VISUALSTYLE
  5
37
102
{ACAD_REACTORS
330
2A
102
}
330
2A
100
AcDbVisualStyle
  2
Thicken
 70
    13
 71
     2
 72
     2
 73
     0
 90
        0
 40
-0.6
 41
-30.0
 62
     5
 63
     7
421
 16777215
 74
     1
 91
        4
 64
     7
 65
   257
 75
     1
175
     1
 42
1.0
 92
       12
 66
     7
 43
1.0
 76
     1
 77
     6
 78
     2
 67
     7
 79
     5
170
     0
171
     0
290
     0
174
     0
 93
        1
 44
0.0
173
     0
291
     1
 45
0.0
1001
ACAD
1000
AcDbSavedByObjectVersion
1070
     0
  0
ENDSEC
  0
EOF
