  0
SECTION
  2
HEADER
  9
$ACADVER
  1
AC1018
  9
$ACADMAINTVER
 70
     0
  9
$DWGCODEPAGE
  3
ANSI_1252
  9
$INSBASE
 10
0.0
 20
0.0
 30
0.0
  9
$EXTMIN
 10
1.000000000000000E+20
 20
1.000000000000000E+20
 30
1.000000000000000E+20
  9
$EXTMAX
 10
-1.000000000000000E+20
 20
-1.000000000000000E+20
 30
-1.000000000000000E+20
  9
$LIMMIN
 10
0.0
 20
0.0
  9
$LIMMAX
 10
12.0
 20
9.0
  9
$ORTHOMODE
 70
     0
  9
$REGENMODE
 70
     1
  9
$FILLMODE
 70
     1
  9
$QTEXTMODE
 70
     0
  9
$MIRRTEXT
 70
     1
  9
$LTSCALE
 40
1.0
  9
$ATTMODE
 70
     1
  9
$TEXTSIZE
 40
0.2
  9
$TRACEWID
 40
0.05
  9
$TEXTSTYLE
  7
Standard
  9
$CLAYER
  8
0
  9
$CELTYPE
  6
ByLayer
  9
$CECOLOR
 62
   256
  9
$CELTSCALE
 40
1.0
  9
$DISPSILH
 70
     0
  9
$DIMSCALE
 40
1.0
  9
$DIMASZ
 40
0.18
  9
$DIMEXO
 40
0.0625
  9
$DIMDLI
 40
0.38
  9
$DIMRND
 40
0.0
  9
$DIMDLE
 40
0.0
  9
$DIMEXE
 40
0.18
  9
$DIMTP
 40
0.0
  9
$DIMTM
 40
0.0
  9
$DIMTXT
 40
0.18
  9
$DIMCEN
 40
0.09
  9
$DIMTSZ
 40
0.0
  9
$DIMTOL
 70
     0
  9
$DIMLIM
 70
     0
  9
$DIMTIH
 70
     1
  9
$DIMTOH
 70
     1
  9
$DIMSE1
 70
     0
  9
$DIMSE2
 70
     0
  9
$DIMTAD
 70
     0
  9
$DIMZIN
 70
     0
  9
$DIMBLK
  1

  9
$DIMASO
 70
     1
  9
$DIMSHO
 70
     1
  9
$DIMPOST
  1

  9
$DIMAPOST
  1

  9
$DIMALT
 70
     0
  9
$DIMALTD
 70
     2
  9
$DIMALTF
 40
25.4
  9
$DIMLFAC
 40
1.0
  9
$DIMTOFL
 70
     0
  9
$DIMTVP
 40
0.0
  9
$DIMTIX
 70
     0
  9
$DIMSOXD
 70
     0
  9
$DIMSAH
 70
     0
  9
$DIMBLK1
  1

  9
$DIMBLK2
  1

  9
$DIMSTYLE
  2
Standard
  9
$DIMCLRD
 70
     0
  9
$DIMCLRE
 70
     0
  9
$DIMCLRT
 70
     0
  9
$DIMTFAC
 40
1.0
  9
$DIMGAP
 40
0.09
  9
$DIMJUST
 70
     0
  9
$DIMSD1
 70
     0
  9
$DIMSD2
 70
     0
  9
$DIMTOLJ
 70
     1
  9
$DIMTZIN
 70
     0
  9
$DIMALTZ
 70
     0
  9
$DIMALTTZ
 70
     0
  9
$DIMUPT
 70
     0
  9
$DIMDEC
 70
     4
  9
$DIMTDEC
 70
     4
  9
$DIMALTU
 70
     2
  9
$DIMALTTD
 70
     2
  9
$DIMTXSTY
  7
Standard
  9
$DIMAUNIT
 70
     0
  9
$DIMADEC
 70
     0
  9
$DIMALTRND
 40
0.0
  9
$DIMAZIN
 70
     0
  9
$DIMDSEP
 70
    46
  9
$DIMATFIT
 70
     3
  9
$DIMFRAC
 70
     0
  9
$DIMLDRBLK
  1

  9
$DIMLUNIT
 70
     2
  9
$DIMLWD
 70
    -2
  9
$DIMLWE
 70
    -2
  9
$DIMTMOVE
 70
     0
  9
$LUNITS
 70
     2
  9
$LUPREC
 70
     4
  9
$SKETCHINC
 40
0.1
  9
$FILLETRAD
 40
0.5
  9
$AUNITS
 70
     0
  9
$AUPREC
 70
     0
  9
$MENU
  1
.
  9
$ELEVATION
 40
0.0
  9
$PELEVATION
 40
0.0
  9
$THICKNESS
 40
0.0
  9
$LIMCHECK
 70
     0
  9
$CHAMFERA
 40
0.5
  9
$CHAMFERB
 40
0.5
  9
$CHAMFERC
 40
1.0
  9
$CHAMFERD
 40
0.0
  9
$SKPOLY
 70
     0
  9
$TDCREATE
 40
2458373.332103507
  9
$TDUCREATE
 40
2458373.248770174
  9
$TDUPDATE
 40
2458373.332103518
  9
$TDUUPDATE
 40
2458373.248770185
  9
$TDINDWG
 40
0.0000000116
  9
$TDUSRTIMER
 40
0.0000000116
  9
$USRTIMER
 70
     1
  9
$ANGBASE
 50
0.0
  9
$ANGDIR
 70
     0
  9
$PDMODE
 70
     0
  9
$PDSIZE
 40
0.0
  9
$PLINEWID
 40
0.0
  9
$SPLFRAME
 70
     0
  9
$SPLINETYPE
 70
     6
  9
$SPLINESEGS
 70
     8
  9
$HANDSEED
  5
731
  9
$SURFTAB1
 70
     6
  9
$SURFTAB2
 70
     6
  9
$SURFTYPE
 70
     6
  9
$SURFU
 70
     6
  9
$SURFV
 70
     6
  9
$UCSBASE
  2

  9
$UCSNAME
  2

  9
$UCSORG
 10
0.0
 20
0.0
 30
0.0
  9
$UCSXDIR
 10
1.0
 20
0.0
 30
0.0
  9
$UCSYDIR
 10
0.0
 20
1.0
 30
0.0
  9
$UCSORTHOREF
  2

  9
$UCSORTHOVIEW
 70
     0
  9
$UCSORGTOP
 10
0.0
 20
0.0
 30
0.0
  9
$UCSORGBOTTOM
 10
0.0
 20
0.0
 30
0.0
  9
$UCSORGLEFT
 10
0.0
 20
0.0
 30
0.0
  9
$UCSORGRIGHT
 10
0.0
 20
0.0
 30
0.0
  9
$UCSORGFRONT
 10
0.0
 20
0.0
 30
0.0
  9
$UCSORGBACK
 10
0.0
 20
0.0
 30
0.0
  9
$PUCSBASE
  2

  9
$PUCSNAME
  2

  9
$PUCSORG
 10
0.0
 20
0.0
 30
0.0
  9
$PUCSXDIR
 10
1.0
 20
0.0
 30
0.0
  9
$PUCSYDIR
 10
0.0
 20
1.0
 30
0.0
  9
$PUCSORTHOREF
  2

  9
$PUCSORTHOVIEW
 70
     0
  9
$PUCSORGTOP
 10
0.0
 20
0.0
 30
0.0
  9
$PUCSORGBOTTOM
 10
0.0
 20
0.0
 30
0.0
  9
$PUCSORGLEFT
 10
0.0
 20
0.0
 30
0.0
  9
$PUCSORGRIGHT
 10
0.0
 20
0.0
 30
0.0
  9
$PUCSORGFRONT
 10
0.0
 20
0.0
 30
0.0
  9
$PUCSORGBACK
 10
0.0
 20
0.0
 30
0.0
  9
$USERI1
 70
     0
  9
$USERI2
 70
     0
  9
$USERI3
 70
     0
  9
$USERI4
 70
     0
  9
$USERI5
 70
     0
  9
$USERR1
 40
0.0
  9
$USERR2
 40
0.0
  9
$USERR3
 40
0.0
  9
$USERR4
 40
0.0
  9
$USERR5
 40
0.0
  9
$WORLDVIEW
 70
     1
  9
$SHADEDGE
 70
     3
  9
$SHADEDIF
 70
    70
  9
$TILEMODE
 70
     1
  9
$MAXACTVP
 70
    64
  9
$PINSBASE
 10
0.0
 20
0.0
 30
0.0
  9
$PLIMCHECK
 70
     0
  9
$PEXTMIN
 10
1.000000000000000E+20
 20
1.000000000000000E+20
 30
1.000000000000000E+20
  9
$PEXTMAX
 10
-1.000000000000000E+20
 20
-1.000000000000000E+20
 30
-1.000000000000000E+20
  9
$PLIMMIN
 10
0.0
 20
0.0
  9
$PLIMMAX
 10
12.0
 20
9.0
  9
$UNITMODE
 70
     0
  9
$VISRETAIN
 70
     1
  9
$PLINEGEN
 70
     0
  9
$PSLTSCALE
 70
     1
  9
$TREEDEPTH
 70
  3020
  9
$CMLSTYLE
  2
Standard
  9
$CMLJUST
 70
     0
  9
$CMLSCALE
 40
1.0
  9
$PROXYGRAPHICS
 70
     1
  9
$MEASUREMENT
 70
     0
  9
$CELWEIGHT
370
    -1
  9
$ENDCAPS
280
     0
  9
$JOINSTYLE
280
     0
  9
$LWDISPLAY
290
     1
  9
$INSUNITS
 70
     1
  9
$HYPERLINKBASE
  1

  9
$STYLESHEET
  1

  9
$XEDIT
290
     1
  9
$CEPSNTYPE
380
     0
  9
$PSTYLEMODE
290
     1
  9
$FINGERPRINTGUID
  2
{2442DC13-B45B-435E-A450-BF817D9D5705}
  9
$VERSIONGUID
  2
{FAEB1C32-E019-11D5-929B-00C0DF256EC4}
  9
$EXTNAMES
290
     1
  9
$PSVPSCALE
 40
0.0
  9
$OLESTARTUP
290
     0
  9
$SORTENTS
280
   127
  9
$INDEXCTL
280
     0
  9
$HIDETEXT
280
     1
  9
$XCLIPFRAME
290
     0
  9
$HALOGAP
280
     0
  9
$OBSCOLOR
 70
   257
  9
$OBSLTYPE
280
     0
  9
$INTERSECTIONDISPLAY
280
     0
  9
$INTERSECTIONCOLOR
 70
   257
  9
$DIMASSOC
280
     2
  9
$PROJECTNAME
  1

  0
ENDSEC
  0
SECTION
  2
CLASSES
  0
CLASS
  1
ACDBDICTIONARYWDFLT
  2
AcDbDictionaryWithDefault
  3
ObjectDBX Classes
 90
        0
 91
        3
280
     0
281
     0
  0
CLASS
  1
VISUALSTYLE
  2
AcDbVisualStyle
  3
ObjectDBX Classes
 90
     4095
 91
        3
280
     0
281
     0
  0
ENDSEC
  0
SECTION
  2
TABLES
  0
TABLE
  2
VPORT
  5
8
330
0
100
AcDbSymbolTable
 70
     1
  0
VPORT
  5
29
330
8
100
AcDbSymbolTableRecord
100
AcDbViewportTableRecord
  2
*Active
 70
     0
 10
0.0
 20
0.0
 11
1.0
 21
1.0
 12
0.0
 22
0.0
 13
0.0
 23
0.0
 14
0.5
 24
0.5
 15
0.5
 25
0.5
 16
0.0
 26
0.0
 36
1.0
 17
306.0
 27
396.0
 37
0.0
 40
792.0
 41
0.7727272727272727
 42
50.0
 43
0.0
 44
0.0
 50
0.0
 51
0.0
 71
     0
 72
   100
 73
     1
 74
     3
 75
     0
 76
     0
 77
     0
 78
     0
281
     0
 65
     1
110
0.0
120
0.0
130
0.0
111
1.0
121
0.0
131
0.0
112
0.0
122
1.0
132
0.0
 79
     0
146
0.0
  0
ENDTAB
  0
TABLE
  2
LTYPE
  5
5
330
0
100
AcDbSymbolTable
 70
     1
  0
LTYPE
  5
14
330
5
100
AcDbSymbolTableRecord
100
AcDbLinetypeTableRecord
  2
ByBlock
 70
     0
  3

 72
    65
 73
     0
 40
0.0
  0
LTYPE
  5
15
330
5
100
AcDbSymbolTableRecord
100
AcDbLinetypeTableRecord
  2
ByLayer
 70
     0
  3

 72
    65
 73
     0
 40
0.0
  0
LTYPE
  5
16
330
5
100
AcDbSymbolTableRecord
100
AcDbLinetypeTableRecord
  2
Continuous
 70
     0
  3
Solid line
 72
    65
 73
     0
 40
0.0
  0
ENDTAB
  0
TABLE
  2
LAYER
  5
2
330
0
100
AcDbSymbolTable
 70
     2
  0
LAYER
  5
10
330
2
100
AcDbSymbolTableRecord
100
AcDbLayerTableRecord
  2
0
 70
     0
 62
     7
  6
Continuous
370
    -3
390
F
  0
LAYER
  5
3B
330
2
100
AcDbSymbolTableRecord
100
AcDbLayerTableRecord
  2
Ebene 1
 70
     0
 62
     7
  6
Continuous
370
    -3
390
F
  0
ENDTAB
  0
TABLE
  2
STYLE
  5
3
330
0
100
AcDbSymbolTable
 70
     1
  0
STYLE
  5
11
330
3
100
AcDbSymbolTableRecord
100
AcDbTextStyleTableRecord
  2
Standard
 70
     0
 40
0.0
 41
1.0
 50
0.0
 71
     0
 42
0.2
  3
txt
  4

  0
ENDTAB
  0
TABLE
  2
VIEW
  5
6
330
0
100
AcDbSymbolTable
 70
     0
  0
ENDTAB
  0
TABLE
  2
UCS
  5
7
330
0
100
AcDbSymbolTable
 70
     0
  0
ENDTAB
  0
TABLE
  2
APPID
  5
9
330
0
100
AcDbSymbolTable
 70
     1
  0
APPID
  5
12
330
9
100
AcDbSymbolTableRecord
100
AcDbRegAppTableRecord
  2
ACAD
 70
     0
  0
ENDTAB
  0
TABLE
  2
DIMSTYLE
  5
A
330
0
100
AcDbSymbolTable
 70
     1
100
AcDbDimStyleTable
  0
DIMSTYLE
105
27
330
A
100
AcDbSymbolTableRecord
100
AcDbDimStyleTableRecord
  2
Standard
 70
     0
340
11
  0
ENDTAB
  0
TABLE
  2
BLOCK_RECORD
  5
1
330
0
100
AcDbSymbolTable
 70
     2
  0
BLOCK_RECORD
  5
1F
330
1
100
AcDbSymbolTableRecord
100
AcDbBlockTableRecord
  2
*Model_Space
340
22
  0
BLOCK_RECORD
  5
1B
330
1
100
AcDbSymbolTableRecord
100
AcDbBlockTableRecord
  2
*Paper_Space
340
1E
  0
BLOCK_RECORD
  5
23
330
1
100
AcDbSymbolTableRecord
100
AcDbBlockTableRecord
  2
*Paper_Space0
340
26
  0
BLOCK_RECORD
  5
3C
330
1
100
AcDbSymbolTableRecord
100
AcDbBlockTableRecord
  2
block 2
340
0
102
{BLKREFS
331
3D
102
}
  0
ENDTAB
  0
ENDSEC
  0
SECTION
  2
BLOCKS
  0
BLOCK
  5
20
330
1F
100
AcDbEntity
  8
0
100
AcDbBlockBegin
  2
*Model_Space
 70
     0
 71
     0
 10
0.0
 20
0.0
 30
0.0
  3
*Model_Space
  1

  0
ENDBLK
  5
21
330
1F
100
AcDbEntity
  8
0
100
AcDbBlockEnd
  0
BLOCK
  5
1C
330
1B
100
AcDbEntity
 67
     1
  8
0
100
AcDbBlockBegin
  2
*Paper_Space
 70
     0
 71
     0
 10
0.0
 20
0.0
 30
0.0
  3
*Paper_Space
  1

  0
ENDBLK
  5
1D
330
1B
100
AcDbEntity
 67
     1
  8
0
100
AcDbBlockEnd
  0
BLOCK
  5
24
330
23
100
AcDbEntity
  8
0
100
AcDbBlockBegin
  2
*Paper_Space0
 70
     0
 71
     0
 10
0.0
 20
0.0
 30
0.0
  3
*Paper_Space0
  1

  0
ENDBLK
  5
25
330
23
100
AcDbEntity
  8
0
100
AcDbBlockEnd
  0
BLOCK
  5
3E
330
3C
100
AcDbEntity
  8
0
100
AcDbBlockBegin
  2
block 2
 70
     0
 71
     0
 10
0.0
 20
0.0
 30
0.0
  3
block 2
  1

  0
POLYLINE
  5
40
330
3C
100
AcDbEntity
  8
Ebene 1
370
     0
100
AcDb2dPolyline
 66
     1
 10
0.0
 20
0.0
 30
0.0
  0
VERTEX
  5
41
330
40
100
AcDbEntity
  8
Ebene 1
370
     0
100
AcDbVertex
100
AcDb2dVertex
 10
639.6025390625
 20
826.0439453125
 30
0.0
  0
VERTEX
  5
42
330
40
100
AcDbEntity
  8
Ebene 1
370
     0
100
AcDbVertex
100
AcDb2dVertex
 10
633.6025390625
 20
837.8671875
 30
0.0
  0
SEQEND
  5
43
330
40
100
AcDbEntity
  8
Ebene 1
370
     0
  0
POLYLINE
  5
44
330
3C
100
AcDbEntity
  8
Ebene 1
370
     0
100
AcDb2dPolyline
 66
     1
 10
0.0
 20
0.0
 30
0.0
  0
VERTEX
  5
45
330
44
100
AcDbEntity
  8
Ebene 1
370
     0
100
AcDbVertex
100
AcDb2dVertex
 10
660.3828125
 20
785.4560546875
 30
0.0
  0
VERTEX
  5
46
330
44
100
AcDbEntity
  8
Ebene 1
370
     0
100
AcDbVertex
100
AcDb2dVertex
 10
688.6171875
 20
730.17578125
 30
0.0
  0
SEQEND
  5
47
330
44
100
AcDbEntity
  8
Ebene 1
370
     0
  0
POLYLINE
  5
48
330
3C
100
AcDbEntity
  8
Ebene 1
370
     0
100
AcDb2dPolyline
 66
     1
 10
0.0
 20
0.0
 30
0.0
  0
VERTEX
  5
49
330
48
100
AcDbEntity
  8
Ebene 1
370
     0
100
AcDbVertex
100
AcDb2dVertex
 10
645.6474609375
 20
814.2646484375
 30
0.0
  0
VERTEX
  5
4A
330
48
100
AcDbEntity
  8
Ebene 1
370
     0
100
AcDbVertex
100
AcDb2dVertex
 10
654.337890625
 20
797.2353515625
 30
0.0
  0
SEQEND
  5
4B
330
48
100
AcDbEntity
  8
Ebene 1
370
     0
  0
POLYLINE
  5
4C
330
3C
100
AcDbEntity
  8
Ebene 1
370
     0
100
AcDb2dPolyline
 66
     1
 10
0.0
 20
0.0
 30
0.0
  0
VERTEX
  5
4D
330
4C
100
AcDbEntity
  8
Ebene 1
370
     0
100
AcDbVertex
100
AcDb2dVertex
 10
641.587890625
 20
827.05859375
 30
0.0
  0
VERTEX
  5
4E
330
4C
100
AcDbEntity
  8
Ebene 1
370
     0
100
AcDbVertex
100
AcDb2dVertex
 10
637.662109375
 20
825.029296875
 30
0.0
  0
VERTEX
  5
4F
330
4C
100
AcDbEntity
  8
Ebene 1
370
     0
100
AcDbVertex
100
AcDb2dVertex
 10
645.6474609375
 20
814.2646484375
 30
0.0
  0
VERTEX
  5
50
330
4C
100
AcDbEntity
  8
Ebene 1
370
     0
100
AcDbVertex
100
AcDb2dVertex
 10
641.587890625
 20
827.05859375
 30
0.0
  0
SEQEND
  5
51
330
4C
100
AcDbEntity
  8
Ebene 1
370
     0
  0
HATCH
  5
52
330
3C
100
AcDbEntity
  8
Ebene 1
 62
   251
420
  6710886
100
AcDbHatch
 10
0.0
 20
0.0
 30
0.0
210
0.0
220
0.0
230
1.0
  2
SOLID
 70
     1
 71
     0
 91
        1
 92
        1
 93
        3
 72
     1
 10
641.587890625
 20
827.05859375
 11
637.662109375
 21
825.029296875
 72
     1
 10
637.662109375
 20
825.029296875
 11
645.6474609375
 21
814.2646484375
 72
     1
 10
645.6474609375
 20
814.2646484375
 11
641.587890625
 21
827.05859375
 97
        0
 75
     0
 76
     1
 98
        0
  0
POLYLINE
  5
53
330
3C
100
AcDbEntity
  8
Ebene 1
370
     0
100
AcDb2dPolyline
 66
     1
 10
0.0
 20
0.0
 30
0.0
  0
VERTEX
  5
54
330
53
100
AcDbEntity
  8
Ebene 1
370
     0
100
AcDbVertex
100
AcDb2dVertex
 10
662.3232421875
 20
786.42578125
 30
0.0
  0
VERTEX
  5
55
330
53
100
AcDbEntity
  8
Ebene 1
370
     0
100
AcDbVertex
100
AcDb2dVertex
 10
658.3974609375
 20
784.44140625
 30
0.0
  0
VERTEX
  5
56
330
53
100
AcDbEntity
  8
Ebene 1
370
     0
100
AcDbVertex
100
AcDb2dVertex
 10
654.337890625
 20
797.2353515625
 30
0.0
  0
VERTEX
  5
57
330
53
100
AcDbEntity
  8
Ebene 1
370
     0
100
AcDbVertex
100
AcDb2dVertex
 10
662.3232421875
 20
786.42578125
 30
0.0
  0
SEQEND
  5
58
330
53
100
AcDbEntity
  8
Ebene 1
370
     0
  0
HATCH
  5
59
330
3C
100
AcDbEntity
  8
Ebene 1
 62
   251
420
  6710886
100
AcDbHatch
 10
0.0
 20
0.0
 30
0.0
210
0.0
220
0.0
230
1.0
  2
SOLID
 70
     1
 71
     0
 91
        1
 92
        1
 93
        3
 72
     1
 10
662.3232421875
 20
786.42578125
 11
658.3974609375
 21
784.44140625
 72
     1
 10
658.3974609375
 20
784.44140625
 11
654.337890625
 21
797.2353515625
 72
     1
 10
654.337890625
 20
797.2353515625
 11
662.3232421875
 21
786.42578125
 97
        0
 75
     0
 76
     1
 98
        0
  0
POLYLINE
  5
5A
330
3C
100
AcDbEntity
  8
Ebene 1
370
     0
100
AcDb2dPolyline
 66
     1
 10
0.0
 20
0.0
 30
0.0
  0
VERTEX
  5
5B
330
5A
100
AcDbEntity
  8
Ebene 1
370
     0
100
AcDbVertex
100
AcDb2dVertex
 10
686.3671875
 20
774.470703125
 30
0.0
  0
VERTEX
  5
5C
330
5A
100
AcDbEntity
  8
Ebene 1
370
     0
100
AcDbVertex
100
AcDb2dVertex
 10
685.1328125
 20
775.220703125
 30
0.0
  0
VERTEX
  5
5D
330
5A
100
AcDbEntity
  8
Ebene 1
370
     0
100
AcDbVertex
100
AcDb2dVertex
 10
683.2353515625
 20
775.6171875
 30
0.0
  0
VERTEX
  5
5E
330
5A
100
AcDbEntity
  8
Ebene 1
370
     0
100
AcDbVertex
100
AcDb2dVertex
 10
680.94140625
 20
775.1318359375
 30
0.0
  0
VERTEX
  5
5F
330
5A
100
AcDbEntity
  8
Ebene 1
370
     0
100
AcDbVertex
100
AcDb2dVertex
 10
679.6171875
 20
774.42578125
 30
0.0
  0
VERTEX
  5
60
330
5A
100
AcDbEntity
  8
Ebene 1
370
     0
100
AcDbVertex
100
AcDb2dVertex
 10
677.8525390625
 20
772.837890625
 30
0.0
  0
VERTEX
  5
61
330
5A
100
AcDbEntity
  8
Ebene 1
370
     0
100
AcDbVertex
100
AcDb2dVertex
 10
677.05859375
 20
771.0732421875
 30
0.0
  0
VERTEX
  5
62
330
5A
100
AcDbEntity
  8
Ebene 1
370
     0
100
AcDbVertex
100
AcDb2dVertex
 10
676.9267578125
 20
769.6611328125
 30
0.0
  0
VERTEX
  5
63
330
5A
100
AcDbEntity
  8
Ebene 1
370
     0
100
AcDbVertex
100
AcDb2dVertex
 10
677.7646484375
 20
768.029296875
 30
0.0
  0
VERTEX
  5
64
330
5A
100
AcDbEntity
  8
Ebene 1
370
     0
100
AcDbVertex
100
AcDb2dVertex
 10
679.0
 20
767.279296875
 30
0.0
  0
VERTEX
  5
65
330
5A
100
AcDbEntity
  8
Ebene 1
370
     0
100
AcDbVertex
100
AcDb2dVertex
 10
680.8974609375
 20
766.92578125
 30
0.0
  0
VERTEX
  5
66
330
5A
100
AcDbEntity
  8
Ebene 1
370
     0
100
AcDbVertex
100
AcDb2dVertex
 10
683.19140625
 20
767.4111328125
 30
0.0
  0
VERTEX
  5
67
330
5A
100
AcDbEntity
  8
Ebene 1
370
     0
100
AcDbVertex
100
AcDb2dVertex
 10
684.5146484375
 20
768.0732421875
 30
0.0
  0
VERTEX
  5
68
330
5A
100
AcDbEntity
  8
Ebene 1
370
     0
100
AcDbVertex
100
AcDb2dVertex
 10
686.279296875
 20
769.6611328125
 30
0.0
  0
VERTEX
  5
69
330
5A
100
AcDbEntity
  8
Ebene 1
370
     0
100
AcDbVertex
100
AcDb2dVertex
 10
687.0732421875
 20
771.42578125
 30
0.0
  0
VERTEX
  5
6A
330
5A
100
AcDbEntity
  8
Ebene 1
370
     0
100
AcDbVertex
100
AcDb2dVertex
 10
687.2060546875
 20
772.8818359375
 30
0.0
  0
VERTEX
  5
6B
330
5A
100
AcDbEntity
  8
Ebene 1
370
     0
100
AcDbVertex
100
AcDb2dVertex
 10
686.3671875
 20
774.470703125
 30
0.0
  0
VERTEX
  5
6C
330
5A
100
AcDbEntity
  8
Ebene 1
370
     0
100
AcDbVertex
100
AcDb2dVertex
 10
686.3671875
 20
774.470703125
 30
0.0
  0
SEQEND
  5
6D
330
5A
100
AcDbEntity
  8
Ebene 1
370
     0
  0
POLYLINE
  5
6E
330
3C
100
AcDbEntity
  8
Ebene 1
370
     0
100
AcDb2dPolyline
 66
     1
 10
0.0
 20
0.0
 30
0.0
  0
VERTEX
  5
6F
330
6E
100
AcDbEntity
  8
Ebene 1
370
     0
100
AcDbVertex
100
AcDb2dVertex
 10
690.0732421875
 20
772.2646484375
 30
0.0
  0
VERTEX
  5
70
330
6E
100
AcDbEntity
  8
Ebene 1
370
     0
100
AcDbVertex
100
AcDb2dVertex
 10
674.1025390625
 20
770.2353515625
 30
0.0
  0
SEQEND
  5
71
330
6E
100
AcDbEntity
  8
Ebene 1
370
     0
  0
POLYLINE
  5
72
330
3C
100
AcDbEntity
  8
Ebene 1
370
     0
100
AcDb2dPolyline
 66
     1
 10
0.0
 20
0.0
 30
0.0
  0
VERTEX
  5
73
330
72
100
AcDbEntity
  8
Ebene 1
370
     0
100
AcDbVertex
100
AcDb2dVertex
 10
696.779296875
 20
760.75
 30
0.0
  0
VERTEX
  5
74
330
72
100
AcDbEntity
  8
Ebene 1
370
     0
100
AcDbVertex
100
AcDb2dVertex
 10
679.8828125
 20
758.896484375
 30
0.0
  0
SEQEND
  5
75
330
72
100
AcDbEntity
  8
Ebene 1
370
     0
  0
POLYLINE
  5
76
330
3C
100
AcDbEntity
  8
Ebene 1
370
     0
100
AcDb2dPolyline
 66
     1
 10
0.0
 20
0.0
 30
0.0
  0
VERTEX
  5
77
330
76
100
AcDbEntity
  8
Ebene 1
370
     0
100
AcDbVertex
100
AcDb2dVertex
 10
692.94140625
 20
768.2939453125
 30
0.0
  0
VERTEX
  5
78
330
76
100
AcDbEntity
  8
Ebene 1
370
     0
100
AcDbVertex
100
AcDb2dVertex
 10
696.779296875
 20
760.75
 30
0.0
  0
SEQEND
  5
79
330
76
100
AcDbEntity
  8
Ebene 1
370
     0
  0
POLYLINE
  5
7A
330
3C
100
AcDbEntity
  8
Ebene 1
370
     0
100
AcDb2dPolyline
 66
     1
 10
0.0
 20
0.0
 30
0.0
  0
VERTEX
  5
7B
330
7A
100
AcDbEntity
  8
Ebene 1
370
     0
100
AcDbVertex
100
AcDb2dVertex
 10
686.19140625
 20
749.896484375
 30
0.0
  0
VERTEX
  5
7C
330
7A
100
AcDbEntity
  8
Ebene 1
370
     0
100
AcDbVertex
100
AcDb2dVertex
 10
685.220703125
 20
750.0732421875
 30
0.0
  0
VERTEX
  5
7D
330
7A
100
AcDbEntity
  8
Ebene 1
370
     0
100
AcDbVertex
100
AcDb2dVertex
 10
684.8232421875
 20
749.19140625
 30
0.0
  0
VERTEX
  5
7E
330
7A
100
AcDbEntity
  8
Ebene 1
370
     0
100
AcDbVertex
100
AcDb2dVertex
 10
685.7939453125
 20
748.970703125
 30
0.0
  0
VERTEX
  5
7F
330
7A
100
AcDbEntity
  8
Ebene 1
370
     0
100
AcDbVertex
100
AcDb2dVertex
 10
686.19140625
 20
749.896484375
 30
0.0
  0
VERTEX
  5
80
330
7A
100
AcDbEntity
  8
Ebene 1
370
     0
100
AcDbVertex
100
AcDb2dVertex
 10
686.19140625
 20
749.896484375
 30
0.0
  0
SEQEND
  5
81
330
7A
100
AcDbEntity
  8
Ebene 1
370
     0
  0
POLYLINE
  5
82
330
3C
100
AcDbEntity
  8
Ebene 1
370
     0
100
AcDb2dPolyline
 66
     1
 10
0.0
 20
0.0
 30
0.0
  0
VERTEX
  5
83
330
82
100
AcDbEntity
  8
Ebene 1
370
     0
100
AcDbVertex
100
AcDb2dVertex
 10
-158.0
 20
-296.0439453125
 30
0.0
  0
VERTEX
  5
84
330
82
100
AcDbEntity
  8
Ebene 1
370
     0
100
AcDbVertex
100
AcDb2dVertex
 10
-158.0
 20
-296.0439453125
 30
0.0
  0
SEQEND
  5
85
330
82
100
AcDbEntity
  8
Ebene 1
370
     0
  0
POLYLINE
  5
86
330
3C
100
AcDbEntity
  8
Ebene 1
370
     0
100
AcDb2dPolyline
 66
     1
 10
0.0
 20
0.0
 30
0.0
  0
VERTEX
  5
87
330
86
100
AcDbEntity
  8
Ebene 1
370
     0
100
AcDbVertex
100
AcDb2dVertex
 10
-158.0
 20
-296.0439453125
 30
0.0
  0
VERTEX
  5
88
330
86
100
AcDbEntity
  8
Ebene 1
370
     0
100
AcDbVertex
100
AcDb2dVertex
 10
-158.0
 20
-296.0439453125
 30
0.0
  0
SEQEND
  5
89
330
86
100
AcDbEntity
  8
Ebene 1
370
     0
  0
POLYLINE
  5
8A
330
3C
100
AcDbEntity
  8
Ebene 1
370
     0
100
AcDb2dPolyline
 66
     1
 10
0.0
 20
0.0
 30
0.0
  0
VERTEX
  5
8B
330
8A
100
AcDbEntity
  8
Ebene 1
370
     0
100
AcDbVertex
100
AcDb2dVertex
 10
698.1025390625
 20
749.8525390625
 30
0.0
  0
VERTEX
  5
8C
330
8A
100
AcDbEntity
  8
Ebene 1
370
     0
100
AcDbVertex
100
AcDb2dVertex
 10
698.7646484375
 20
750.2060546875
 30
0.0
  0
VERTEX
  5
8D
330
8A
100
AcDbEntity
  8
Ebene 1
370
     0
100
AcDbVertex
100
AcDb2dVertex
 10
700.3974609375
 20
750.337890625
 30
0.0
  0
VERTEX
  5
8E
330
8A
100
AcDbEntity
  8
Ebene 1
370
     0
100
AcDbVertex
100
AcDb2dVertex
 10
701.3671875
 20
750.1611328125
 30
0.0
  0
VERTEX
  5
8F
330
8A
100
AcDbEntity
  8
Ebene 1
370
     0
100
AcDbVertex
100
AcDb2dVertex
 10
702.6025390625
 20
749.4111328125
 30
0.0
  0
VERTEX
  5
90
330
8A
100
AcDbEntity
  8
Ebene 1
370
     0
100
AcDbVertex
100
AcDb2dVertex
 10
703.7060546875
 20
747.25
 30
0.0
  0
VERTEX
  5
91
330
8A
100
AcDbEntity
  8
Ebene 1
370
     0
100
AcDbVertex
100
AcDb2dVertex
 10
703.5732421875
 20
745.837890625
 30
0.0
  0
VERTEX
  5
92
330
8A
100
AcDbEntity
  8
Ebene 1
370
     0
100
AcDbVertex
100
AcDb2dVertex
 10
703.1767578125
 20
744.9560546875
 30
0.0
  0
VERTEX
  5
93
330
8A
100
AcDbEntity
  8
Ebene 1
370
     0
100
AcDbVertex
100
AcDb2dVertex
 10
702.0732421875
 20
743.720703125
 30
0.0
  0
VERTEX
  5
94
330
8A
100
AcDbEntity
  8
Ebene 1
370
     0
100
AcDbVertex
100
AcDb2dVertex
 10
700.75
 20
743.0146484375
 30
0.0
  0
VERTEX
  5
95
330
8A
100
AcDbEntity
  8
Ebene 1
370
     0
100
AcDbVertex
100
AcDb2dVertex
 10
699.1171875
 20
742.8818359375
 30
0.0
  0
VERTEX
  5
96
330
8A
100
AcDbEntity
  8
Ebene 1
370
     0
100
AcDbVertex
100
AcDb2dVertex
 10
696.55859375
 20
742.92578125
 30
0.0
  0
VERTEX
  5
97
330
8A
100
AcDbEntity
  8
Ebene 1
370
     0
100
AcDbVertex
100
AcDb2dVertex
 10
687.029296875
 20
744.8671875
 30
0.0
  0
VERTEX
  5
98
330
8A
100
AcDbEntity
  8
Ebene 1
370
     0
100
AcDbVertex
100
AcDb2dVertex
 10
690.912109375
 20
737.3232421875
 30
0.0
  0
SEQEND
  5
99
330
8A
100
AcDbEntity
  8
Ebene 1
370
     0
  0
POLYLINE
  5
9A
330
3C
100
AcDbEntity
  8
Ebene 1
370
     0
100
AcDb2dPolyline
 66
     1
 10
0.0
 20
0.0
 30
0.0
  0
VERTEX
  5
9B
330
9A
100
AcDbEntity
  8
Ebene 1
370
     0
100
AcDbVertex
100
AcDb2dVertex
 10
591.69140625
 20
779.2353515625
 30
0.0
  0
VERTEX
  5
9C
330
9A
100
AcDbEntity
  8
Ebene 1
370
     0
100
AcDbVertex
100
AcDb2dVertex
 10
591.69140625
 20
728.5439453125
 30
0.0
  0
SEQEND
  5
9D
330
9A
100
AcDbEntity
  8
Ebene 1
370
     0
  0
POLYLINE
  5
9E
330
3C
100
AcDbEntity
  8
Ebene 1
370
     0
100
AcDb2dPolyline
 66
     1
 10
0.0
 20
0.0
 30
0.0
  0
VERTEX
  5
9F
330
9E
100
AcDbEntity
  8
Ebene 1
370
     0
100
AcDbVertex
100
AcDb2dVertex
 10
649.970703125
 20
785.05859375
 30
0.0
  0
VERTEX
  5
A0
330
9E
100
AcDbEntity
  8
Ebene 1
370
     0
100
AcDbVertex
100
AcDb2dVertex
 10
649.970703125
 20
728.5439453125
 30
0.0
  0
SEQEND
  5
A1
330
9E
100
AcDbEntity
  8
Ebene 1
370
     0
  0
POLYLINE
  5
A2
330
3C
100
AcDbEntity
  8
Ebene 1
370
     0
100
AcDb2dPolyline
 66
     1
 10
0.0
 20
0.0
 30
0.0
  0
VERTEX
  5
A3
330
A2
100
AcDbEntity
  8
Ebene 1
370
     0
100
AcDbVertex
100
AcDb2dVertex
 10
604.9267578125
 20
739.1318359375
 30
0.0
  0
VERTEX
  5
A4
330
A2
100
AcDbEntity
  8
Ebene 1
370
     0
100
AcDbVertex
100
AcDb2dVertex
 10
636.7353515625
 20
739.1318359375
 30
0.0
  0
SEQEND
  5
A5
330
A2
100
AcDbEntity
  8
Ebene 1
370
     0
  0
POLYLINE
  5
A6
330
3C
100
AcDbEntity
  8
Ebene 1
370
     0
100
AcDb2dPolyline
 66
     1
 10
0.0
 20
0.0
 30
0.0
  0
VERTEX
  5
A7
330
A6
100
AcDbEntity
  8
Ebene 1
370
     0
100
AcDbVertex
100
AcDb2dVertex
 10
604.9267578125
 20
741.337890625
 30
0.0
  0
VERTEX
  5
A8
330
A6
100
AcDbEntity
  8
Ebene 1
370
     0
100
AcDbVertex
100
AcDb2dVertex
 10
604.9267578125
 20
736.92578125
 30
0.0
  0
VERTEX
  5
A9
330
A6
100
AcDbEntity
  8
Ebene 1
370
     0
100
AcDbVertex
100
AcDb2dVertex
 10
591.69140625
 20
739.1318359375
 30
0.0
  0
VERTEX
  5
AA
330
A6
100
AcDbEntity
  8
Ebene 1
370
     0
100
AcDbVertex
100
AcDb2dVertex
 10
604.9267578125
 20
741.337890625
 30
0.0
  0
SEQEND
  5
AB
330
A6
100
AcDbEntity
  8
Ebene 1
370
     0
  0
HATCH
  5
AC
330
3C
100
AcDbEntity
  8
Ebene 1
 62
   251
420
  6710886
100
AcDbHatch
 10
0.0
 20
0.0
 30
0.0
210
0.0
220
0.0
230
1.0
  2
SOLID
 70
     1
 71
     0
 91
        1
 92
        1
 93
        3
 72
     1
 10
604.9267578125
 20
741.337890625
 11
604.9267578125
 21
736.92578125
 72
     1
 10
604.9267578125
 20
736.92578125
 11
591.69140625
 21
739.1318359375
 72
     1
 10
591.69140625
 20
739.1318359375
 11
604.9267578125
 21
741.337890625
 97
        0
 75
     0
 76
     1
 98
        0
  0
POLYLINE
  5
AD
330
3C
100
AcDbEntity
  8
Ebene 1
370
     0
100
AcDb2dPolyline
 66
     1
 10
0.0
 20
0.0
 30
0.0
  0
VERTEX
  5
AE
330
AD
100
AcDbEntity
  8
Ebene 1
370
     0
100
AcDbVertex
100
AcDb2dVertex
 10
636.7353515625
 20
741.337890625
 30
0.0
  0
VERTEX
  5
AF
330
AD
100
AcDbEntity
  8
Ebene 1
370
     0
100
AcDbVertex
100
AcDb2dVertex
 10
636.7353515625
 20
736.92578125
 30
0.0
  0
VERTEX
  5
B0
330
AD
100
AcDbEntity
  8
Ebene 1
370
     0
100
AcDbVertex
100
AcDb2dVertex
 10
649.970703125
 20
739.1318359375
 30
0.0
  0
VERTEX
  5
B1
330
AD
100
AcDbEntity
  8
Ebene 1
370
     0
100
AcDbVertex
100
AcDb2dVertex
 10
636.7353515625
 20
741.337890625
 30
0.0
  0
SEQEND
  5
B2
330
AD
100
AcDbEntity
  8
Ebene 1
370
     0
  0
HATCH
  5
B3
330
3C
100
AcDbEntity
  8
Ebene 1
 62
   251
420
  6710886
100
AcDbHatch
 10
0.0
 20
0.0
 30
0.0
210
0.0
220
0.0
230
1.0
  2
SOLID
 70
     1
 71
     0
 91
        1
 92
        1
 93
        3
 72
     1
 10
636.7353515625
 20
741.337890625
 11
636.7353515625
 21
736.92578125
 72
     1
 10
636.7353515625
 20
736.92578125
 11
649.970703125
 21
739.1318359375
 72
     1
 10
649.970703125
 20
739.1318359375
 11
636.7353515625
 21
741.337890625
 97
        0
 75
     0
 76
     1
 98
        0
  0
POLYLINE
  5
B4
330
3C
100
AcDbEntity
  8
Ebene 1
370
     0
100
AcDb2dPolyline
 66
     1
 10
0.0
 20
0.0
 30
0.0
  0
VERTEX
  5
B5
330
B4
100
AcDbEntity
  8
Ebene 1
370
     0
100
AcDbVertex
100
AcDb2dVertex
 10
-158.0
 20
-296.0439453125
 30
0.0
  0
VERTEX
  5
B6
330
B4
100
AcDbEntity
  8
Ebene 1
370
     0
100
AcDbVertex
100
AcDb2dVertex
 10
-158.0
 20
-296.0439453125
 30
0.0
  0
SEQEND
  5
B7
330
B4
100
AcDbEntity
  8
Ebene 1
370
     0
  0
POLYLINE
  5
B8
330
3C
100
AcDbEntity
  8
Ebene 1
370
     0
100
AcDb2dPolyline
 66
     1
 10
0.0
 20
0.0
 30
0.0
  0
VERTEX
  5
B9
330
B8
100
AcDbEntity
  8
Ebene 1
370
     0
100
AcDbVertex
100
AcDb2dVertex
 10
-158.0
 20
-296.0439453125
 30
0.0
  0
VERTEX
  5
BA
330
B8
100
AcDbEntity
  8
Ebene 1
370
     0
100
AcDbVertex
100
AcDb2dVertex
 10
-158.0
 20
-296.0439453125
 30
0.0
  0
SEQEND
  5
BB
330
B8
100
AcDbEntity
  8
Ebene 1
370
     0
  0
POLYLINE
  5
BC
330
3C
100
AcDbEntity
  8
Ebene 1
370
     0
100
AcDb2dPolyline
 66
     1
 10
0.0
 20
0.0
 30
0.0
  0
VERTEX
  5
BD
330
BC
100
AcDbEntity
  8
Ebene 1
370
     0
100
AcDbVertex
100
AcDb2dVertex
 10
-158.0
 20
-296.0439453125
 30
0.0
  0
VERTEX
  5
BE
330
BC
100
AcDbEntity
  8
Ebene 1
370
     0
100
AcDbVertex
100
AcDb2dVertex
 10
-158.0
 20
-296.0439453125
 30
0.0
  0
SEQEND
  5
BF
330
BC
100
AcDbEntity
  8
Ebene 1
370
     0
  0
POLYLINE
  5
C0
330
3C
100
AcDbEntity
  8
Ebene 1
370
     0
100
AcDb2dPolyline
 66
     1
 10
0.0
 20
0.0
 30
0.0
  0
VERTEX
  5
C1
330
C0
100
AcDbEntity
  8
Ebene 1
370
     0
100
AcDbVertex
100
AcDb2dVertex
 10
611.1474609375
 20
756.55859375
 30
0.0
  0
VERTEX
  5
C2
330
C0
100
AcDbEntity
  8
Ebene 1
370
     0
100
AcDbVertex
100
AcDb2dVertex
 10
611.1474609375
 20
757.3525390625
 30
0.0
  0
VERTEX
  5
C3
330
C0
100
AcDbEntity
  8
Ebene 1
370
     0
100
AcDbVertex
100
AcDb2dVertex
 10
611.7646484375
 20
758.8525390625
 30
0.0
  0
VERTEX
  5
C4
330
C0
100
AcDbEntity
  8
Ebene 1
370
     0
100
AcDbVertex
100
AcDb2dVertex
 10
612.337890625
 20
759.6025390625
 30
0.0
  0
VERTEX
  5
C5
330
C0
100
AcDbEntity
  8
Ebene 1
370
     0
100
AcDbVertex
100
AcDb2dVertex
 10
613.5732421875
 20
760.3525390625
 30
0.0
  0
VERTEX
  5
C6
330
C0
100
AcDbEntity
  8
Ebene 1
370
     0
100
AcDbVertex
100
AcDb2dVertex
 10
616.0
 20
760.3525390625
 30
0.0
  0
VERTEX
  5
C7
330
C0
100
AcDbEntity
  8
Ebene 1
370
     0
100
AcDbVertex
100
AcDb2dVertex
 10
617.19140625
 20
759.6025390625
 30
0.0
  0
VERTEX
  5
C8
330
C0
100
AcDbEntity
  8
Ebene 1
370
     0
100
AcDbVertex
100
AcDb2dVertex
 10
617.80859375
 20
758.8525390625
 30
0.0
  0
VERTEX
  5
C9
330
C0
100
AcDbEntity
  8
Ebene 1
370
     0
100
AcDbVertex
100
AcDb2dVertex
 10
618.4267578125
 20
757.3525390625
 30
0.0
  0
VERTEX
  5
CA
330
C0
100
AcDbEntity
  8
Ebene 1
370
     0
100
AcDbVertex
100
AcDb2dVertex
 10
618.4267578125
 20
755.80859375
 30
0.0
  0
VERTEX
  5
CB
330
C0
100
AcDbEntity
  8
Ebene 1
370
     0
100
AcDbVertex
100
AcDb2dVertex
 10
617.80859375
 20
754.30859375
 30
0.0
  0
VERTEX
  5
CC
330
C0
100
AcDbEntity
  8
Ebene 1
370
     0
100
AcDbVertex
100
AcDb2dVertex
 10
616.5732421875
 20
752.0146484375
 30
0.0
  0
VERTEX
  5
CD
330
C0
100
AcDbEntity
  8
Ebene 1
370
     0
100
AcDbVertex
100
AcDb2dVertex
 10
610.529296875
 20
744.470703125
 30
0.0
  0
VERTEX
  5
CE
330
C0
100
AcDbEntity
  8
Ebene 1
370
     0
100
AcDbVertex
100
AcDb2dVertex
 10
619.0
 20
744.470703125
 30
0.0
  0
SEQEND
  5
CF
330
C0
100
AcDbEntity
  8
Ebene 1
370
     0
  0
POLYLINE
  5
D0
330
3C
100
AcDbEntity
  8
Ebene 1
370
     0
100
AcDb2dPolyline
 66
     1
 10
0.0
 20
0.0
 30
0.0
  0
VERTEX
  5
D1
330
D0
100
AcDbEntity
  8
Ebene 1
370
     0
100
AcDbVertex
100
AcDb2dVertex
 10
623.279296875
 20
756.55859375
 30
0.0
  0
VERTEX
  5
D2
330
D0
100
AcDbEntity
  8
Ebene 1
370
     0
100
AcDbVertex
100
AcDb2dVertex
 10
623.279296875
 20
757.3525390625
 30
0.0
  0
VERTEX
  5
D3
330
D0
100
AcDbEntity
  8
Ebene 1
370
     0
100
AcDbVertex
100
AcDb2dVertex
 10
623.8525390625
 20
758.8525390625
 30
0.0
  0
VERTEX
  5
D4
330
D0
100
AcDbEntity
  8
Ebene 1
370
     0
100
AcDbVertex
100
AcDb2dVertex
 10
624.470703125
 20
759.6025390625
 30
0.0
  0
VERTEX
  5
D5
330
D0
100
AcDbEntity
  8
Ebene 1
370
     0
100
AcDbVertex
100
AcDb2dVertex
 10
625.662109375
 20
760.3525390625
 30
0.0
  0
VERTEX
  5
D6
330
D0
100
AcDbEntity
  8
Ebene 1
370
     0
100
AcDbVertex
100
AcDb2dVertex
 10
628.087890625
 20
760.3525390625
 30
0.0
  0
VERTEX
  5
D7
330
D0
100
AcDbEntity
  8
Ebene 1
370
     0
100
AcDbVertex
100
AcDb2dVertex
 10
629.3232421875
 20
759.6025390625
 30
0.0
  0
VERTEX
  5
D8
330
D0
100
AcDbEntity
  8
Ebene 1
370
     0
100
AcDbVertex
100
AcDb2dVertex
 10
629.94140625
 20
758.8525390625
 30
0.0
  0
VERTEX
  5
D9
330
D0
100
AcDbEntity
  8
Ebene 1
370
     0
100
AcDbVertex
100
AcDb2dVertex
 10
630.5146484375
 20
757.3525390625
 30
0.0
  0
VERTEX
  5
DA
330
D0
100
AcDbEntity
  8
Ebene 1
370
     0
100
AcDbVertex
100
AcDb2dVertex
 10
630.5146484375
 20
755.80859375
 30
0.0
  0
VERTEX
  5
DB
330
D0
100
AcDbEntity
  8
Ebene 1
370
     0
100
AcDbVertex
100
AcDb2dVertex
 10
629.94140625
 20
754.30859375
 30
0.0
  0
VERTEX
  5
DC
330
D0
100
AcDbEntity
  8
Ebene 1
370
     0
100
AcDbVertex
100
AcDb2dVertex
 10
628.7060546875
 20
752.0146484375
 30
0.0
  0
VERTEX
  5
DD
330
D0
100
AcDbEntity
  8
Ebene 1
370
     0
100
AcDbVertex
100
AcDb2dVertex
 10
622.662109375
 20
744.470703125
 30
0.0
  0
VERTEX
  5
DE
330
D0
100
AcDbEntity
  8
Ebene 1
370
     0
100
AcDbVertex
100
AcDb2dVertex
 10
631.1328125
 20
744.470703125
 30
0.0
  0
SEQEND
  5
DF
330
D0
100
AcDbEntity
  8
Ebene 1
370
     0
  0
POLYLINE
  5
E0
330
3C
100
AcDbEntity
  8
Ebene 1
370
     0
100
AcDb2dPolyline
 66
     1
 10
0.0
 20
0.0
 30
0.0
  0
VERTEX
  5
E1
330
E0
100
AcDbEntity
  8
Ebene 1
370
     0
100
AcDbVertex
100
AcDb2dVertex
 10
670.662109375
 20
805.75
 30
0.0
  0
VERTEX
  5
E2
330
E0
100
AcDbEntity
  8
Ebene 1
370
     0
100
AcDbVertex
100
AcDb2dVertex
 10
769.7060546875
 20
805.75
 30
0.0
  0
SEQEND
  5
E3
330
E0
100
AcDbEntity
  8
Ebene 1
370
     0
  0
POLYLINE
  5
E4
330
3C
100
AcDbEntity
  8
Ebene 1
370
     0
100
AcDb2dPolyline
 66
     1
 10
0.0
 20
0.0
 30
0.0
  0
VERTEX
  5
E5
330
E4
100
AcDbEntity
  8
Ebene 1
370
     0
100
AcDbVertex
100
AcDb2dVertex
 10
655.30859375
 20
784.529296875
 30
0.0
  0
VERTEX
  5
E6
330
E4
100
AcDbEntity
  8
Ebene 1
370
     0
100
AcDbVertex
100
AcDb2dVertex
 10
769.7060546875
 20
784.529296875
 30
0.0
  0
SEQEND
  5
E7
330
E4
100
AcDbEntity
  8
Ebene 1
370
     0
  0
POLYLINE
  5
E8
330
3C
100
AcDbEntity
  8
Ebene 1
370
     0
100
AcDb2dPolyline
 66
     1
 10
0.0
 20
0.0
 30
0.0
  0
VERTEX
  5
E9
330
E8
100
AcDbEntity
  8
Ebene 1
370
     0
100
AcDbVertex
100
AcDb2dVertex
 10
759.1171875
 20
818.9853515625
 30
0.0
  0
VERTEX
  5
EA
330
E8
100
AcDbEntity
  8
Ebene 1
370
     0
100
AcDbVertex
100
AcDb2dVertex
 10
759.1171875
 20
832.2646484375
 30
0.0
  0
SEQEND
  5
EB
330
E8
100
AcDbEntity
  8
Ebene 1
370
     0
  0
POLYLINE
  5
EC
330
3C
100
AcDbEntity
  8
Ebene 1
370
     0
100
AcDb2dPolyline
 66
     1
 10
0.0
 20
0.0
 30
0.0
  0
VERTEX
  5
ED
330
EC
100
AcDbEntity
  8
Ebene 1
370
     0
100
AcDbVertex
100
AcDb2dVertex
 10
759.1171875
 20
771.25
 30
0.0
  0
VERTEX
  5
EE
330
EC
100
AcDbEntity
  8
Ebene 1
370
     0
100
AcDbVertex
100
AcDb2dVertex
 10
759.1171875
 20
738.9111328125
 30
0.0
  0
SEQEND
  5
EF
330
EC
100
AcDbEntity
  8
Ebene 1
370
     0
  0
POLYLINE
  5
F0
330
3C
100
AcDbEntity
  8
Ebene 1
370
     0
100
AcDb2dPolyline
 66
     1
 10
0.0
 20
0.0
 30
0.0
  0
VERTEX
  5
F1
330
F0
100
AcDbEntity
  8
Ebene 1
370
     0
100
AcDbVertex
100
AcDb2dVertex
 10
759.1171875
 20
805.75
 30
0.0
  0
VERTEX
  5
F2
330
F0
100
AcDbEntity
  8
Ebene 1
370
     0
100
AcDbVertex
100
AcDb2dVertex
 10
759.1171875
 20
784.529296875
 30
0.0
  0
SEQEND
  5
F3
330
F0
100
AcDbEntity
  8
Ebene 1
370
     0
  0
POLYLINE
  5
F4
330
3C
100
AcDbEntity
  8
Ebene 1
370
     0
100
AcDb2dPolyline
 66
     1
 10
0.0
 20
0.0
 30
0.0
  0
VERTEX
  5
F5
330
F4
100
AcDbEntity
  8
Ebene 1
370
     0
100
AcDbVertex
100
AcDb2dVertex
 10
756.912109375
 20
818.9853515625
 30
0.0
  0
VERTEX
  5
F6
330
F4
100
AcDbEntity
  8
Ebene 1
370
     0
100
AcDbVertex
100
AcDb2dVertex
 10
761.3232421875
 20
818.9853515625
 30
0.0
  0
VERTEX
  5
F7
330
F4
100
AcDbEntity
  8
Ebene 1
370
     0
100
AcDbVertex
100
AcDb2dVertex
 10
759.1171875
 20
805.75
 30
0.0
  0
VERTEX
  5
F8
330
F4
100
AcDbEntity
  8
Ebene 1
370
     0
100
AcDbVertex
100
AcDb2dVertex
 10
756.912109375
 20
818.9853515625
 30
0.0
  0
SEQEND
  5
F9
330
F4
100
AcDbEntity
  8
Ebene 1
370
     0
  0
HATCH
  5
FA
330
3C
100
AcDbEntity
  8
Ebene 1
 62
   251
420
  6710886
100
AcDbHatch
 10
0.0
 20
0.0
 30
0.0
210
0.0
220
0.0
230
1.0
  2
SOLID
 70
     1
 71
     0
 91
        1
 92
        1
 93
        3
 72
     1
 10
756.912109375
 20
818.9853515625
 11
761.3232421875
 21
818.9853515625
 72
     1
 10
761.3232421875
 20
818.9853515625
 11
759.1171875
 21
805.75
 72
     1
 10
759.1171875
 20
805.75
 11
756.912109375
 21
818.9853515625
 97
        0
 75
     0
 76
     1
 98
        0
  0
POLYLINE
  5
FB
330
3C
100
AcDbEntity
  8
Ebene 1
370
     0
100
AcDb2dPolyline
 66
     1
 10
0.0
 20
0.0
 30
0.0
  0
VERTEX
  5
FC
330
FB
100
AcDbEntity
  8
Ebene 1
370
     0
100
AcDbVertex
100
AcDb2dVertex
 10
756.912109375
 20
771.25
 30
0.0
  0
VERTEX
  5
FD
330
FB
100
AcDbEntity
  8
Ebene 1
370
     0
100
AcDbVertex
100
AcDb2dVertex
 10
761.3232421875
 20
771.25
 30
0.0
  0
VERTEX
  5
FE
330
FB
100
AcDbEntity
  8
Ebene 1
370
     0
100
AcDbVertex
100
AcDb2dVertex
 10
759.1171875
 20
784.529296875
 30
0.0
  0
VERTEX
  5
FF
330
FB
100
AcDbEntity
  8
Ebene 1
370
     0
100
AcDbVertex
100
AcDb2dVertex
 10
756.912109375
 20
771.25
 30
0.0
  0
SEQEND
  5
100
330
FB
100
AcDbEntity
  8
Ebene 1
370
     0
  0
HATCH
  5
101
330
3C
100
AcDbEntity
  8
Ebene 1
 62
   251
420
  6710886
100
AcDbHatch
 10
0.0
 20
0.0
 30
0.0
210
0.0
220
0.0
230
1.0
  2
SOLID
 70
     1
 71
     0
 91
        1
 92
        1
 93
        3
 72
     1
 10
756.912109375
 20
771.25
 11
761.3232421875
 21
771.25
 72
     1
 10
761.3232421875
 20
771.25
 11
759.1171875
 21
784.529296875
 72
     1
 10
759.1171875
 20
784.529296875
 11
756.912109375
 21
771.25
 97
        0
 75
     0
 76
     1
 98
        0
  0
POLYLINE
  5
102
330
3C
100
AcDbEntity
  8
Ebene 1
370
     0
100
AcDb2dPolyline
 66
     1
 10
0.0
 20
0.0
 30
0.0
  0
VERTEX
  5
103
330
102
100
AcDbEntity
  8
Ebene 1
370
     0
100
AcDbVertex
100
AcDb2dVertex
 10
-158.0
 20
-296.0439453125
 30
0.0
  0
VERTEX
  5
104
330
102
100
AcDbEntity
  8
Ebene 1
370
     0
100
AcDbVertex
100
AcDb2dVertex
 10
-158.0
 20
-296.0439453125
 30
0.0
  0
SEQEND
  5
105
330
102
100
AcDbEntity
  8
Ebene 1
370
     0
  0
POLYLINE
  5
106
330
3C
100
AcDbEntity
  8
Ebene 1
370
     0
100
AcDb2dPolyline
 66
     1
 10
0.0
 20
0.0
 30
0.0
  0
VERTEX
  5
107
330
106
100
AcDbEntity
  8
Ebene 1
370
     0
100
AcDbVertex
100
AcDb2dVertex
 10
-158.0
 20
-296.0439453125
 30
0.0
  0
VERTEX
  5
108
330
106
100
AcDbEntity
  8
Ebene 1
370
     0
100
AcDbVertex
100
AcDb2dVertex
 10
-158.0
 20
-296.0439453125
 30
0.0
  0
SEQEND
  5
109
330
106
100
AcDbEntity
  8
Ebene 1
370
     0
  0
POLYLINE
  5
10A
330
3C
100
AcDbEntity
  8
Ebene 1
370
     0
100
AcDb2dPolyline
 66
     1
 10
0.0
 20
0.0
 30
0.0
  0
VERTEX
  5
10B
330
10A
100
AcDbEntity
  8
Ebene 1
370
     0
100
AcDbVertex
100
AcDb2dVertex
 10
-158.0
 20
-296.0439453125
 30
0.0
  0
VERTEX
  5
10C
330
10A
100
AcDbEntity
  8
Ebene 1
370
     0
100
AcDbVertex
100
AcDb2dVertex
 10
-158.0
 20
-296.0439453125
 30
0.0
  0
SEQEND
  5
10D
330
10A
100
AcDbEntity
  8
Ebene 1
370
     0
  0
POLYLINE
  5
10E
330
3C
100
AcDbEntity
  8
Ebene 1
370
     0
100
AcDb2dPolyline
 66
     1
 10
0.0
 20
0.0
 30
0.0
  0
VERTEX
  5
10F
330
10E
100
AcDbEntity
  8
Ebene 1
370
     0
100
AcDbVertex
100
AcDb2dVertex
 10
737.8974609375
 20
747.25
 30
0.0
  0
VERTEX
  5
110
330
10E
100
AcDbEntity
  8
Ebene 1
370
     0
100
AcDbVertex
100
AcDb2dVertex
 10
738.69140625
 20
745.44140625
 30
0.0
  0
VERTEX
  5
111
330
10E
100
AcDbEntity
  8
Ebene 1
370
     0
100
AcDbVertex
100
AcDb2dVertex
 10
740.19140625
 20
744.8232421875
 30
0.0
  0
VERTEX
  5
112
330
10E
100
AcDbEntity
  8
Ebene 1
370
     0
100
AcDbVertex
100
AcDb2dVertex
 10
741.69140625
 20
744.8232421875
 30
0.0
  0
VERTEX
  5
113
330
10E
100
AcDbEntity
  8
Ebene 1
370
     0
100
AcDbVertex
100
AcDb2dVertex
 10
743.2353515625
 20
745.44140625
 30
0.0
  0
VERTEX
  5
114
330
10E
100
AcDbEntity
  8
Ebene 1
370
     0
100
AcDbVertex
100
AcDb2dVertex
 10
743.9853515625
 20
746.6318359375
 30
0.0
  0
VERTEX
  5
115
330
10E
100
AcDbEntity
  8
Ebene 1
370
     0
100
AcDbVertex
100
AcDb2dVertex
 10
744.7353515625
 20
749.05859375
 30
0.0
  0
VERTEX
  5
116
330
10E
100
AcDbEntity
  8
Ebene 1
370
     0
100
AcDbVertex
100
AcDb2dVertex
 10
745.4853515625
 20
750.8671875
 30
0.0
  0
VERTEX
  5
117
330
10E
100
AcDbEntity
  8
Ebene 1
370
     0
100
AcDbVertex
100
AcDb2dVertex
 10
746.9853515625
 20
752.1025390625
 30
0.0
  0
VERTEX
  5
118
330
10E
100
AcDbEntity
  8
Ebene 1
370
     0
100
AcDbVertex
100
AcDb2dVertex
 10
748.529296875
 20
752.720703125
 30
0.0
  0
VERTEX
  5
119
330
10E
100
AcDbEntity
  8
Ebene 1
370
     0
100
AcDbVertex
100
AcDb2dVertex
 10
750.779296875
 20
752.720703125
 30
0.0
  0
VERTEX
  5
11A
330
10E
100
AcDbEntity
  8
Ebene 1
370
     0
100
AcDbVertex
100
AcDb2dVertex
 10
752.3232421875
 20
752.1025390625
 30
0.0
  0
VERTEX
  5
11B
330
10E
100
AcDbEntity
  8
Ebene 1
370
     0
100
AcDbVertex
100
AcDb2dVertex
 10
753.0732421875
 20
751.4853515625
 30
0.0
  0
VERTEX
  5
11C
330
10E
100
AcDbEntity
  8
Ebene 1
370
     0
100
AcDbVertex
100
AcDb2dVertex
 10
753.8232421875
 20
749.67578125
 30
0.0
  0
VERTEX
  5
11D
330
10E
100
AcDbEntity
  8
Ebene 1
370
     0
100
AcDbVertex
100
AcDb2dVertex
 10
753.8232421875
 20
747.25
 30
0.0
  0
VERTEX
  5
11E
330
10E
100
AcDbEntity
  8
Ebene 1
370
     0
100
AcDbVertex
100
AcDb2dVertex
 10
753.0732421875
 20
745.44140625
 30
0.0
  0
VERTEX
  5
11F
330
10E
100
AcDbEntity
  8
Ebene 1
370
     0
100
AcDbVertex
100
AcDb2dVertex
 10
752.3232421875
 20
744.8232421875
 30
0.0
  0
VERTEX
  5
120
330
10E
100
AcDbEntity
  8
Ebene 1
370
     0
100
AcDbVertex
100
AcDb2dVertex
 10
750.779296875
 20
744.2060546875
 30
0.0
  0
VERTEX
  5
121
330
10E
100
AcDbEntity
  8
Ebene 1
370
     0
100
AcDbVertex
100
AcDb2dVertex
 10
748.529296875
 20
744.2060546875
 30
0.0
  0
VERTEX
  5
122
330
10E
100
AcDbEntity
  8
Ebene 1
370
     0
100
AcDbVertex
100
AcDb2dVertex
 10
746.9853515625
 20
744.8232421875
 30
0.0
  0
VERTEX
  5
123
330
10E
100
AcDbEntity
  8
Ebene 1
370
     0
100
AcDbVertex
100
AcDb2dVertex
 10
745.4853515625
 20
746.0146484375
 30
0.0
  0
VERTEX
  5
124
330
10E
100
AcDbEntity
  8
Ebene 1
370
     0
100
AcDbVertex
100
AcDb2dVertex
 10
744.7353515625
 20
747.8671875
 30
0.0
  0
VERTEX
  5
125
330
10E
100
AcDbEntity
  8
Ebene 1
370
     0
100
AcDbVertex
100
AcDb2dVertex
 10
743.9853515625
 20
750.2939453125
 30
0.0
  0
VERTEX
  5
126
330
10E
100
AcDbEntity
  8
Ebene 1
370
     0
100
AcDbVertex
100
AcDb2dVertex
 10
743.2353515625
 20
751.4853515625
 30
0.0
  0
VERTEX
  5
127
330
10E
100
AcDbEntity
  8
Ebene 1
370
     0
100
AcDbVertex
100
AcDb2dVertex
 10
741.69140625
 20
752.1025390625
 30
0.0
  0
VERTEX
  5
128
330
10E
100
AcDbEntity
  8
Ebene 1
370
     0
100
AcDbVertex
100
AcDb2dVertex
 10
740.19140625
 20
752.1025390625
 30
0.0
  0
VERTEX
  5
129
330
10E
100
AcDbEntity
  8
Ebene 1
370
     0
100
AcDbVertex
100
AcDb2dVertex
 10
738.69140625
 20
751.4853515625
 30
0.0
  0
VERTEX
  5
12A
330
10E
100
AcDbEntity
  8
Ebene 1
370
     0
100
AcDbVertex
100
AcDb2dVertex
 10
737.8974609375
 20
749.67578125
 30
0.0
  0
VERTEX
  5
12B
330
10E
100
AcDbEntity
  8
Ebene 1
370
     0
100
AcDbVertex
100
AcDb2dVertex
 10
737.8974609375
 20
747.25
 30
0.0
  0
VERTEX
  5
12C
330
10E
100
AcDbEntity
  8
Ebene 1
370
     0
100
AcDbVertex
100
AcDb2dVertex
 10
737.8974609375
 20
747.25
 30
0.0
  0
SEQEND
  5
12D
330
10E
100
AcDbEntity
  8
Ebene 1
370
     0
  0
POLYLINE
  5
12E
330
3C
100
AcDbEntity
  8
Ebene 1
370
     0
100
AcDb2dPolyline
 66
     1
 10
0.0
 20
0.0
 30
0.0
  0
VERTEX
  5
12F
330
12E
100
AcDbEntity
  8
Ebene 1
370
     0
100
AcDbVertex
100
AcDb2dVertex
 10
649.970703125
 20
821.1025390625
 30
0.0
  0
VERTEX
  5
130
330
12E
100
AcDbEntity
  8
Ebene 1
370
     0
100
AcDbVertex
100
AcDb2dVertex
 10
649.970703125
 20
790.3525390625
 30
0.0
  0
SEQEND
  5
131
330
12E
100
AcDbEntity
  8
Ebene 1
370
     0
  0
POLYLINE
  5
132
330
3C
100
AcDbEntity
  8
Ebene 1
370
     0
100
AcDb2dPolyline
 66
     1
 10
0.0
 20
0.0
 30
0.0
  0
VERTEX
  5
133
330
132
100
AcDbEntity
  8
Ebene 1
370
     0
100
AcDbVertex
100
AcDb2dVertex
 10
665.3671875
 20
805.75
 30
0.0
  0
VERTEX
  5
134
330
132
100
AcDbEntity
  8
Ebene 1
370
     0
100
AcDbVertex
100
AcDb2dVertex
 10
634.6171875
 20
805.75
 30
0.0
  0
SEQEND
  5
135
330
132
100
AcDbEntity
  8
Ebene 1
370
     0
  0
POLYLINE
  5
136
330
3C
100
AcDbEntity
  8
Ebene 1
370
     0
100
AcDb2dPolyline
 66
     1
 10
0.0
 20
0.0
 30
0.0
  0
VERTEX
  5
137
330
136
100
AcDbEntity
  8
Ebene 1
370
     0
100
AcDbVertex
100
AcDb2dVertex
 10
607.5732421875
 20
803.1025390625
 30
0.0
  0
VERTEX
  5
138
330
136
100
AcDbEntity
  8
Ebene 1
370
     0
100
AcDbVertex
100
AcDb2dVertex
 10
586.3974609375
 20
803.1025390625
 30
0.0
  0
SEQEND
  5
139
330
136
100
AcDbEntity
  8
Ebene 1
370
     0
  0
POLYLINE
  5
13A
330
3C
100
AcDbEntity
  8
Ebene 1
370
     0
100
AcDb2dPolyline
 66
     1
 10
0.0
 20
0.0
 30
0.0
  0
VERTEX
  5
13B
330
13A
100
AcDbEntity
  8
Ebene 1
370
     0
100
AcDbVertex
100
AcDb2dVertex
 10
586.3974609375
 20
870.73486328125
 30
0.0
  0
VERTEX
  5
13C
330
13A
100
AcDbEntity
  8
Ebene 1
370
     0
100
AcDbVertex
100
AcDb2dVertex
 10
607.5732421875
 20
870.73486328125
 30
0.0
  0
SEQEND
  5
13D
330
13A
100
AcDbEntity
  8
Ebene 1
370
     0
  0
POLYLINE
  5
13E
330
3C
100
AcDbEntity
  8
Ebene 1
370
     0
100
AcDb2dPolyline
 66
     1
 10
0.0
 20
0.0
 30
0.0
  0
VERTEX
  5
13F
330
13E
100
AcDbEntity
  8
Ebene 1
370
     0
100
AcDbVertex
100
AcDb2dVertex
 10
602.279296875
 20
886.66162109375
 30
0.0
  0
VERTEX
  5
140
330
13E
100
AcDbEntity
  8
Ebene 1
370
     0
100
AcDbVertex
100
AcDb2dVertex
 10
602.279296875
 20
784.529296875
 30
0.0
  0
SEQEND
  5
141
330
13E
100
AcDbEntity
  8
Ebene 1
370
     0
  0
POLYLINE
  5
142
330
3C
100
AcDbEntity
  8
Ebene 1
370
     0
100
AcDb2dPolyline
 66
     1
 10
0.0
 20
0.0
 30
0.0
  0
VERTEX
  5
143
330
142
100
AcDbEntity
  8
Ebene 1
370
     0
100
AcDbVertex
100
AcDb2dVertex
 10
591.69140625
 20
886.66162109375
 30
0.0
  0
VERTEX
  5
144
330
142
100
AcDbEntity
  8
Ebene 1
370
     0
100
AcDbVertex
100
AcDb2dVertex
 10
602.279296875
 20
886.66162109375
 30
0.0
  0
SEQEND
  5
145
330
142
100
AcDbEntity
  8
Ebene 1
370
     0
  0
POLYLINE
  5
146
330
3C
100
AcDbEntity
  8
Ebene 1
370
     0
100
AcDb2dPolyline
 66
     1
 10
0.0
 20
0.0
 30
0.0
  0
VERTEX
  5
147
330
146
100
AcDbEntity
  8
Ebene 1
370
     0
100
AcDbVertex
100
AcDb2dVertex
 10
591.69140625
 20
784.529296875
 30
0.0
  0
VERTEX
  5
148
330
146
100
AcDbEntity
  8
Ebene 1
370
     0
100
AcDbVertex
100
AcDb2dVertex
 10
591.69140625
 20
886.66162109375
 30
0.0
  0
SEQEND
  5
149
330
146
100
AcDbEntity
  8
Ebene 1
370
     0
  0
POLYLINE
  5
14A
330
3C
100
AcDbEntity
  8
Ebene 1
370
     0
100
AcDb2dPolyline
 66
     1
 10
0.0
 20
0.0
 30
0.0
  0
VERTEX
  5
14B
330
14A
100
AcDbEntity
  8
Ebene 1
370
     0
100
AcDbVertex
100
AcDb2dVertex
 10
649.970703125
 20
796.220703125
 30
0.0
  0
VERTEX
  5
14C
330
14A
100
AcDbEntity
  8
Ebene 1
370
     0
100
AcDbVertex
100
AcDb2dVertex
 10
650.9853515625
 20
796.2646484375
 30
0.0
  0
VERTEX
  5
14D
330
14A
100
AcDbEntity
  8
Ebene 1
370
     0
100
AcDbVertex
100
AcDb2dVertex
 10
652.0
 20
796.44140625
 30
0.0
  0
VERTEX
  5
14E
330
14A
100
AcDbEntity
  8
Ebene 1
370
     0
100
AcDbVertex
100
AcDb2dVertex
 10
653.0146484375
 20
796.7060546875
 30
0.0
  0
VERTEX
  5
14F
330
14A
100
AcDbEntity
  8
Ebene 1
370
     0
100
AcDbVertex
100
AcDb2dVertex
 10
653.9853515625
 20
797.1025390625
 30
0.0
  0
VERTEX
  5
150
330
14A
100
AcDbEntity
  8
Ebene 1
370
     0
100
AcDbVertex
100
AcDb2dVertex
 10
654.8671875
 20
797.587890625
 30
0.0
  0
VERTEX
  5
151
330
14A
100
AcDbEntity
  8
Ebene 1
370
     0
100
AcDbVertex
100
AcDb2dVertex
 10
655.75
 20
798.1611328125
 30
0.0
  0
VERTEX
  5
152
330
14A
100
AcDbEntity
  8
Ebene 1
370
     0
100
AcDbVertex
100
AcDb2dVertex
 10
656.5439453125
 20
798.8232421875
 30
0.0
  0
VERTEX
  5
153
330
14A
100
AcDbEntity
  8
Ebene 1
370
     0
100
AcDbVertex
100
AcDb2dVertex
 10
657.25
 20
799.5732421875
 30
0.0
  0
VERTEX
  5
154
330
14A
100
AcDbEntity
  8
Ebene 1
370
     0
100
AcDbVertex
100
AcDb2dVertex
 10
657.8671875
 20
800.4111328125
 30
0.0
  0
VERTEX
  5
155
330
14A
100
AcDbEntity
  8
Ebene 1
370
     0
100
AcDbVertex
100
AcDb2dVertex
 10
658.3974609375
 20
801.2939453125
 30
0.0
  0
VERTEX
  5
156
330
14A
100
AcDbEntity
  8
Ebene 1
370
     0
100
AcDbVertex
100
AcDb2dVertex
 10
658.837890625
 20
802.220703125
 30
0.0
  0
VERTEX
  5
157
330
14A
100
AcDbEntity
  8
Ebene 1
370
     0
100
AcDbVertex
100
AcDb2dVertex
 10
659.1474609375
 20
803.19140625
 30
0.0
  0
VERTEX
  5
158
330
14A
100
AcDbEntity
  8
Ebene 1
370
     0
100
AcDbVertex
100
AcDb2dVertex
 10
659.3671875
 20
804.2060546875
 30
0.0
  0
VERTEX
  5
159
330
14A
100
AcDbEntity
  8
Ebene 1
370
     0
100
AcDbVertex
100
AcDb2dVertex
 10
659.5
 20
805.220703125
 30
0.0
  0
VERTEX
  5
15A
330
14A
100
AcDbEntity
  8
Ebene 1
370
     0
100
AcDbVertex
100
AcDb2dVertex
 10
659.5
 20
806.279296875
 30
0.0
  0
VERTEX
  5
15B
330
14A
100
AcDbEntity
  8
Ebene 1
370
     0
100
AcDbVertex
100
AcDb2dVertex
 10
659.3671875
 20
807.2939453125
 30
0.0
  0
VERTEX
  5
15C
330
14A
100
AcDbEntity
  8
Ebene 1
370
     0
100
AcDbVertex
100
AcDb2dVertex
 10
659.1474609375
 20
808.30859375
 30
0.0
  0
VERTEX
  5
15D
330
14A
100
AcDbEntity
  8
Ebene 1
370
     0
100
AcDbVertex
100
AcDb2dVertex
 10
658.837890625
 20
809.279296875
 30
0.0
  0
VERTEX
  5
15E
330
14A
100
AcDbEntity
  8
Ebene 1
370
     0
100
AcDbVertex
100
AcDb2dVertex
 10
658.3974609375
 20
810.2060546875
 30
0.0
  0
VERTEX
  5
15F
330
14A
100
AcDbEntity
  8
Ebene 1
370
     0
100
AcDbVertex
100
AcDb2dVertex
 10
657.8671875
 20
811.087890625
 30
0.0
  0
VERTEX
  5
160
330
14A
100
AcDbEntity
  8
Ebene 1
370
     0
100
AcDbVertex
100
AcDb2dVertex
 10
657.25
 20
811.92578125
 30
0.0
  0
VERTEX
  5
161
330
14A
100
AcDbEntity
  8
Ebene 1
370
     0
100
AcDbVertex
100
AcDb2dVertex
 10
656.5439453125
 20
812.67578125
 30
0.0
  0
VERTEX
  5
162
330
14A
100
AcDbEntity
  8
Ebene 1
370
     0
100
AcDbVertex
100
AcDb2dVertex
 10
655.75
 20
813.337890625
 30
0.0
  0
VERTEX
  5
163
330
14A
100
AcDbEntity
  8
Ebene 1
370
     0
100
AcDbVertex
100
AcDb2dVertex
 10
654.8671875
 20
813.9111328125
 30
0.0
  0
VERTEX
  5
164
330
14A
100
AcDbEntity
  8
Ebene 1
370
     0
100
AcDbVertex
100
AcDb2dVertex
 10
653.9853515625
 20
814.396484375
 30
0.0
  0
VERTEX
  5
165
330
14A
100
AcDbEntity
  8
Ebene 1
370
     0
100
AcDbVertex
100
AcDb2dVertex
 10
653.0146484375
 20
814.7939453125
 30
0.0
  0
VERTEX
  5
166
330
14A
100
AcDbEntity
  8
Ebene 1
370
     0
100
AcDbVertex
100
AcDb2dVertex
 10
652.0
 20
815.05859375
 30
0.0
  0
VERTEX
  5
167
330
14A
100
AcDbEntity
  8
Ebene 1
370
     0
100
AcDbVertex
100
AcDb2dVertex
 10
650.9853515625
 20
815.2353515625
 30
0.0
  0
VERTEX
  5
168
330
14A
100
AcDbEntity
  8
Ebene 1
370
     0
100
AcDbVertex
100
AcDb2dVertex
 10
649.970703125
 20
815.279296875
 30
0.0
  0
VERTEX
  5
169
330
14A
100
AcDbEntity
  8
Ebene 1
370
     0
100
AcDbVertex
100
AcDb2dVertex
 10
648.9560546875
 20
815.2353515625
 30
0.0
  0
VERTEX
  5
16A
330
14A
100
AcDbEntity
  8
Ebene 1
370
     0
100
AcDbVertex
100
AcDb2dVertex
 10
647.94140625
 20
815.05859375
 30
0.0
  0
VERTEX
  5
16B
330
14A
100
AcDbEntity
  8
Ebene 1
370
     0
100
AcDbVertex
100
AcDb2dVertex
 10
646.9267578125
 20
814.7939453125
 30
0.0
  0
VERTEX
  5
16C
330
14A
100
AcDbEntity
  8
Ebene 1
370
     0
100
AcDbVertex
100
AcDb2dVertex
 10
645.9560546875
 20
814.396484375
 30
0.0
  0
VERTEX
  5
16D
330
14A
100
AcDbEntity
  8
Ebene 1
370
     0
100
AcDbVertex
100
AcDb2dVertex
 10
645.0732421875
 20
813.9111328125
 30
0.0
  0
VERTEX
  5
16E
330
14A
100
AcDbEntity
  8
Ebene 1
370
     0
100
AcDbVertex
100
AcDb2dVertex
 10
644.19140625
 20
813.337890625
 30
0.0
  0
VERTEX
  5
16F
330
14A
100
AcDbEntity
  8
Ebene 1
370
     0
100
AcDbVertex
100
AcDb2dVertex
 10
643.3974609375
 20
812.67578125
 30
0.0
  0
VERTEX
  5
170
330
14A
100
AcDbEntity
  8
Ebene 1
370
     0
100
AcDbVertex
100
AcDb2dVertex
 10
642.69140625
 20
811.92578125
 30
0.0
  0
VERTEX
  5
171
330
14A
100
AcDbEntity
  8
Ebene 1
370
     0
100
AcDbVertex
100
AcDb2dVertex
 10
642.0732421875
 20
811.087890625
 30
0.0
  0
VERTEX
  5
172
330
14A
100
AcDbEntity
  8
Ebene 1
370
     0
100
AcDbVertex
100
AcDb2dVertex
 10
641.5439453125
 20
810.2060546875
 30
0.0
  0
VERTEX
  5
173
330
14A
100
AcDbEntity
  8
Ebene 1
370
     0
100
AcDbVertex
100
AcDb2dVertex
 10
641.1025390625
 20
809.279296875
 30
0.0
  0
VERTEX
  5
174
330
14A
100
AcDbEntity
  8
Ebene 1
370
     0
100
AcDbVertex
100
AcDb2dVertex
 10
640.7939453125
 20
808.30859375
 30
0.0
  0
VERTEX
  5
175
330
14A
100
AcDbEntity
  8
Ebene 1
370
     0
100
AcDbVertex
100
AcDb2dVertex
 10
640.5732421875
 20
807.2939453125
 30
0.0
  0
VERTEX
  5
176
330
14A
100
AcDbEntity
  8
Ebene 1
370
     0
100
AcDbVertex
100
AcDb2dVertex
 10
640.44140625
 20
806.279296875
 30
0.0
  0
VERTEX
  5
177
330
14A
100
AcDbEntity
  8
Ebene 1
370
     0
100
AcDbVertex
100
AcDb2dVertex
 10
640.44140625
 20
805.220703125
 30
0.0
  0
VERTEX
  5
178
330
14A
100
AcDbEntity
  8
Ebene 1
370
     0
100
AcDbVertex
100
AcDb2dVertex
 10
640.5732421875
 20
804.2060546875
 30
0.0
  0
VERTEX
  5
179
330
14A
100
AcDbEntity
  8
Ebene 1
370
     0
100
AcDbVertex
100
AcDb2dVertex
 10
640.7939453125
 20
803.19140625
 30
0.0
  0
VERTEX
  5
17A
330
14A
100
AcDbEntity
  8
Ebene 1
370
     0
100
AcDbVertex
100
AcDb2dVertex
 10
641.1025390625
 20
802.220703125
 30
0.0
  0
VERTEX
  5
17B
330
14A
100
AcDbEntity
  8
Ebene 1
370
     0
100
AcDbVertex
100
AcDb2dVertex
 10
641.5439453125
 20
801.2939453125
 30
0.0
  0
VERTEX
  5
17C
330
14A
100
AcDbEntity
  8
Ebene 1
370
     0
100
AcDbVertex
100
AcDb2dVertex
 10
642.0732421875
 20
800.4111328125
 30
0.0
  0
VERTEX
  5
17D
330
14A
100
AcDbEntity
  8
Ebene 1
370
     0
100
AcDbVertex
100
AcDb2dVertex
 10
642.69140625
 20
799.5732421875
 30
0.0
  0
VERTEX
  5
17E
330
14A
100
AcDbEntity
  8
Ebene 1
370
     0
100
AcDbVertex
100
AcDb2dVertex
 10
643.3974609375
 20
798.8232421875
 30
0.0
  0
VERTEX
  5
17F
330
14A
100
AcDbEntity
  8
Ebene 1
370
     0
100
AcDbVertex
100
AcDb2dVertex
 10
644.19140625
 20
798.1611328125
 30
0.0
  0
VERTEX
  5
180
330
14A
100
AcDbEntity
  8
Ebene 1
370
     0
100
AcDbVertex
100
AcDb2dVertex
 10
645.0732421875
 20
797.587890625
 30
0.0
  0
VERTEX
  5
181
330
14A
100
AcDbEntity
  8
Ebene 1
370
     0
100
AcDbVertex
100
AcDb2dVertex
 10
645.9560546875
 20
797.1025390625
 30
0.0
  0
VERTEX
  5
182
330
14A
100
AcDbEntity
  8
Ebene 1
370
     0
100
AcDbVertex
100
AcDb2dVertex
 10
646.9267578125
 20
796.7060546875
 30
0.0
  0
VERTEX
  5
183
330
14A
100
AcDbEntity
  8
Ebene 1
370
     0
100
AcDbVertex
100
AcDb2dVertex
 10
647.94140625
 20
796.44140625
 30
0.0
  0
VERTEX
  5
184
330
14A
100
AcDbEntity
  8
Ebene 1
370
     0
100
AcDbVertex
100
AcDb2dVertex
 10
648.9560546875
 20
796.2646484375
 30
0.0
  0
VERTEX
  5
185
330
14A
100
AcDbEntity
  8
Ebene 1
370
     0
100
AcDbVertex
100
AcDb2dVertex
 10
649.970703125
 20
796.220703125
 30
0.0
  0
VERTEX
  5
186
330
14A
100
AcDbEntity
  8
Ebene 1
370
     0
100
AcDbVertex
100
AcDb2dVertex
 10
649.970703125
 20
796.220703125
 30
0.0
  0
SEQEND
  5
187
330
14A
100
AcDbEntity
  8
Ebene 1
370
     0
  0
POLYLINE
  5
188
330
3C
100
AcDbEntity
  8
Ebene 1
370
     0
100
AcDb2dPolyline
 66
     1
 10
0.0
 20
0.0
 30
0.0
  0
VERTEX
  5
189
330
188
100
AcDbEntity
  8
Ebene 1
370
     0
100
AcDbVertex
100
AcDb2dVertex
 10
602.279296875
 20
784.529296875
 30
0.0
  0
VERTEX
  5
18A
330
188
100
AcDbEntity
  8
Ebene 1
370
     0
100
AcDbVertex
100
AcDb2dVertex
 10
591.69140625
 20
784.529296875
 30
0.0
  0
SEQEND
  5
18B
330
188
100
AcDbEntity
  8
Ebene 1
370
     0
  0
POLYLINE
  5
18C
330
3C
100
AcDbEntity
  8
Ebene 1
370
     0
100
AcDb2dPolyline
 66
     1
 10
0.0
 20
0.0
 30
0.0
  0
VERTEX
  5
18D
330
18C
100
AcDbEntity
  8
Ebene 1
370
     0
100
AcDbVertex
100
AcDb2dVertex
 10
591.69140625
 20
865.087890625
 30
0.0
  0
VERTEX
  5
18E
330
18C
100
AcDbEntity
  8
Ebene 1
370
     0
100
AcDbVertex
100
AcDb2dVertex
 10
591.69140625
 20
800.720703125
 30
0.0
  0
SEQEND
  5
18F
330
18C
100
AcDbEntity
  8
Ebene 1
370
     0
  0
POLYLINE
  5
190
330
3C
100
AcDbEntity
  8
Ebene 1
370
     0
100
AcDb2dPolyline
 66
     1
 10
0.0
 20
0.0
 30
0.0
  0
VERTEX
  5
191
330
190
100
AcDbEntity
  8
Ebene 1
370
     0
100
AcDbVertex
100
AcDb2dVertex
 10
649.970703125
 20
784.529296875
 30
0.0
  0
VERTEX
  5
192
330
190
100
AcDbEntity
  8
Ebene 1
370
     0
100
AcDbVertex
100
AcDb2dVertex
 10
591.69140625
 20
784.529296875
 30
0.0
  0
SEQEND
  5
193
330
190
100
AcDbEntity
  8
Ebene 1
370
     0
  0
POLYLINE
  5
194
330
3C
100
AcDbEntity
  8
Ebene 1
370
     0
100
AcDb2dPolyline
 66
     1
 10
0.0
 20
0.0
 30
0.0
  0
VERTEX
  5
195
330
194
100
AcDbEntity
  8
Ebene 1
370
     0
100
AcDbVertex
100
AcDb2dVertex
 10
586.3974609375
 20
837.55859375
 30
0.0
  0
VERTEX
  5
196
330
194
100
AcDbEntity
  8
Ebene 1
370
     0
100
AcDbVertex
100
AcDb2dVertex
 10
607.5732421875
 20
837.55859375
 30
0.0
  0
SEQEND
  5
197
330
194
100
AcDbEntity
  8
Ebene 1
370
     0
  0
POLYLINE
  5
198
330
3C
100
AcDbEntity
  8
Ebene 1
370
     0
100
AcDb2dPolyline
 66
     1
 10
0.0
 20
0.0
 30
0.0
  0
VERTEX
  5
199
330
198
100
AcDbEntity
  8
Ebene 1
370
     0
100
AcDbVertex
100
AcDb2dVertex
 10
612.8671875
 20
850.837890625
 30
0.0
  0
VERTEX
  5
19A
330
198
100
AcDbEntity
  8
Ebene 1
370
     0
100
AcDbVertex
100
AcDb2dVertex
 10
612.8671875
 20
784.529296875
 30
0.0
  0
SEQEND
  5
19B
330
198
100
AcDbEntity
  8
Ebene 1
370
     0
  0
POLYLINE
  5
19C
330
3C
100
AcDbEntity
  8
Ebene 1
370
     0
100
AcDb2dPolyline
 66
     1
 10
0.0
 20
0.0
 30
0.0
  0
VERTEX
  5
19D
330
19C
100
AcDbEntity
  8
Ebene 1
370
     0
100
AcDbVertex
100
AcDb2dVertex
 10
646.7939453125
 20
826.7060546875
 30
0.0
  0
VERTEX
  5
19E
330
19C
100
AcDbEntity
  8
Ebene 1
370
     0
100
AcDbVertex
100
AcDb2dVertex
 10
630.029296875
 20
824.146484375
 30
0.0
  0
SEQEND
  5
19F
330
19C
100
AcDbEntity
  8
Ebene 1
370
     0
  0
POLYLINE
  5
1A0
330
3C
100
AcDbEntity
  8
Ebene 1
370
     0
100
AcDb2dPolyline
 66
     1
 10
0.0
 20
0.0
 30
0.0
  0
VERTEX
  5
1A1
330
1A0
100
AcDbEntity
  8
Ebene 1
370
     0
100
AcDbVertex
100
AcDb2dVertex
 10
649.970703125
 20
784.5732421875
 30
0.0
  0
VERTEX
  5
1A2
330
1A0
100
AcDbEntity
  8
Ebene 1
370
     0
100
AcDbVertex
100
AcDb2dVertex
 10
651.5146484375
 20
784.6171875
 30
0.0
  0
VERTEX
  5
1A3
330
1A0
100
AcDbEntity
  8
Ebene 1
370
     0
100
AcDbVertex
100
AcDb2dVertex
 10
653.05859375
 20
784.7939453125
 30
0.0
  0
VERTEX
  5
1A4
330
1A0
100
AcDbEntity
  8
Ebene 1
370
     0
100
AcDbVertex
100
AcDb2dVertex
 10
654.6025390625
 20
785.1025390625
 30
0.0
  0
VERTEX
  5
1A5
330
1A0
100
AcDbEntity
  8
Ebene 1
370
     0
100
AcDbVertex
100
AcDb2dVertex
 10
656.1025390625
 20
785.4560546875
 30
0.0
  0
VERTEX
  5
1A6
330
1A0
100
AcDbEntity
  8
Ebene 1
370
     0
100
AcDbVertex
100
AcDb2dVertex
 10
657.55859375
 20
785.9853515625
 30
0.0
  0
VERTEX
  5
1A7
330
1A0
100
AcDbEntity
  8
Ebene 1
370
     0
100
AcDbVertex
100
AcDb2dVertex
 10
658.970703125
 20
786.6025390625
 30
0.0
  0
VERTEX
  5
1A8
330
1A0
100
AcDbEntity
  8
Ebene 1
370
     0
100
AcDbVertex
100
AcDb2dVertex
 10
660.337890625
 20
787.30859375
 30
0.0
  0
VERTEX
  5
1A9
330
1A0
100
AcDbEntity
  8
Ebene 1
370
     0
100
AcDbVertex
100
AcDb2dVertex
 10
661.662109375
 20
788.1025390625
 30
0.0
  0
VERTEX
  5
1AA
330
1A0
100
AcDbEntity
  8
Ebene 1
370
     0
100
AcDbVertex
100
AcDb2dVertex
 10
662.94140625
 20
788.9853515625
 30
0.0
  0
VERTEX
  5
1AB
330
1A0
100
AcDbEntity
  8
Ebene 1
370
     0
100
AcDbVertex
100
AcDb2dVertex
 10
664.1328125
 20
790.0
 30
0.0
  0
VERTEX
  5
1AC
330
1A0
100
AcDbEntity
  8
Ebene 1
370
     0
100
AcDbVertex
100
AcDb2dVertex
 10
665.2353515625
 20
791.05859375
 30
0.0
  0
VERTEX
  5
1AD
330
1A0
100
AcDbEntity
  8
Ebene 1
370
     0
100
AcDbVertex
100
AcDb2dVertex
 10
666.25
 20
792.25
 30
0.0
  0
VERTEX
  5
1AE
330
1A0
100
AcDbEntity
  8
Ebene 1
370
     0
100
AcDbVertex
100
AcDb2dVertex
 10
667.220703125
 20
793.44140625
 30
0.0
  0
VERTEX
  5
1AF
330
1A0
100
AcDbEntity
  8
Ebene 1
370
     0
100
AcDbVertex
100
AcDb2dVertex
 10
668.05859375
 20
794.7646484375
 30
0.0
  0
VERTEX
  5
1B0
330
1A0
100
AcDbEntity
  8
Ebene 1
370
     0
100
AcDbVertex
100
AcDb2dVertex
 10
668.80859375
 20
796.087890625
 30
0.0
  0
VERTEX
  5
1B1
330
1A0
100
AcDbEntity
  8
Ebene 1
370
     0
100
AcDbVertex
100
AcDb2dVertex
 10
669.470703125
 20
797.5
 30
0.0
  0
VERTEX
  5
1B2
330
1A0
100
AcDbEntity
  8
Ebene 1
370
     0
100
AcDbVertex
100
AcDb2dVertex
 10
670.0439453125
 20
798.9560546875
 30
0.0
  0
VERTEX
  5
1B3
330
1A0
100
AcDbEntity
  8
Ebene 1
370
     0
100
AcDbVertex
100
AcDb2dVertex
 10
670.4853515625
 20
800.4560546875
 30
0.0
  0
VERTEX
  5
1B4
330
1A0
100
AcDbEntity
  8
Ebene 1
370
     0
100
AcDbVertex
100
AcDb2dVertex
 10
670.7939453125
 20
801.9560546875
 30
0.0
  0
VERTEX
  5
1B5
330
1A0
100
AcDbEntity
  8
Ebene 1
370
     0
100
AcDbVertex
100
AcDb2dVertex
 10
671.0146484375
 20
803.5
 30
0.0
  0
VERTEX
  5
1B6
330
1A0
100
AcDbEntity
  8
Ebene 1
370
     0
100
AcDbVertex
100
AcDb2dVertex
 10
671.1474609375
 20
805.0439453125
 30
0.0
  0
VERTEX
  5
1B7
330
1A0
100
AcDbEntity
  8
Ebene 1
370
     0
100
AcDbVertex
100
AcDb2dVertex
 10
671.1474609375
 20
806.587890625
 30
0.0
  0
VERTEX
  5
1B8
330
1A0
100
AcDbEntity
  8
Ebene 1
370
     0
100
AcDbVertex
100
AcDb2dVertex
 10
671.0146484375
 20
808.1318359375
 30
0.0
  0
VERTEX
  5
1B9
330
1A0
100
AcDbEntity
  8
Ebene 1
370
     0
100
AcDbVertex
100
AcDb2dVertex
 10
670.7939453125
 20
809.67578125
 30
0.0
  0
VERTEX
  5
1BA
330
1A0
100
AcDbEntity
  8
Ebene 1
370
     0
100
AcDbVertex
100
AcDb2dVertex
 10
670.44140625
 20
811.17578125
 30
0.0
  0
VERTEX
  5
1BB
330
1A0
100
AcDbEntity
  8
Ebene 1
370
     0
100
AcDbVertex
100
AcDb2dVertex
 10
670.0
 20
812.6318359375
 30
0.0
  0
VERTEX
  5
1BC
330
1A0
100
AcDbEntity
  8
Ebene 1
370
     0
100
AcDbVertex
100
AcDb2dVertex
 10
669.4267578125
 20
814.087890625
 30
0.0
  0
VERTEX
  5
1BD
330
1A0
100
AcDbEntity
  8
Ebene 1
370
     0
100
AcDbVertex
100
AcDb2dVertex
 10
668.7646484375
 20
815.5
 30
0.0
  0
VERTEX
  5
1BE
330
1A0
100
AcDbEntity
  8
Ebene 1
370
     0
100
AcDbVertex
100
AcDb2dVertex
 10
668.0146484375
 20
816.8671875
 30
0.0
  0
VERTEX
  5
1BF
330
1A0
100
AcDbEntity
  8
Ebene 1
370
     0
100
AcDbVertex
100
AcDb2dVertex
 10
667.1328125
 20
818.146484375
 30
0.0
  0
VERTEX
  5
1C0
330
1A0
100
AcDbEntity
  8
Ebene 1
370
     0
100
AcDbVertex
100
AcDb2dVertex
 10
666.2060546875
 20
819.337890625
 30
0.0
  0
VERTEX
  5
1C1
330
1A0
100
AcDbEntity
  8
Ebene 1
370
     0
100
AcDbVertex
100
AcDb2dVertex
 10
665.1474609375
 20
820.529296875
 30
0.0
  0
VERTEX
  5
1C2
330
1A0
100
AcDbEntity
  8
Ebene 1
370
     0
100
AcDbVertex
100
AcDb2dVertex
 10
664.0439453125
 20
821.587890625
 30
0.0
  0
VERTEX
  5
1C3
330
1A0
100
AcDbEntity
  8
Ebene 1
370
     0
100
AcDbVertex
100
AcDb2dVertex
 10
662.8525390625
 20
822.55859375
 30
0.0
  0
VERTEX
  5
1C4
330
1A0
100
AcDbEntity
  8
Ebene 1
370
     0
100
AcDbVertex
100
AcDb2dVertex
 10
661.5732421875
 20
823.44140625
 30
0.0
  0
VERTEX
  5
1C5
330
1A0
100
AcDbEntity
  8
Ebene 1
370
     0
100
AcDbVertex
100
AcDb2dVertex
 10
660.25
 20
824.279296875
 30
0.0
  0
VERTEX
  5
1C6
330
1A0
100
AcDbEntity
  8
Ebene 1
370
     0
100
AcDbVertex
100
AcDb2dVertex
 10
658.8828125
 20
824.9853515625
 30
0.0
  0
VERTEX
  5
1C7
330
1A0
100
AcDbEntity
  8
Ebene 1
370
     0
100
AcDbVertex
100
AcDb2dVertex
 10
657.4267578125
 20
825.55859375
 30
0.0
  0
VERTEX
  5
1C8
330
1A0
100
AcDbEntity
  8
Ebene 1
370
     0
100
AcDbVertex
100
AcDb2dVertex
 10
655.970703125
 20
826.0439453125
 30
0.0
  0
VERTEX
  5
1C9
330
1A0
100
AcDbEntity
  8
Ebene 1
370
     0
100
AcDbVertex
100
AcDb2dVertex
 10
654.470703125
 20
826.44140625
 30
0.0
  0
VERTEX
  5
1CA
330
1A0
100
AcDbEntity
  8
Ebene 1
370
     0
100
AcDbVertex
100
AcDb2dVertex
 10
652.9267578125
 20
826.7060546875
 30
0.0
  0
VERTEX
  5
1CB
330
1A0
100
AcDbEntity
  8
Ebene 1
370
     0
100
AcDbVertex
100
AcDb2dVertex
 10
651.3828125
 20
826.8818359375
 30
0.0
  0
VERTEX
  5
1CC
330
1A0
100
AcDbEntity
  8
Ebene 1
370
     0
100
AcDbVertex
100
AcDb2dVertex
 10
649.837890625
 20
826.92578125
 30
0.0
  0
VERTEX
  5
1CD
330
1A0
100
AcDbEntity
  8
Ebene 1
370
     0
100
AcDbVertex
100
AcDb2dVertex
 10
648.2939453125
 20
826.8818359375
 30
0.0
  0
VERTEX
  5
1CE
330
1A0
100
AcDbEntity
  8
Ebene 1
370
     0
100
AcDbVertex
100
AcDb2dVertex
 10
646.75
 20
826.6611328125
 30
0.0
  0
SEQEND
  5
1CF
330
1A0
100
AcDbEntity
  8
Ebene 1
370
     0
  0
POLYLINE
  5
1D0
330
3C
100
AcDbEntity
  8
Ebene 1
370
     0
100
AcDb2dPolyline
 66
     1
 10
0.0
 20
0.0
 30
0.0
  0
VERTEX
  5
1D1
330
1D0
100
AcDbEntity
  8
Ebene 1
370
     0
100
AcDbVertex
100
AcDb2dVertex
 10
602.279296875
 20
850.837890625
 30
0.0
  0
VERTEX
  5
1D2
330
1D0
100
AcDbEntity
  8
Ebene 1
370
     0
100
AcDbVertex
100
AcDb2dVertex
 10
618.162109375
 20
850.837890625
 30
0.0
  0
SEQEND
  5
1D3
330
1D0
100
AcDbEntity
  8
Ebene 1
370
     0
  0
POLYLINE
  5
1D4
330
3C
100
AcDbEntity
  8
Ebene 1
370
     0
100
AcDb2dPolyline
 66
     1
 10
0.0
 20
0.0
 30
0.0
  0
VERTEX
  5
1D5
330
1D4
100
AcDbEntity
  8
Ebene 1
370
     0
100
AcDbVertex
100
AcDb2dVertex
 10
620.80859375
 20
848.19091796875
 30
0.0
  0
VERTEX
  5
1D6
330
1D4
100
AcDbEntity
  8
Ebene 1
370
     0
100
AcDbVertex
100
AcDb2dVertex
 10
620.720703125
 20
848.7646484375
 30
0.0
  0
VERTEX
  5
1D7
330
1D4
100
AcDbEntity
  8
Ebene 1
370
     0
100
AcDbVertex
100
AcDb2dVertex
 10
620.5439453125
 20
849.337890625
 30
0.0
  0
VERTEX
  5
1D8
330
1D4
100
AcDbEntity
  8
Ebene 1
370
     0
100
AcDbVertex
100
AcDb2dVertex
 10
620.2353515625
 20
849.8232421875
 30
0.0
  0
VERTEX
  5
1D9
330
1D4
100
AcDbEntity
  8
Ebene 1
370
     0
100
AcDbVertex
100
AcDb2dVertex
 10
619.7939453125
 20
850.2646484375
 30
0.0
  0
VERTEX
  5
1DA
330
1D4
100
AcDbEntity
  8
Ebene 1
370
     0
100
AcDbVertex
100
AcDb2dVertex
 10
619.30859375
 20
850.5732421875
 30
0.0
  0
VERTEX
  5
1DB
330
1D4
100
AcDbEntity
  8
Ebene 1
370
     0
100
AcDbVertex
100
AcDb2dVertex
 10
618.7353515625
 20
850.75
 30
0.0
  0
VERTEX
  5
1DC
330
1D4
100
AcDbEntity
  8
Ebene 1
370
     0
100
AcDbVertex
100
AcDb2dVertex
 10
618.162109375
 20
850.837890625
 30
0.0
  0
SEQEND
  5
1DD
330
1D4
100
AcDbEntity
  8
Ebene 1
370
     0
  0
POLYLINE
  5
1DE
330
3C
100
AcDbEntity
  8
Ebene 1
370
     0
100
AcDb2dPolyline
 66
     1
 10
0.0
 20
0.0
 30
0.0
  0
VERTEX
  5
1DF
330
1DE
100
AcDbEntity
  8
Ebene 1
370
     0
100
AcDbVertex
100
AcDb2dVertex
 10
620.8525390625
 20
848.19091796875
 30
0.0
  0
VERTEX
  5
1E0
330
1DE
100
AcDbEntity
  8
Ebene 1
370
     0
100
AcDbVertex
100
AcDb2dVertex
 10
620.8525390625
 20
831.9111328125
 30
0.0
  0
SEQEND
  5
1E1
330
1DE
100
AcDbEntity
  8
Ebene 1
370
     0
  0
POLYLINE
  5
1E2
330
3C
100
AcDbEntity
  8
Ebene 1
370
     0
100
AcDb2dPolyline
 66
     1
 10
0.0
 20
0.0
 30
0.0
  0
VERTEX
  5
1E3
330
1E2
100
AcDbEntity
  8
Ebene 1
370
     0
100
AcDbVertex
100
AcDb2dVertex
 10
620.8525390625
 20
832.1318359375
 30
0.0
  0
VERTEX
  5
1E4
330
1E2
100
AcDbEntity
  8
Ebene 1
370
     0
100
AcDbVertex
100
AcDb2dVertex
 10
620.8974609375
 20
831.1611328125
 30
0.0
  0
VERTEX
  5
1E5
330
1E2
100
AcDbEntity
  8
Ebene 1
370
     0
100
AcDbVertex
100
AcDb2dVertex
 10
621.0732421875
 20
830.19140625
 30
0.0
  0
VERTEX
  5
1E6
330
1E2
100
AcDbEntity
  8
Ebene 1
370
     0
100
AcDbVertex
100
AcDb2dVertex
 10
621.3828125
 20
829.220703125
 30
0.0
  0
VERTEX
  5
1E7
330
1E2
100
AcDbEntity
  8
Ebene 1
370
     0
100
AcDbVertex
100
AcDb2dVertex
 10
621.779296875
 20
828.337890625
 30
0.0
  0
VERTEX
  5
1E8
330
1E2
100
AcDbEntity
  8
Ebene 1
370
     0
100
AcDbVertex
100
AcDb2dVertex
 10
622.2646484375
 20
827.5
 30
0.0
  0
VERTEX
  5
1E9
330
1E2
100
AcDbEntity
  8
Ebene 1
370
     0
100
AcDbVertex
100
AcDb2dVertex
 10
622.8828125
 20
826.7060546875
 30
0.0
  0
VERTEX
  5
1EA
330
1E2
100
AcDbEntity
  8
Ebene 1
370
     0
100
AcDbVertex
100
AcDb2dVertex
 10
623.587890625
 20
826.0439453125
 30
0.0
  0
VERTEX
  5
1EB
330
1E2
100
AcDbEntity
  8
Ebene 1
370
     0
100
AcDbVertex
100
AcDb2dVertex
 10
624.3828125
 20
825.42578125
 30
0.0
  0
VERTEX
  5
1EC
330
1E2
100
AcDbEntity
  8
Ebene 1
370
     0
100
AcDbVertex
100
AcDb2dVertex
 10
625.220703125
 20
824.94140625
 30
0.0
  0
VERTEX
  5
1ED
330
1E2
100
AcDbEntity
  8
Ebene 1
370
     0
100
AcDbVertex
100
AcDb2dVertex
 10
626.1474609375
 20
824.5439453125
 30
0.0
  0
VERTEX
  5
1EE
330
1E2
100
AcDbEntity
  8
Ebene 1
370
     0
100
AcDbVertex
100
AcDb2dVertex
 10
627.0732421875
 20
824.279296875
 30
0.0
  0
VERTEX
  5
1EF
330
1E2
100
AcDbEntity
  8
Ebene 1
370
     0
100
AcDbVertex
100
AcDb2dVertex
 10
628.087890625
 20
824.146484375
 30
0.0
  0
VERTEX
  5
1F0
330
1E2
100
AcDbEntity
  8
Ebene 1
370
     0
100
AcDbVertex
100
AcDb2dVertex
 10
629.05859375
 20
824.1025390625
 30
0.0
  0
VERTEX
  5
1F1
330
1E2
100
AcDbEntity
  8
Ebene 1
370
     0
100
AcDbVertex
100
AcDb2dVertex
 10
630.029296875
 20
824.19140625
 30
0.0
  0
SEQEND
  5
1F2
330
1E2
100
AcDbEntity
  8
Ebene 1
370
     0
  0
POLYLINE
  5
1F3
330
3C
100
AcDbEntity
  8
Ebene 1
370
     0
100
AcDb2dPolyline
 66
     1
 10
0.0
 20
0.0
 30
0.0
  0
VERTEX
  5
1F4
330
1F3
100
AcDbEntity
  8
Ebene 1
370
     0
100
AcDbVertex
100
AcDb2dVertex
 10
591.69140625
 20
1045.5732421875
 30
0.0
  0
VERTEX
  5
1F5
330
1F3
100
AcDbEntity
  8
Ebene 1
370
     0
100
AcDbVertex
100
AcDb2dVertex
 10
591.69140625
 20
1076.41162109375
 30
0.0
  0
SEQEND
  5
1F6
330
1F3
100
AcDbEntity
  8
Ebene 1
370
     0
  0
POLYLINE
  5
1F7
330
3C
100
AcDbEntity
  8
Ebene 1
370
     0
100
AcDb2dPolyline
 66
     1
 10
0.0
 20
0.0
 30
0.0
  0
VERTEX
  5
1F8
330
1F7
100
AcDbEntity
  8
Ebene 1
370
     0
100
AcDbVertex
100
AcDb2dVertex
 10
602.279296875
 20
1045.5732421875
 30
0.0
  0
VERTEX
  5
1F9
330
1F7
100
AcDbEntity
  8
Ebene 1
370
     0
100
AcDbVertex
100
AcDb2dVertex
 10
602.279296875
 20
1076.41162109375
 30
0.0
  0
SEQEND
  5
1FA
330
1F7
100
AcDbEntity
  8
Ebene 1
370
     0
  0
POLYLINE
  5
1FB
330
3C
100
AcDbEntity
  8
Ebene 1
370
     0
100
AcDb2dPolyline
 66
     1
 10
0.0
 20
0.0
 30
0.0
  0
VERTEX
  5
1FC
330
1FB
100
AcDbEntity
  8
Ebene 1
370
     0
100
AcDbVertex
100
AcDb2dVertex
 10
578.412109375
 20
1065.8232421875
 30
0.0
  0
VERTEX
  5
1FD
330
1FB
100
AcDbEntity
  8
Ebene 1
370
     0
100
AcDbVertex
100
AcDb2dVertex
 10
565.1767578125
 20
1065.8232421875
 30
0.0
  0
SEQEND
  5
1FE
330
1FB
100
AcDbEntity
  8
Ebene 1
370
     0
  0
POLYLINE
  5
1FF
330
3C
100
AcDbEntity
  8
Ebene 1
370
     0
100
AcDb2dPolyline
 66
     1
 10
0.0
 20
0.0
 30
0.0
  0
VERTEX
  5
200
330
1FF
100
AcDbEntity
  8
Ebene 1
370
     0
100
AcDbVertex
100
AcDb2dVertex
 10
615.5146484375
 20
1065.8232421875
 30
0.0
  0
VERTEX
  5
201
330
1FF
100
AcDbEntity
  8
Ebene 1
370
     0
100
AcDbVertex
100
AcDb2dVertex
 10
648.470703125
 20
1065.8232421875
 30
0.0
  0
SEQEND
  5
202
330
1FF
100
AcDbEntity
  8
Ebene 1
370
     0
  0
POLYLINE
  5
203
330
3C
100
AcDbEntity
  8
Ebene 1
370
     0
100
AcDb2dPolyline
 66
     1
 10
0.0
 20
0.0
 30
0.0
  0
VERTEX
  5
204
330
203
100
AcDbEntity
  8
Ebene 1
370
     0
100
AcDbVertex
100
AcDb2dVertex
 10
591.69140625
 20
1065.8232421875
 30
0.0
  0
VERTEX
  5
205
330
203
100
AcDbEntity
  8
Ebene 1
370
     0
100
AcDbVertex
100
AcDb2dVertex
 10
602.279296875
 20
1065.8232421875
 30
0.0
  0
SEQEND
  5
206
330
203
100
AcDbEntity
  8
Ebene 1
370
     0
  0
POLYLINE
  5
207
330
3C
100
AcDbEntity
  8
Ebene 1
370
     0
100
AcDb2dPolyline
 66
     1
 10
0.0
 20
0.0
 30
0.0
  0
VERTEX
  5
208
330
207
100
AcDbEntity
  8
Ebene 1
370
     0
100
AcDbVertex
100
AcDb2dVertex
 10
578.412109375
 20
1068.029296875
 30
0.0
  0
VERTEX
  5
209
330
207
100
AcDbEntity
  8
Ebene 1
370
     0
100
AcDbVertex
100
AcDb2dVertex
 10
578.412109375
 20
1063.5732421875
 30
0.0
  0
VERTEX
  5
20A
330
207
100
AcDbEntity
  8
Ebene 1
370
     0
100
AcDbVertex
100
AcDb2dVertex
 10
591.69140625
 20
1065.8232421875
 30
0.0
  0
VERTEX
  5
20B
330
207
100
AcDbEntity
  8
Ebene 1
370
     0
100
AcDbVertex
100
AcDb2dVertex
 10
578.412109375
 20
1068.029296875
 30
0.0
  0
SEQEND
  5
20C
330
207
100
AcDbEntity
  8
Ebene 1
370
     0
  0
HATCH
  5
20D
330
3C
100
AcDbEntity
  8
Ebene 1
 62
   251
420
  6710886
100
AcDbHatch
 10
0.0
 20
0.0
 30
0.0
210
0.0
220
0.0
230
1.0
  2
SOLID
 70
     1
 71
     0
 91
        1
 92
        1
 93
        3
 72
     1
 10
578.412109375
 20
1068.029296875
 11
578.412109375
 21
1063.5732421875
 72
     1
 10
578.412109375
 20
1063.5732421875
 11
591.69140625
 21
1065.8232421875
 72
     1
 10
591.69140625
 20
1065.8232421875
 11
578.412109375
 21
1068.029296875
 97
        0
 75
     0
 76
     1
 98
        0
  0
POLYLINE
  5
20E
330
3C
100
AcDbEntity
  8
Ebene 1
370
     0
100
AcDb2dPolyline
 66
     1
 10
0.0
 20
0.0
 30
0.0
  0
VERTEX
  5
20F
330
20E
100
AcDbEntity
  8
Ebene 1
370
     0
100
AcDbVertex
100
AcDb2dVertex
 10
615.5146484375
 20
1068.029296875
 30
0.0
  0
VERTEX
  5
210
330
20E
100
AcDbEntity
  8
Ebene 1
370
     0
100
AcDbVertex
100
AcDb2dVertex
 10
615.5146484375
 20
1063.5732421875
 30
0.0
  0
VERTEX
  5
211
330
20E
100
AcDbEntity
  8
Ebene 1
370
     0
100
AcDbVertex
100
AcDb2dVertex
 10
602.279296875
 20
1065.8232421875
 30
0.0
  0
VERTEX
  5
212
330
20E
100
AcDbEntity
  8
Ebene 1
370
     0
100
AcDbVertex
100
AcDb2dVertex
 10
615.5146484375
 20
1068.029296875
 30
0.0
  0
SEQEND
  5
213
330
20E
100
AcDbEntity
  8
Ebene 1
370
     0
  0
HATCH
  5
214
330
3C
100
AcDbEntity
  8
Ebene 1
 62
   251
420
  6710886
100
AcDbHatch
 10
0.0
 20
0.0
 30
0.0
210
0.0
220
0.0
230
1.0
  2
SOLID
 70
     1
 71
     0
 91
        1
 92
        1
 93
        3
 72
     1
 10
615.5146484375
 20
1068.029296875
 11
615.5146484375
 21
1063.5732421875
 72
     1
 10
615.5146484375
 20
1063.5732421875
 11
602.279296875
 21
1065.8232421875
 72
     1
 10
602.279296875
 20
1065.8232421875
 11
615.5146484375
 21
1068.029296875
 97
        0
 75
     0
 76
     1
 98
        0
  0
POLYLINE
  5
215
330
3C
100
AcDbEntity
  8
Ebene 1
370
     0
100
AcDb2dPolyline
 66
     1
 10
0.0
 20
0.0
 30
0.0
  0
VERTEX
  5
216
330
215
100
AcDbEntity
  8
Ebene 1
370
     0
100
AcDbVertex
100
AcDb2dVertex
 10
-158.0
 20
-296.0439453125
 30
0.0
  0
VERTEX
  5
217
330
215
100
AcDbEntity
  8
Ebene 1
370
     0
100
AcDbVertex
100
AcDb2dVertex
 10
-158.0
 20
-296.0439453125
 30
0.0
  0
SEQEND
  5
218
330
215
100
AcDbEntity
  8
Ebene 1
370
     0
  0
POLYLINE
  5
219
330
3C
100
AcDbEntity
  8
Ebene 1
370
     0
100
AcDb2dPolyline
 66
     1
 10
0.0
 20
0.0
 30
0.0
  0
VERTEX
  5
21A
330
219
100
AcDbEntity
  8
Ebene 1
370
     0
100
AcDbVertex
100
AcDb2dVertex
 10
-158.0
 20
-296.0439453125
 30
0.0
  0
VERTEX
  5
21B
330
219
100
AcDbEntity
  8
Ebene 1
370
     0
100
AcDbVertex
100
AcDb2dVertex
 10
-158.0
 20
-296.0439453125
 30
0.0
  0
SEQEND
  5
21C
330
219
100
AcDbEntity
  8
Ebene 1
370
     0
  0
POLYLINE
  5
21D
330
3C
100
AcDbEntity
  8
Ebene 1
370
     0
100
AcDb2dPolyline
 66
     1
 10
0.0
 20
0.0
 30
0.0
  0
VERTEX
  5
21E
330
21D
100
AcDbEntity
  8
Ebene 1
370
     0
100
AcDbVertex
100
AcDb2dVertex
 10
-158.0
 20
-296.0439453125
 30
0.0
  0
VERTEX
  5
21F
330
21D
100
AcDbEntity
  8
Ebene 1
370
     0
100
AcDbVertex
100
AcDb2dVertex
 10
-158.0
 20
-296.0439453125
 30
0.0
  0
SEQEND
  5
220
330
21D
100
AcDbEntity
  8
Ebene 1
370
     0
  0
POLYLINE
  5
221
330
3C
100
AcDbEntity
  8
Ebene 1
370
     0
100
AcDb2dPolyline
 66
     1
 10
0.0
 20
0.0
 30
0.0
  0
VERTEX
  5
222
330
221
100
AcDbEntity
  8
Ebene 1
370
     0
100
AcDbVertex
100
AcDb2dVertex
 10
640.1328125
 20
1087.0
 30
0.0
  0
VERTEX
  5
223
330
221
100
AcDbEntity
  8
Ebene 1
370
     0
100
AcDbVertex
100
AcDb2dVertex
 10
634.087890625
 20
1076.41162109375
 30
0.0
  0
VERTEX
  5
224
330
221
100
AcDbEntity
  8
Ebene 1
370
     0
100
AcDbVertex
100
AcDb2dVertex
 10
643.1767578125
 20
1076.41162109375
 30
0.0
  0
SEQEND
  5
225
330
221
100
AcDbEntity
  8
Ebene 1
370
     0
  0
POLYLINE
  5
226
330
3C
100
AcDbEntity
  8
Ebene 1
370
     0
100
AcDb2dPolyline
 66
     1
 10
0.0
 20
0.0
 30
0.0
  0
VERTEX
  5
227
330
226
100
AcDbEntity
  8
Ebene 1
370
     0
100
AcDbVertex
100
AcDb2dVertex
 10
640.1328125
 20
1087.0
 30
0.0
  0
VERTEX
  5
228
330
226
100
AcDbEntity
  8
Ebene 1
370
     0
100
AcDbVertex
100
AcDb2dVertex
 10
640.1328125
 20
1071.1171875
 30
0.0
  0
SEQEND
  5
229
330
226
100
AcDbEntity
  8
Ebene 1
370
     0
  0
POLYLINE
  5
22A
330
3C
100
AcDbEntity
  8
Ebene 1
370
     0
100
AcDb2dPolyline
 66
     1
 10
0.0
 20
0.0
 30
0.0
  0
VERTEX
  5
22B
330
22A
100
AcDbEntity
  8
Ebene 1
370
     0
100
AcDbVertex
100
AcDb2dVertex
 10
416.587890625
 20
815.5
 30
0.0
  0
VERTEX
  5
22C
330
22A
100
AcDbEntity
  8
Ebene 1
370
     0
100
AcDbVertex
100
AcDb2dVertex
 10
427.17578125
 20
823.4853515625
 30
0.0
  0
SEQEND
  5
22D
330
22A
100
AcDbEntity
  8
Ebene 1
370
     0
  0
POLYLINE
  5
22E
330
3C
100
AcDbEntity
  8
Ebene 1
370
     0
100
AcDb2dPolyline
 66
     1
 10
0.0
 20
0.0
 30
0.0
  0
VERTEX
  5
22F
330
22E
100
AcDbEntity
  8
Ebene 1
370
     0
100
AcDbVertex
100
AcDb2dVertex
 10
383.80859375
 20
790.7060546875
 30
0.0
  0
VERTEX
  5
230
330
22E
100
AcDbEntity
  8
Ebene 1
370
     0
100
AcDbVertex
100
AcDb2dVertex
 10
257.85302734375
 20
695.5439453125
 30
0.0
  0
SEQEND
  5
231
330
22E
100
AcDbEntity
  8
Ebene 1
370
     0
  0
POLYLINE
  5
232
330
3C
100
AcDbEntity
  8
Ebene 1
370
     0
100
AcDb2dPolyline
 66
     1
 10
0.0
 20
0.0
 30
0.0
  0
VERTEX
  5
233
330
232
100
AcDbEntity
  8
Ebene 1
370
     0
100
AcDbVertex
100
AcDb2dVertex
 10
406.0439453125
 20
807.470703125
 30
0.0
  0
VERTEX
  5
234
330
232
100
AcDbEntity
  8
Ebene 1
370
     0
100
AcDbVertex
100
AcDb2dVertex
 10
394.396484375
 20
798.69140625
 30
0.0
  0
SEQEND
  5
235
330
232
100
AcDbEntity
  8
Ebene 1
370
     0
  0
POLYLINE
  5
236
330
3C
100
AcDbEntity
  8
Ebene 1
370
     0
100
AcDb2dPolyline
 66
     1
 10
0.0
 20
0.0
 30
0.0
  0
VERTEX
  5
237
330
236
100
AcDbEntity
  8
Ebene 1
370
     0
100
AcDbVertex
100
AcDb2dVertex
 10
415.2646484375
 20
817.220703125
 30
0.0
  0
VERTEX
  5
238
330
236
100
AcDbEntity
  8
Ebene 1
370
     0
100
AcDbVertex
100
AcDb2dVertex
 10
417.912109375
 20
813.7353515625
 30
0.0
  0
VERTEX
  5
239
330
236
100
AcDbEntity
  8
Ebene 1
370
     0
100
AcDbVertex
100
AcDb2dVertex
 10
406.0439453125
 20
807.470703125
 30
0.0
  0
VERTEX
  5
23A
330
236
100
AcDbEntity
  8
Ebene 1
370
     0
100
AcDbVertex
100
AcDb2dVertex
 10
415.2646484375
 20
817.220703125
 30
0.0
  0
SEQEND
  5
23B
330
236
100
AcDbEntity
  8
Ebene 1
370
     0
  0
HATCH
  5
23C
330
3C
100
AcDbEntity
  8
Ebene 1
 62
   251
420
  6710886
100
AcDbHatch
 10
0.0
 20
0.0
 30
0.0
210
0.0
220
0.0
230
1.0
  2
SOLID
 70
     1
 71
     0
 91
        1
 92
        1
 93
        3
 72
     1
 10
415.2646484375
 20
817.220703125
 11
417.912109375
 21
813.7353515625
 72
     1
 10
417.912109375
 20
813.7353515625
 11
406.0439453125
 21
807.470703125
 72
     1
 10
406.0439453125
 20
807.470703125
 11
415.2646484375
 21
817.220703125
 97
        0
 75
     0
 76
     1
 98
        0
  0
POLYLINE
  5
23D
330
3C
100
AcDbEntity
  8
Ebene 1
370
     0
100
AcDb2dPolyline
 66
     1
 10
0.0
 20
0.0
 30
0.0
  0
VERTEX
  5
23E
330
23D
100
AcDbEntity
  8
Ebene 1
370
     0
100
AcDbVertex
100
AcDb2dVertex
 10
382.4853515625
 20
792.470703125
 30
0.0
  0
VERTEX
  5
23F
330
23D
100
AcDbEntity
  8
Ebene 1
370
     0
100
AcDbVertex
100
AcDb2dVertex
 10
385.1328125
 20
788.94140625
 30
0.0
  0
VERTEX
  5
240
330
23D
100
AcDbEntity
  8
Ebene 1
370
     0
100
AcDbVertex
100
AcDb2dVertex
 10
394.396484375
 20
798.69140625
 30
0.0
  0
VERTEX
  5
241
330
23D
100
AcDbEntity
  8
Ebene 1
370
     0
100
AcDbVertex
100
AcDb2dVertex
 10
382.4853515625
 20
792.470703125
 30
0.0
  0
SEQEND
  5
242
330
23D
100
AcDbEntity
  8
Ebene 1
370
     0
  0
HATCH
  5
243
330
3C
100
AcDbEntity
  8
Ebene 1
 62
   251
420
  6710886
100
AcDbHatch
 10
0.0
 20
0.0
 30
0.0
210
0.0
220
0.0
230
1.0
  2
SOLID
 70
     1
 71
     0
 91
        1
 92
        1
 93
        3
 72
     1
 10
382.4853515625
 20
792.470703125
 11
385.1328125
 21
788.94140625
 72
     1
 10
385.1328125
 20
788.94140625
 11
394.396484375
 21
798.69140625
 72
     1
 10
394.396484375
 20
798.69140625
 11
382.4853515625
 21
792.470703125
 97
        0
 75
     0
 76
     1
 98
        0
  0
POLYLINE
  5
244
330
3C
100
AcDbEntity
  8
Ebene 1
370
     0
100
AcDb2dPolyline
 66
     1
 10
0.0
 20
0.0
 30
0.0
  0
VERTEX
  5
245
330
244
100
AcDbEntity
  8
Ebene 1
370
     0
100
AcDbVertex
100
AcDb2dVertex
 10
256.4853515625
 20
718.2646484375
 30
0.0
  0
VERTEX
  5
246
330
244
100
AcDbEntity
  8
Ebene 1
370
     0
100
AcDbVertex
100
AcDb2dVertex
 10
255.07373046875
 20
719.1025390625
 30
0.0
  0
VERTEX
  5
247
330
244
100
AcDbEntity
  8
Ebene 1
370
     0
100
AcDbVertex
100
AcDb2dVertex
 10
253.17626953125
 20
718.6171875
 30
0.0
  0
VERTEX
  5
248
330
244
100
AcDbEntity
  8
Ebene 1
370
     0
100
AcDbVertex
100
AcDb2dVertex
 10
252.2060546875
 20
717.8671875
 30
0.0
  0
VERTEX
  5
249
330
244
100
AcDbEntity
  8
Ebene 1
370
     0
100
AcDbVertex
100
AcDb2dVertex
 10
251.19140625
 20
716.19140625
 30
0.0
  0
VERTEX
  5
24A
330
244
100
AcDbEntity
  8
Ebene 1
370
     0
100
AcDbVertex
100
AcDb2dVertex
 10
251.63232421875
 20
713.6318359375
 30
0.0
  0
VERTEX
  5
24B
330
244
100
AcDbEntity
  8
Ebene 1
370
     0
100
AcDbVertex
100
AcDb2dVertex
 10
253.39697265625
 20
710.2353515625
 30
0.0
  0
VERTEX
  5
24C
330
244
100
AcDbEntity
  8
Ebene 1
370
     0
100
AcDbVertex
100
AcDb2dVertex
 10
255.69140625
 20
707.2353515625
 30
0.0
  0
VERTEX
  5
24D
330
244
100
AcDbEntity
  8
Ebene 1
370
     0
100
AcDbVertex
100
AcDb2dVertex
 10
257.9853515625
 20
705.1611328125
 30
0.0
  0
VERTEX
  5
24E
330
244
100
AcDbEntity
  8
Ebene 1
370
     0
100
AcDbVertex
100
AcDb2dVertex
 10
259.88232421875
 20
704.67578125
 30
0.0
  0
VERTEX
  5
24F
330
244
100
AcDbEntity
  8
Ebene 1
370
     0
100
AcDbVertex
100
AcDb2dVertex
 10
261.779296875
 20
705.1611328125
 30
0.0
  0
VERTEX
  5
250
330
244
100
AcDbEntity
  8
Ebene 1
370
     0
100
AcDbVertex
100
AcDb2dVertex
 10
262.2646484375
 20
705.55859375
 30
0.0
  0
VERTEX
  5
251
330
244
100
AcDbEntity
  8
Ebene 1
370
     0
100
AcDbVertex
100
AcDb2dVertex
 10
263.279296875
 20
707.2353515625
 30
0.0
  0
VERTEX
  5
252
330
244
100
AcDbEntity
  8
Ebene 1
370
     0
100
AcDbVertex
100
AcDb2dVertex
 10
263.32373046875
 20
709.17578125
 30
0.0
  0
VERTEX
  5
253
330
244
100
AcDbEntity
  8
Ebene 1
370
     0
100
AcDbVertex
100
AcDb2dVertex
 10
262.44140625
 20
711.3818359375
 30
0.0
  0
VERTEX
  5
254
330
244
100
AcDbEntity
  8
Ebene 1
370
     0
100
AcDbVertex
100
AcDb2dVertex
 10
262.0
 20
711.9560546875
 30
0.0
  0
VERTEX
  5
255
330
244
100
AcDbEntity
  8
Ebene 1
370
     0
100
AcDbVertex
100
AcDb2dVertex
 10
260.14697265625
 20
713.4111328125
 30
0.0
  0
VERTEX
  5
256
330
244
100
AcDbEntity
  8
Ebene 1
370
     0
100
AcDbVertex
100
AcDb2dVertex
 10
258.25
 20
713.896484375
 30
0.0
  0
VERTEX
  5
257
330
244
100
AcDbEntity
  8
Ebene 1
370
     0
100
AcDbVertex
100
AcDb2dVertex
 10
256.35302734375
 20
713.4111328125
 30
0.0
  0
VERTEX
  5
258
330
244
100
AcDbEntity
  8
Ebene 1
370
     0
100
AcDbVertex
100
AcDb2dVertex
 10
255.86767578125
 20
713.05859375
 30
0.0
  0
VERTEX
  5
259
330
244
100
AcDbEntity
  8
Ebene 1
370
     0
100
AcDbVertex
100
AcDb2dVertex
 10
254.85302734375
 20
711.337890625
 30
0.0
  0
VERTEX
  5
25A
330
244
100
AcDbEntity
  8
Ebene 1
370
     0
100
AcDbVertex
100
AcDb2dVertex
 10
254.80859375
 20
709.396484375
 30
0.0
  0
VERTEX
  5
25B
330
244
100
AcDbEntity
  8
Ebene 1
370
     0
100
AcDbVertex
100
AcDb2dVertex
 10
255.69140625
 20
707.2353515625
 30
0.0
  0
SEQEND
  5
25C
330
244
100
AcDbEntity
  8
Ebene 1
370
     0
  0
POLYLINE
  5
25D
330
3C
100
AcDbEntity
  8
Ebene 1
370
     0
100
AcDb2dPolyline
 66
     1
 10
0.0
 20
0.0
 30
0.0
  0
VERTEX
  5
25E
330
25D
100
AcDbEntity
  8
Ebene 1
370
     0
100
AcDbVertex
100
AcDb2dVertex
 10
261.69140625
 20
718.396484375
 30
0.0
  0
VERTEX
  5
25F
330
25D
100
AcDbEntity
  8
Ebene 1
370
     0
100
AcDbVertex
100
AcDb2dVertex
 10
273.38232421875
 20
713.94140625
 30
0.0
  0
SEQEND
  5
260
330
25D
100
AcDbEntity
  8
Ebene 1
370
     0
  0
POLYLINE
  5
261
330
3C
100
AcDbEntity
  8
Ebene 1
370
     0
100
AcDb2dPolyline
 66
     1
 10
0.0
 20
0.0
 30
0.0
  0
VERTEX
  5
262
330
261
100
AcDbEntity
  8
Ebene 1
370
     0
100
AcDbVertex
100
AcDb2dVertex
 10
266.9853515625
 20
722.4111328125
 30
0.0
  0
VERTEX
  5
263
330
261
100
AcDbEntity
  8
Ebene 1
370
     0
100
AcDbVertex
100
AcDb2dVertex
 10
268.08837890625
 20
709.92578125
 30
0.0
  0
SEQEND
  5
264
330
261
100
AcDbEntity
  8
Ebene 1
370
     0
  0
POLYLINE
  5
265
330
3C
100
AcDbEntity
  8
Ebene 1
370
     0
100
AcDb2dPolyline
 66
     1
 10
0.0
 20
0.0
 30
0.0
  0
VERTEX
  5
266
330
265
100
AcDbEntity
  8
Ebene 1
370
     0
100
AcDbVertex
100
AcDb2dVertex
 10
281.10302734375
 20
735.9111328125
 30
0.0
  0
VERTEX
  5
267
330
265
100
AcDbEntity
  8
Ebene 1
370
     0
100
AcDbVertex
100
AcDb2dVertex
 10
280.61767578125
 20
734.587890625
 30
0.0
  0
VERTEX
  5
268
330
265
100
AcDbEntity
  8
Ebene 1
370
     0
100
AcDbVertex
100
AcDb2dVertex
 10
280.529296875
 20
732.646484375
 30
0.0
  0
VERTEX
  5
269
330
265
100
AcDbEntity
  8
Ebene 1
370
     0
100
AcDbVertex
100
AcDb2dVertex
 10
281.41162109375
 20
730.44140625
 30
0.0
  0
VERTEX
  5
26A
330
265
100
AcDbEntity
  8
Ebene 1
370
     0
100
AcDbVertex
100
AcDb2dVertex
 10
282.33837890625
 20
729.25
 30
0.0
  0
VERTEX
  5
26B
330
265
100
AcDbEntity
  8
Ebene 1
370
     0
100
AcDbVertex
100
AcDb2dVertex
 10
284.19140625
 20
727.7939453125
 30
0.0
  0
VERTEX
  5
26C
330
265
100
AcDbEntity
  8
Ebene 1
370
     0
100
AcDbVertex
100
AcDb2dVertex
 10
286.08837890625
 20
727.30859375
 30
0.0
  0
VERTEX
  5
26D
330
265
100
AcDbEntity
  8
Ebene 1
370
     0
100
AcDbVertex
100
AcDb2dVertex
 10
287.5
 20
727.44140625
 30
0.0
  0
VERTEX
  5
26E
330
265
100
AcDbEntity
  8
Ebene 1
370
     0
100
AcDbVertex
100
AcDb2dVertex
 10
288.9560546875
 20
728.5439453125
 30
0.0
  0
VERTEX
  5
26F
330
265
100
AcDbEntity
  8
Ebene 1
370
     0
100
AcDbVertex
100
AcDb2dVertex
 10
289.44140625
 20
729.8671875
 30
0.0
  0
VERTEX
  5
270
330
265
100
AcDbEntity
  8
Ebene 1
370
     0
100
AcDbVertex
100
AcDb2dVertex
 10
289.529296875
 20
731.80859375
 30
0.0
  0
VERTEX
  5
271
330
265
100
AcDbEntity
  8
Ebene 1
370
     0
100
AcDbVertex
100
AcDb2dVertex
 10
288.64697265625
 20
734.0146484375
 30
0.0
  0
VERTEX
  5
272
330
265
100
AcDbEntity
  8
Ebene 1
370
     0
100
AcDbVertex
100
AcDb2dVertex
 10
287.720703125
 20
735.2060546875
 30
0.0
  0
VERTEX
  5
273
330
265
100
AcDbEntity
  8
Ebene 1
370
     0
100
AcDbVertex
100
AcDb2dVertex
 10
285.86767578125
 20
736.6611328125
 30
0.0
  0
VERTEX
  5
274
330
265
100
AcDbEntity
  8
Ebene 1
370
     0
100
AcDbVertex
100
AcDb2dVertex
 10
283.970703125
 20
737.146484375
 30
0.0
  0
VERTEX
  5
275
330
265
100
AcDbEntity
  8
Ebene 1
370
     0
100
AcDbVertex
100
AcDb2dVertex
 10
282.55859375
 20
737.0146484375
 30
0.0
  0
VERTEX
  5
276
330
265
100
AcDbEntity
  8
Ebene 1
370
     0
100
AcDbVertex
100
AcDb2dVertex
 10
281.10302734375
 20
735.9111328125
 30
0.0
  0
VERTEX
  5
277
330
265
100
AcDbEntity
  8
Ebene 1
370
     0
100
AcDbVertex
100
AcDb2dVertex
 10
281.10302734375
 20
735.9111328125
 30
0.0
  0
SEQEND
  5
278
330
265
100
AcDbEntity
  8
Ebene 1
370
     0
  0
POLYLINE
  5
279
330
3C
100
AcDbEntity
  8
Ebene 1
370
     0
100
AcDb2dPolyline
 66
     1
 10
0.0
 20
0.0
 30
0.0
  0
VERTEX
  5
27A
330
279
100
AcDbEntity
  8
Ebene 1
370
     0
100
AcDbVertex
100
AcDb2dVertex
 10
282.64697265625
 20
739.92578125
 30
0.0
  0
VERTEX
  5
27B
330
279
100
AcDbEntity
  8
Ebene 1
370
     0
100
AcDbVertex
100
AcDb2dVertex
 10
287.41162109375
 20
724.529296875
 30
0.0
  0
SEQEND
  5
27C
330
279
100
AcDbEntity
  8
Ebene 1
370
     0
  0
POLYLINE
  5
27D
330
3C
100
AcDbEntity
  8
Ebene 1
370
     0
100
AcDb2dPolyline
 66
     1
 10
0.0
 20
0.0
 30
0.0
  0
VERTEX
  5
27E
330
27D
100
AcDbEntity
  8
Ebene 1
370
     0
100
AcDbVertex
100
AcDb2dVertex
 10
291.86767578125
 20
747.8232421875
 30
0.0
  0
VERTEX
  5
27F
330
27D
100
AcDbEntity
  8
Ebene 1
370
     0
100
AcDbVertex
100
AcDb2dVertex
 10
287.0146484375
 20
744.1611328125
 30
0.0
  0
VERTEX
  5
280
330
27D
100
AcDbEntity
  8
Ebene 1
370
     0
100
AcDbVertex
100
AcDb2dVertex
 10
290.63232421875
 20
738.3818359375
 30
0.0
  0
VERTEX
  5
281
330
27D
100
AcDbEntity
  8
Ebene 1
370
     0
100
AcDbVertex
100
AcDb2dVertex
 10
290.67626953125
 20
739.3525390625
 30
0.0
  0
VERTEX
  5
282
330
27D
100
AcDbEntity
  8
Ebene 1
370
     0
100
AcDbVertex
100
AcDb2dVertex
 10
291.64697265625
 20
741.029296875
 30
0.0
  0
VERTEX
  5
283
330
27D
100
AcDbEntity
  8
Ebene 1
370
     0
100
AcDbVertex
100
AcDb2dVertex
 10
293.10302734375
 20
742.1318359375
 30
0.0
  0
VERTEX
  5
284
330
27D
100
AcDbEntity
  8
Ebene 1
370
     0
100
AcDbVertex
100
AcDb2dVertex
 10
295.0439453125
 20
742.6171875
 30
0.0
  0
VERTEX
  5
285
330
27D
100
AcDbEntity
  8
Ebene 1
370
     0
100
AcDbVertex
100
AcDb2dVertex
 10
296.89697265625
 20
742.1318359375
 30
0.0
  0
VERTEX
  5
286
330
27D
100
AcDbEntity
  8
Ebene 1
370
     0
100
AcDbVertex
100
AcDb2dVertex
 10
298.75
 20
740.720703125
 30
0.0
  0
VERTEX
  5
287
330
27D
100
AcDbEntity
  8
Ebene 1
370
     0
100
AcDbVertex
100
AcDb2dVertex
 10
299.67626953125
 20
739.4853515625
 30
0.0
  0
VERTEX
  5
288
330
27D
100
AcDbEntity
  8
Ebene 1
370
     0
100
AcDbVertex
100
AcDb2dVertex
 10
300.55859375
 20
737.3232421875
 30
0.0
  0
VERTEX
  5
289
330
27D
100
AcDbEntity
  8
Ebene 1
370
     0
100
AcDbVertex
100
AcDb2dVertex
 10
300.5146484375
 20
735.3818359375
 30
0.0
  0
VERTEX
  5
28A
330
27D
100
AcDbEntity
  8
Ebene 1
370
     0
100
AcDbVertex
100
AcDb2dVertex
 10
299.5
 20
733.6611328125
 30
0.0
  0
VERTEX
  5
28B
330
27D
100
AcDbEntity
  8
Ebene 1
370
     0
100
AcDbVertex
100
AcDb2dVertex
 10
298.0439453125
 20
732.55859375
 30
0.0
  0
VERTEX
  5
28C
330
27D
100
AcDbEntity
  8
Ebene 1
370
     0
100
AcDbVertex
100
AcDb2dVertex
 10
296.14697265625
 20
732.0732421875
 30
0.0
  0
VERTEX
  5
28D
330
27D
100
AcDbEntity
  8
Ebene 1
370
     0
100
AcDbVertex
100
AcDb2dVertex
 10
295.220703125
 20
732.337890625
 30
0.0
  0
VERTEX
  5
28E
330
27D
100
AcDbEntity
  8
Ebene 1
370
     0
100
AcDbVertex
100
AcDb2dVertex
 10
293.80859375
 20
733.17578125
 30
0.0
  0
SEQEND
  5
28F
330
27D
100
AcDbEntity
  8
Ebene 1
370
     0
  0
POLYLINE
  5
290
330
3C
100
AcDbEntity
  8
Ebene 1
370
     0
100
AcDb2dPolyline
 66
     1
 10
0.0
 20
0.0
 30
0.0
  0
VERTEX
  5
291
330
290
100
AcDbEntity
  8
Ebene 1
370
     0
100
AcDbVertex
100
AcDb2dVertex
 10
305.36767578125
 20
740.0146484375
 30
0.0
  0
VERTEX
  5
292
330
290
100
AcDbEntity
  8
Ebene 1
370
     0
100
AcDbVertex
100
AcDb2dVertex
 10
305.32373046875
 20
739.0439453125
 30
0.0
  0
VERTEX
  5
293
330
290
100
AcDbEntity
  8
Ebene 1
370
     0
100
AcDbVertex
100
AcDb2dVertex
 10
306.2939453125
 20
738.779296875
 30
0.0
  0
VERTEX
  5
294
330
290
100
AcDbEntity
  8
Ebene 1
370
     0
100
AcDbVertex
100
AcDb2dVertex
 10
306.2939453125
 20
739.75
 30
0.0
  0
VERTEX
  5
295
330
290
100
AcDbEntity
  8
Ebene 1
370
     0
100
AcDbVertex
100
AcDb2dVertex
 10
305.36767578125
 20
740.0146484375
 30
0.0
  0
VERTEX
  5
296
330
290
100
AcDbEntity
  8
Ebene 1
370
     0
100
AcDbVertex
100
AcDb2dVertex
 10
305.36767578125
 20
740.0146484375
 30
0.0
  0
SEQEND
  5
297
330
290
100
AcDbEntity
  8
Ebene 1
370
     0
  0
POLYLINE
  5
298
330
3C
100
AcDbEntity
  8
Ebene 1
370
     0
100
AcDb2dPolyline
 66
     1
 10
0.0
 20
0.0
 30
0.0
  0
VERTEX
  5
299
330
298
100
AcDbEntity
  8
Ebene 1
370
     0
100
AcDbVertex
100
AcDb2dVertex
 10
-155.88232421875
 20
696.337890625
 30
0.0
  0
VERTEX
  5
29A
330
298
100
AcDbEntity
  8
Ebene 1
370
     0
100
AcDbVertex
100
AcDb2dVertex
 10
-155.88232421875
 20
696.337890625
 30
0.0
  0
SEQEND
  5
29B
330
298
100
AcDbEntity
  8
Ebene 1
370
     0
  0
POLYLINE
  5
29C
330
3C
100
AcDbEntity
  8
Ebene 1
370
     0
100
AcDb2dPolyline
 66
     1
 10
0.0
 20
0.0
 30
0.0
  0
VERTEX
  5
29D
330
29C
100
AcDbEntity
  8
Ebene 1
370
     0
100
AcDbVertex
100
AcDb2dVertex
 10
-155.88232421875
 20
696.337890625
 30
0.0
  0
VERTEX
  5
29E
330
29C
100
AcDbEntity
  8
Ebene 1
370
     0
100
AcDbVertex
100
AcDb2dVertex
 10
-155.88232421875
 20
696.337890625
 30
0.0
  0
SEQEND
  5
29F
330
29C
100
AcDbEntity
  8
Ebene 1
370
     0
  0
POLYLINE
  5
2A0
330
3C
100
AcDbEntity
  8
Ebene 1
370
     0
100
AcDb2dPolyline
 66
     1
 10
0.0
 20
0.0
 30
0.0
  0
VERTEX
  5
2A1
330
2A0
100
AcDbEntity
  8
Ebene 1
370
     0
100
AcDbVertex
100
AcDb2dVertex
 10
306.3828125
 20
758.80859375
 30
0.0
  0
VERTEX
  5
2A2
330
2A0
100
AcDbEntity
  8
Ebene 1
370
     0
100
AcDbVertex
100
AcDb2dVertex
 10
301.529296875
 20
755.146484375
 30
0.0
  0
VERTEX
  5
2A3
330
2A0
100
AcDbEntity
  8
Ebene 1
370
     0
100
AcDbVertex
100
AcDb2dVertex
 10
305.14697265625
 20
749.3232421875
 30
0.0
  0
VERTEX
  5
2A4
330
2A0
100
AcDbEntity
  8
Ebene 1
370
     0
100
AcDbVertex
100
AcDb2dVertex
 10
305.19140625
 20
750.2939453125
 30
0.0
  0
VERTEX
  5
2A5
330
2A0
100
AcDbEntity
  8
Ebene 1
370
     0
100
AcDbVertex
100
AcDb2dVertex
 10
306.162109375
 20
752.0146484375
 30
0.0
  0
VERTEX
  5
2A6
330
2A0
100
AcDbEntity
  8
Ebene 1
370
     0
100
AcDbVertex
100
AcDb2dVertex
 10
307.6171875
 20
753.1171875
 30
0.0
  0
VERTEX
  5
2A7
330
2A0
100
AcDbEntity
  8
Ebene 1
370
     0
100
AcDbVertex
100
AcDb2dVertex
 10
309.5146484375
 20
753.6025390625
 30
0.0
  0
VERTEX
  5
2A8
330
2A0
100
AcDbEntity
  8
Ebene 1
370
     0
100
AcDbVertex
100
AcDb2dVertex
 10
311.412109375
 20
753.1171875
 30
0.0
  0
VERTEX
  5
2A9
330
2A0
100
AcDbEntity
  8
Ebene 1
370
     0
100
AcDbVertex
100
AcDb2dVertex
 10
313.2646484375
 20
751.6611328125
 30
0.0
  0
VERTEX
  5
2AA
330
2A0
100
AcDbEntity
  8
Ebene 1
370
     0
100
AcDbVertex
100
AcDb2dVertex
 10
314.19140625
 20
750.470703125
 30
0.0
  0
VERTEX
  5
2AB
330
2A0
100
AcDbEntity
  8
Ebene 1
370
     0
100
AcDbVertex
100
AcDb2dVertex
 10
315.07421875
 20
748.2646484375
 30
0.0
  0
VERTEX
  5
2AC
330
2A0
100
AcDbEntity
  8
Ebene 1
370
     0
100
AcDbVertex
100
AcDb2dVertex
 10
314.9853515625
 20
746.3232421875
 30
0.0
  0
VERTEX
  5
2AD
330
2A0
100
AcDbEntity
  8
Ebene 1
370
     0
100
AcDbVertex
100
AcDb2dVertex
 10
314.0146484375
 20
744.646484375
 30
0.0
  0
VERTEX
  5
2AE
330
2A0
100
AcDbEntity
  8
Ebene 1
370
     0
100
AcDbVertex
100
AcDb2dVertex
 10
312.55859375
 20
743.5439453125
 30
0.0
  0
VERTEX
  5
2AF
330
2A0
100
AcDbEntity
  8
Ebene 1
370
     0
100
AcDbVertex
100
AcDb2dVertex
 10
310.662109375
 20
743.05859375
 30
0.0
  0
VERTEX
  5
2B0
330
2A0
100
AcDbEntity
  8
Ebene 1
370
     0
100
AcDbVertex
100
AcDb2dVertex
 10
309.7353515625
 20
743.279296875
 30
0.0
  0
VERTEX
  5
2B1
330
2A0
100
AcDbEntity
  8
Ebene 1
370
     0
100
AcDbVertex
100
AcDb2dVertex
 10
308.32421875
 20
744.1171875
 30
0.0
  0
SEQEND
  5
2B2
330
2A0
100
AcDbEntity
  8
Ebene 1
370
     0
  0
POLYLINE
  5
2B3
330
3C
100
AcDbEntity
  8
Ebene 1
370
     0
100
AcDb2dPolyline
 66
     1
 10
0.0
 20
0.0
 30
0.0
  0
VERTEX
  5
2B4
330
2B3
100
AcDbEntity
  8
Ebene 1
370
     0
100
AcDbVertex
100
AcDb2dVertex
 10
400.220703125
 20
789.55859375
 30
0.0
  0
VERTEX
  5
2B5
330
2B3
100
AcDbEntity
  8
Ebene 1
370
     0
100
AcDbVertex
100
AcDb2dVertex
 10
400.220703125
 20
696.7353515625
 30
0.0
  0
SEQEND
  5
2B6
330
2B3
100
AcDbEntity
  8
Ebene 1
370
     0
  0
POLYLINE
  5
2B7
330
3C
100
AcDbEntity
  8
Ebene 1
370
     0
100
AcDb2dPolyline
 66
     1
 10
0.0
 20
0.0
 30
0.0
  0
VERTEX
  5
2B8
330
2B7
100
AcDbEntity
  8
Ebene 1
370
     0
100
AcDbVertex
100
AcDb2dVertex
 10
380.32421875
 20
781.8818359375
 30
0.0
  0
VERTEX
  5
2B9
330
2B7
100
AcDbEntity
  8
Ebene 1
370
     0
100
AcDbVertex
100
AcDb2dVertex
 10
380.32421875
 20
696.7353515625
 30
0.0
  0
SEQEND
  5
2BA
330
2B7
100
AcDbEntity
  8
Ebene 1
370
     0
  0
POLYLINE
  5
2BB
330
3C
100
AcDbEntity
  8
Ebene 1
370
     0
100
AcDb2dPolyline
 66
     1
 10
0.0
 20
0.0
 30
0.0
  0
VERTEX
  5
2BC
330
2BB
100
AcDbEntity
  8
Ebene 1
370
     0
100
AcDbVertex
100
AcDb2dVertex
 10
413.4560546875
 20
707.3232421875
 30
0.0
  0
VERTEX
  5
2BD
330
2BB
100
AcDbEntity
  8
Ebene 1
370
     0
100
AcDbVertex
100
AcDb2dVertex
 10
426.69140625
 20
707.3232421875
 30
0.0
  0
SEQEND
  5
2BE
330
2BB
100
AcDbEntity
  8
Ebene 1
370
     0
  0
POLYLINE
  5
2BF
330
3C
100
AcDbEntity
  8
Ebene 1
370
     0
100
AcDb2dPolyline
 66
     1
 10
0.0
 20
0.0
 30
0.0
  0
VERTEX
  5
2C0
330
2BF
100
AcDbEntity
  8
Ebene 1
370
     0
100
AcDbVertex
100
AcDb2dVertex
 10
367.087890625
 20
707.3232421875
 30
0.0
  0
VERTEX
  5
2C1
330
2BF
100
AcDbEntity
  8
Ebene 1
370
     0
100
AcDbVertex
100
AcDb2dVertex
 10
316.57421875
 20
707.3232421875
 30
0.0
  0
SEQEND
  5
2C2
330
2BF
100
AcDbEntity
  8
Ebene 1
370
     0
  0
POLYLINE
  5
2C3
330
3C
100
AcDbEntity
  8
Ebene 1
370
     0
100
AcDb2dPolyline
 66
     1
 10
0.0
 20
0.0
 30
0.0
  0
VERTEX
  5
2C4
330
2C3
100
AcDbEntity
  8
Ebene 1
370
     0
100
AcDbVertex
100
AcDb2dVertex
 10
400.220703125
 20
707.3232421875
 30
0.0
  0
VERTEX
  5
2C5
330
2C3
100
AcDbEntity
  8
Ebene 1
370
     0
100
AcDbVertex
100
AcDb2dVertex
 10
380.32421875
 20
707.3232421875
 30
0.0
  0
SEQEND
  5
2C6
330
2C3
100
AcDbEntity
  8
Ebene 1
370
     0
  0
POLYLINE
  5
2C7
330
3C
100
AcDbEntity
  8
Ebene 1
370
     0
100
AcDb2dPolyline
 66
     1
 10
0.0
 20
0.0
 30
0.0
  0
VERTEX
  5
2C8
330
2C7
100
AcDbEntity
  8
Ebene 1
370
     0
100
AcDbVertex
100
AcDb2dVertex
 10
413.4560546875
 20
709.529296875
 30
0.0
  0
VERTEX
  5
2C9
330
2C7
100
AcDbEntity
  8
Ebene 1
370
     0
100
AcDbVertex
100
AcDb2dVertex
 10
413.4560546875
 20
705.1171875
 30
0.0
  0
VERTEX
  5
2CA
330
2C7
100
AcDbEntity
  8
Ebene 1
370
     0
100
AcDbVertex
100
AcDb2dVertex
 10
400.220703125
 20
707.3232421875
 30
0.0
  0
VERTEX
  5
2CB
330
2C7
100
AcDbEntity
  8
Ebene 1
370
     0
100
AcDbVertex
100
AcDb2dVertex
 10
413.4560546875
 20
709.529296875
 30
0.0
  0
SEQEND
  5
2CC
330
2C7
100
AcDbEntity
  8
Ebene 1
370
     0
  0
HATCH
  5
2CD
330
3C
100
AcDbEntity
  8
Ebene 1
 62
   251
420
  6710886
100
AcDbHatch
 10
0.0
 20
0.0
 30
0.0
210
0.0
220
0.0
230
1.0
  2
SOLID
 70
     1
 71
     0
 91
        1
 92
        1
 93
        3
 72
     1
 10
413.4560546875
 20
709.529296875
 11
413.4560546875
 21
705.1171875
 72
     1
 10
413.4560546875
 20
705.1171875
 11
400.220703125
 21
707.3232421875
 72
     1
 10
400.220703125
 20
707.3232421875
 11
413.4560546875
 21
709.529296875
 97
        0
 75
     0
 76
     1
 98
        0
  0
POLYLINE
  5
2CE
330
3C
100
AcDbEntity
  8
Ebene 1
370
     0
100
AcDb2dPolyline
 66
     1
 10
0.0
 20
0.0
 30
0.0
  0
VERTEX
  5
2CF
330
2CE
100
AcDbEntity
  8
Ebene 1
370
     0
100
AcDbVertex
100
AcDb2dVertex
 10
367.087890625
 20
709.529296875
 30
0.0
  0
VERTEX
  5
2D0
330
2CE
100
AcDbEntity
  8
Ebene 1
370
     0
100
AcDbVertex
100
AcDb2dVertex
 10
367.087890625
 20
705.1171875
 30
0.0
  0
VERTEX
  5
2D1
330
2CE
100
AcDbEntity
  8
Ebene 1
370
     0
100
AcDbVertex
100
AcDb2dVertex
 10
380.32421875
 20
707.3232421875
 30
0.0
  0
VERTEX
  5
2D2
330
2CE
100
AcDbEntity
  8
Ebene 1
370
     0
100
AcDbVertex
100
AcDb2dVertex
 10
367.087890625
 20
709.529296875
 30
0.0
  0
SEQEND
  5
2D3
330
2CE
100
AcDbEntity
  8
Ebene 1
370
     0
  0
HATCH
  5
2D4
330
3C
100
AcDbEntity
  8
Ebene 1
 62
   251
420
  6710886
100
AcDbHatch
 10
0.0
 20
0.0
 30
0.0
210
0.0
220
0.0
230
1.0
  2
SOLID
 70
     1
 71
     0
 91
        1
 92
        1
 93
        3
 72
     1
 10
367.087890625
 20
709.529296875
 11
367.087890625
 21
705.1171875
 72
     1
 10
367.087890625
 20
705.1171875
 11
380.32421875
 21
707.3232421875
 72
     1
 10
380.32421875
 20
707.3232421875
 11
367.087890625
 21
709.529296875
 97
        0
 75
     0
 76
     1
 98
        0
  0
POLYLINE
  5
2D5
330
3C
100
AcDbEntity
  8
Ebene 1
370
     0
100
AcDb2dPolyline
 66
     1
 10
0.0
 20
0.0
 30
0.0
  0
VERTEX
  5
2D6
330
2D5
100
AcDbEntity
  8
Ebene 1
370
     0
100
AcDbVertex
100
AcDb2dVertex
 10
330.337890625
 20
728.5439453125
 30
0.0
  0
VERTEX
  5
2D7
330
2D5
100
AcDbEntity
  8
Ebene 1
370
     0
100
AcDbVertex
100
AcDb2dVertex
 10
324.2939453125
 20
712.6611328125
 30
0.0
  0
SEQEND
  5
2D8
330
2D5
100
AcDbEntity
  8
Ebene 1
370
     0
  0
POLYLINE
  5
2D9
330
3C
100
AcDbEntity
  8
Ebene 1
370
     0
100
AcDb2dPolyline
 66
     1
 10
0.0
 20
0.0
 30
0.0
  0
VERTEX
  5
2DA
330
2D9
100
AcDbEntity
  8
Ebene 1
370
     0
100
AcDbVertex
100
AcDb2dVertex
 10
321.8671875
 20
728.5439453125
 30
0.0
  0
VERTEX
  5
2DB
330
2D9
100
AcDbEntity
  8
Ebene 1
370
     0
100
AcDbVertex
100
AcDb2dVertex
 10
330.337890625
 20
728.5439453125
 30
0.0
  0
SEQEND
  5
2DC
330
2D9
100
AcDbEntity
  8
Ebene 1
370
     0
  0
POLYLINE
  5
2DD
330
3C
100
AcDbEntity
  8
Ebene 1
370
     0
100
AcDb2dPolyline
 66
     1
 10
0.0
 20
0.0
 30
0.0
  0
VERTEX
  5
2DE
330
2DD
100
AcDbEntity
  8
Ebene 1
370
     0
100
AcDbVertex
100
AcDb2dVertex
 10
335.19140625
 20
714.1611328125
 30
0.0
  0
VERTEX
  5
2DF
330
2DD
100
AcDbEntity
  8
Ebene 1
370
     0
100
AcDbVertex
100
AcDb2dVertex
 10
334.57421875
 20
713.4111328125
 30
0.0
  0
VERTEX
  5
2E0
330
2DD
100
AcDbEntity
  8
Ebene 1
370
     0
100
AcDbVertex
100
AcDb2dVertex
 10
335.19140625
 20
712.6611328125
 30
0.0
  0
VERTEX
  5
2E1
330
2DD
100
AcDbEntity
  8
Ebene 1
370
     0
100
AcDbVertex
100
AcDb2dVertex
 10
335.80859375
 20
713.4111328125
 30
0.0
  0
VERTEX
  5
2E2
330
2DD
100
AcDbEntity
  8
Ebene 1
370
     0
100
AcDbVertex
100
AcDb2dVertex
 10
335.19140625
 20
714.1611328125
 30
0.0
  0
VERTEX
  5
2E3
330
2DD
100
AcDbEntity
  8
Ebene 1
370
     0
100
AcDbVertex
100
AcDb2dVertex
 10
335.19140625
 20
714.1611328125
 30
0.0
  0
SEQEND
  5
2E4
330
2DD
100
AcDbEntity
  8
Ebene 1
370
     0
  0
POLYLINE
  5
2E5
330
3C
100
AcDbEntity
  8
Ebene 1
370
     0
100
AcDb2dPolyline
 66
     1
 10
0.0
 20
0.0
 30
0.0
  0
VERTEX
  5
2E6
330
2E5
100
AcDbEntity
  8
Ebene 1
370
     0
100
AcDbVertex
100
AcDb2dVertex
 10
-158.0
 20
-296.0439453125
 30
0.0
  0
VERTEX
  5
2E7
330
2E5
100
AcDbEntity
  8
Ebene 1
370
     0
100
AcDbVertex
100
AcDb2dVertex
 10
-158.0
 20
-296.0439453125
 30
0.0
  0
SEQEND
  5
2E8
330
2E5
100
AcDbEntity
  8
Ebene 1
370
     0
  0
POLYLINE
  5
2E9
330
3C
100
AcDbEntity
  8
Ebene 1
370
     0
100
AcDb2dPolyline
 66
     1
 10
0.0
 20
0.0
 30
0.0
  0
VERTEX
  5
2EA
330
2E9
100
AcDbEntity
  8
Ebene 1
370
     0
100
AcDbVertex
100
AcDb2dVertex
 10
-158.0
 20
-296.0439453125
 30
0.0
  0
VERTEX
  5
2EB
330
2E9
100
AcDbEntity
  8
Ebene 1
370
     0
100
AcDbVertex
100
AcDb2dVertex
 10
-158.0
 20
-296.0439453125
 30
0.0
  0
SEQEND
  5
2EC
330
2E9
100
AcDbEntity
  8
Ebene 1
370
     0
  0
POLYLINE
  5
2ED
330
3C
100
AcDbEntity
  8
Ebene 1
370
     0
100
AcDb2dPolyline
 66
     1
 10
0.0
 20
0.0
 30
0.0
  0
VERTEX
  5
2EE
330
2ED
100
AcDbEntity
  8
Ebene 1
370
     0
100
AcDbVertex
100
AcDb2dVertex
 10
-158.0
 20
-296.0439453125
 30
0.0
  0
VERTEX
  5
2EF
330
2ED
100
AcDbEntity
  8
Ebene 1
370
     0
100
AcDbVertex
100
AcDb2dVertex
 10
-158.0
 20
-296.0439453125
 30
0.0
  0
SEQEND
  5
2F0
330
2ED
100
AcDbEntity
  8
Ebene 1
370
     0
  0
POLYLINE
  5
2F1
330
3C
100
AcDbEntity
  8
Ebene 1
370
     0
100
AcDb2dPolyline
 66
     1
 10
0.0
 20
0.0
 30
0.0
  0
VERTEX
  5
2F2
330
2F1
100
AcDbEntity
  8
Ebene 1
370
     0
100
AcDbVertex
100
AcDb2dVertex
 10
347.32421875
 20
728.5439453125
 30
0.0
  0
VERTEX
  5
2F3
330
2F1
100
AcDbEntity
  8
Ebene 1
370
     0
100
AcDbVertex
100
AcDb2dVertex
 10
341.2353515625
 20
728.5439453125
 30
0.0
  0
VERTEX
  5
2F4
330
2F1
100
AcDbEntity
  8
Ebene 1
370
     0
100
AcDbVertex
100
AcDb2dVertex
 10
340.662109375
 20
721.75
 30
0.0
  0
VERTEX
  5
2F5
330
2F1
100
AcDbEntity
  8
Ebene 1
370
     0
100
AcDbVertex
100
AcDb2dVertex
 10
341.2353515625
 20
722.5
 30
0.0
  0
VERTEX
  5
2F6
330
2F1
100
AcDbEntity
  8
Ebene 1
370
     0
100
AcDbVertex
100
AcDb2dVertex
 10
343.0439453125
 20
723.25
 30
0.0
  0
VERTEX
  5
2F7
330
2F1
100
AcDbEntity
  8
Ebene 1
370
     0
100
AcDbVertex
100
AcDb2dVertex
 10
344.896484375
 20
723.25
 30
0.0
  0
VERTEX
  5
2F8
330
2F1
100
AcDbEntity
  8
Ebene 1
370
     0
100
AcDbVertex
100
AcDb2dVertex
 10
346.7060546875
 20
722.5
 30
0.0
  0
VERTEX
  5
2F9
330
2F1
100
AcDbEntity
  8
Ebene 1
370
     0
100
AcDbVertex
100
AcDb2dVertex
 10
347.896484375
 20
720.9560546875
 30
0.0
  0
VERTEX
  5
2FA
330
2F1
100
AcDbEntity
  8
Ebene 1
370
     0
100
AcDbVertex
100
AcDb2dVertex
 10
348.5146484375
 20
718.7060546875
 30
0.0
  0
VERTEX
  5
2FB
330
2F1
100
AcDbEntity
  8
Ebene 1
370
     0
100
AcDbVertex
100
AcDb2dVertex
 10
348.5146484375
 20
717.2060546875
 30
0.0
  0
VERTEX
  5
2FC
330
2F1
100
AcDbEntity
  8
Ebene 1
370
     0
100
AcDbVertex
100
AcDb2dVertex
 10
347.896484375
 20
714.9111328125
 30
0.0
  0
VERTEX
  5
2FD
330
2F1
100
AcDbEntity
  8
Ebene 1
370
     0
100
AcDbVertex
100
AcDb2dVertex
 10
346.7060546875
 20
713.4111328125
 30
0.0
  0
VERTEX
  5
2FE
330
2F1
100
AcDbEntity
  8
Ebene 1
370
     0
100
AcDbVertex
100
AcDb2dVertex
 10
344.896484375
 20
712.6611328125
 30
0.0
  0
VERTEX
  5
2FF
330
2F1
100
AcDbEntity
  8
Ebene 1
370
     0
100
AcDbVertex
100
AcDb2dVertex
 10
343.0439453125
 20
712.6611328125
 30
0.0
  0
VERTEX
  5
300
330
2F1
100
AcDbEntity
  8
Ebene 1
370
     0
100
AcDbVertex
100
AcDb2dVertex
 10
341.2353515625
 20
713.4111328125
 30
0.0
  0
VERTEX
  5
301
330
2F1
100
AcDbEntity
  8
Ebene 1
370
     0
100
AcDbVertex
100
AcDb2dVertex
 10
340.662109375
 20
714.1611328125
 30
0.0
  0
VERTEX
  5
302
330
2F1
100
AcDbEntity
  8
Ebene 1
370
     0
100
AcDbVertex
100
AcDb2dVertex
 10
340.0439453125
 20
715.6611328125
 30
0.0
  0
SEQEND
  5
303
330
2F1
100
AcDbEntity
  8
Ebene 1
370
     0
  0
POLYLINE
  5
304
330
3C
100
AcDbEntity
  8
Ebene 1
370
     0
100
AcDb2dPolyline
 66
     1
 10
0.0
 20
0.0
 30
0.0
  0
VERTEX
  5
305
330
304
100
AcDbEntity
  8
Ebene 1
370
     0
100
AcDbVertex
100
AcDb2dVertex
 10
400.220703125
 20
789.55859375
 30
0.0
  0
VERTEX
  5
306
330
304
100
AcDbEntity
  8
Ebene 1
370
     0
100
AcDbVertex
100
AcDb2dVertex
 10
400.220703125
 20
725.2353515625
 30
0.0
  0
SEQEND
  5
307
330
304
100
AcDbEntity
  8
Ebene 1
370
     0
  0
POLYLINE
  5
308
330
3C
100
AcDbEntity
  8
Ebene 1
370
     0
100
AcDb2dPolyline
 66
     1
 10
0.0
 20
0.0
 30
0.0
  0
VERTEX
  5
309
330
308
100
AcDbEntity
  8
Ebene 1
370
     0
100
AcDbVertex
100
AcDb2dVertex
 10
439.970703125
 20
789.55859375
 30
0.0
  0
VERTEX
  5
30A
330
308
100
AcDbEntity
  8
Ebene 1
370
     0
100
AcDbVertex
100
AcDb2dVertex
 10
439.970703125
 20
725.2353515625
 30
0.0
  0
SEQEND
  5
30B
330
308
100
AcDbEntity
  8
Ebene 1
370
     0
  0
POLYLINE
  5
30C
330
3C
100
AcDbEntity
  8
Ebene 1
370
     0
100
AcDb2dPolyline
 66
     1
 10
0.0
 20
0.0
 30
0.0
  0
VERTEX
  5
30D
330
30C
100
AcDbEntity
  8
Ebene 1
370
     0
100
AcDbVertex
100
AcDb2dVertex
 10
413.4560546875
 20
735.8671875
 30
0.0
  0
VERTEX
  5
30E
330
30C
100
AcDbEntity
  8
Ebene 1
370
     0
100
AcDbVertex
100
AcDb2dVertex
 10
426.69140625
 20
735.8671875
 30
0.0
  0
SEQEND
  5
30F
330
30C
100
AcDbEntity
  8
Ebene 1
370
     0
  0
POLYLINE
  5
310
330
3C
100
AcDbEntity
  8
Ebene 1
370
     0
100
AcDb2dPolyline
 66
     1
 10
0.0
 20
0.0
 30
0.0
  0
VERTEX
  5
311
330
310
100
AcDbEntity
  8
Ebene 1
370
     0
100
AcDbVertex
100
AcDb2dVertex
 10
413.4560546875
 20
738.0732421875
 30
0.0
  0
VERTEX
  5
312
330
310
100
AcDbEntity
  8
Ebene 1
370
     0
100
AcDbVertex
100
AcDb2dVertex
 10
413.4560546875
 20
733.6611328125
 30
0.0
  0
VERTEX
  5
313
330
310
100
AcDbEntity
  8
Ebene 1
370
     0
100
AcDbVertex
100
AcDb2dVertex
 10
400.220703125
 20
735.8671875
 30
0.0
  0
VERTEX
  5
314
330
310
100
AcDbEntity
  8
Ebene 1
370
     0
100
AcDbVertex
100
AcDb2dVertex
 10
413.4560546875
 20
738.0732421875
 30
0.0
  0
SEQEND
  5
315
330
310
100
AcDbEntity
  8
Ebene 1
370
     0
  0
HATCH
  5
316
330
3C
100
AcDbEntity
  8
Ebene 1
 62
   251
420
  6710886
100
AcDbHatch
 10
0.0
 20
0.0
 30
0.0
210
0.0
220
0.0
230
1.0
  2
SOLID
 70
     1
 71
     0
 91
        1
 92
        1
 93
        3
 72
     1
 10
413.4560546875
 20
738.0732421875
 11
413.4560546875
 21
733.6611328125
 72
     1
 10
413.4560546875
 20
733.6611328125
 11
400.220703125
 21
735.8671875
 72
     1
 10
400.220703125
 20
735.8671875
 11
413.4560546875
 21
738.0732421875
 97
        0
 75
     0
 76
     1
 98
        0
  0
POLYLINE
  5
317
330
3C
100
AcDbEntity
  8
Ebene 1
370
     0
100
AcDb2dPolyline
 66
     1
 10
0.0
 20
0.0
 30
0.0
  0
VERTEX
  5
318
330
317
100
AcDbEntity
  8
Ebene 1
370
     0
100
AcDbVertex
100
AcDb2dVertex
 10
426.69140625
 20
738.0732421875
 30
0.0
  0
VERTEX
  5
319
330
317
100
AcDbEntity
  8
Ebene 1
370
     0
100
AcDbVertex
100
AcDb2dVertex
 10
426.69140625
 20
733.6611328125
 30
0.0
  0
VERTEX
  5
31A
330
317
100
AcDbEntity
  8
Ebene 1
370
     0
100
AcDbVertex
100
AcDb2dVertex
 10
439.970703125
 20
735.8671875
 30
0.0
  0
VERTEX
  5
31B
330
317
100
AcDbEntity
  8
Ebene 1
370
     0
100
AcDbVertex
100
AcDb2dVertex
 10
426.69140625
 20
738.0732421875
 30
0.0
  0
SEQEND
  5
31C
330
317
100
AcDbEntity
  8
Ebene 1
370
     0
  0
HATCH
  5
31D
330
3C
100
AcDbEntity
  8
Ebene 1
 62
   251
420
  6710886
100
AcDbHatch
 10
0.0
 20
0.0
 30
0.0
210
0.0
220
0.0
230
1.0
  2
SOLID
 70
     1
 71
     0
 91
        1
 92
        1
 93
        3
 72
     1
 10
426.69140625
 20
738.0732421875
 11
426.69140625
 21
733.6611328125
 72
     1
 10
426.69140625
 20
733.6611328125
 11
439.970703125
 21
735.8671875
 72
     1
 10
439.970703125
 20
735.8671875
 11
426.69140625
 21
738.0732421875
 97
        0
 75
     0
 76
     1
 98
        0
  0
POLYLINE
  5
31E
330
3C
100
AcDbEntity
  8
Ebene 1
370
     0
100
AcDb2dPolyline
 66
     1
 10
0.0
 20
0.0
 30
0.0
  0
VERTEX
  5
31F
330
31E
100
AcDbEntity
  8
Ebene 1
370
     0
100
AcDbVertex
100
AcDb2dVertex
 10
-158.0
 20
-296.0439453125
 30
0.0
  0
VERTEX
  5
320
330
31E
100
AcDbEntity
  8
Ebene 1
370
     0
100
AcDbVertex
100
AcDb2dVertex
 10
-158.0
 20
-296.0439453125
 30
0.0
  0
SEQEND
  5
321
330
31E
100
AcDbEntity
  8
Ebene 1
370
     0
  0
POLYLINE
  5
322
330
3C
100
AcDbEntity
  8
Ebene 1
370
     0
100
AcDb2dPolyline
 66
     1
 10
0.0
 20
0.0
 30
0.0
  0
VERTEX
  5
323
330
322
100
AcDbEntity
  8
Ebene 1
370
     0
100
AcDbVertex
100
AcDb2dVertex
 10
-158.0
 20
-296.0439453125
 30
0.0
  0
VERTEX
  5
324
330
322
100
AcDbEntity
  8
Ebene 1
370
     0
100
AcDbVertex
100
AcDb2dVertex
 10
-158.0
 20
-296.0439453125
 30
0.0
  0
SEQEND
  5
325
330
322
100
AcDbEntity
  8
Ebene 1
370
     0
  0
POLYLINE
  5
326
330
3C
100
AcDbEntity
  8
Ebene 1
370
     0
100
AcDb2dPolyline
 66
     1
 10
0.0
 20
0.0
 30
0.0
  0
VERTEX
  5
327
330
326
100
AcDbEntity
  8
Ebene 1
370
     0
100
AcDbVertex
100
AcDb2dVertex
 10
-158.0
 20
-296.0439453125
 30
0.0
  0
VERTEX
  5
328
330
326
100
AcDbEntity
  8
Ebene 1
370
     0
100
AcDbVertex
100
AcDb2dVertex
 10
-158.0
 20
-296.0439453125
 30
0.0
  0
SEQEND
  5
329
330
326
100
AcDbEntity
  8
Ebene 1
370
     0
  0
POLYLINE
  5
32A
330
3C
100
AcDbEntity
  8
Ebene 1
370
     0
100
AcDb2dPolyline
 66
     1
 10
0.0
 20
0.0
 30
0.0
  0
VERTEX
  5
32B
330
32A
100
AcDbEntity
  8
Ebene 1
370
     0
100
AcDbVertex
100
AcDb2dVertex
 10
410.67578125
 20
754.0439453125
 30
0.0
  0
VERTEX
  5
32C
330
32A
100
AcDbEntity
  8
Ebene 1
370
     0
100
AcDbVertex
100
AcDb2dVertex
 10
411.912109375
 20
754.7939453125
 30
0.0
  0
VERTEX
  5
32D
330
32A
100
AcDbEntity
  8
Ebene 1
370
     0
100
AcDbVertex
100
AcDb2dVertex
 10
413.720703125
 20
757.087890625
 30
0.0
  0
VERTEX
  5
32E
330
32A
100
AcDbEntity
  8
Ebene 1
370
     0
100
AcDbVertex
100
AcDb2dVertex
 10
413.720703125
 20
741.1611328125
 30
0.0
  0
SEQEND
  5
32F
330
32A
100
AcDbEntity
  8
Ebene 1
370
     0
  0
POLYLINE
  5
330
330
3C
100
AcDbEntity
  8
Ebene 1
370
     0
100
AcDb2dPolyline
 66
     1
 10
0.0
 20
0.0
 30
0.0
  0
VERTEX
  5
331
330
330
100
AcDbEntity
  8
Ebene 1
370
     0
100
AcDbVertex
100
AcDb2dVertex
 10
428.279296875
 20
757.087890625
 30
0.0
  0
VERTEX
  5
332
330
330
100
AcDbEntity
  8
Ebene 1
370
     0
100
AcDbVertex
100
AcDb2dVertex
 10
422.19140625
 20
757.087890625
 30
0.0
  0
VERTEX
  5
333
330
330
100
AcDbEntity
  8
Ebene 1
370
     0
100
AcDbVertex
100
AcDb2dVertex
 10
421.6171875
 20
750.25
 30
0.0
  0
VERTEX
  5
334
330
330
100
AcDbEntity
  8
Ebene 1
370
     0
100
AcDbVertex
100
AcDb2dVertex
 10
422.19140625
 20
751.0
 30
0.0
  0
VERTEX
  5
335
330
330
100
AcDbEntity
  8
Ebene 1
370
     0
100
AcDbVertex
100
AcDb2dVertex
 10
424.0439453125
 20
751.7939453125
 30
0.0
  0
VERTEX
  5
336
330
330
100
AcDbEntity
  8
Ebene 1
370
     0
100
AcDbVertex
100
AcDb2dVertex
 10
425.853515625
 20
751.7939453125
 30
0.0
  0
VERTEX
  5
337
330
330
100
AcDbEntity
  8
Ebene 1
370
     0
100
AcDbVertex
100
AcDb2dVertex
 10
427.662109375
 20
751.0
 30
0.0
  0
VERTEX
  5
338
330
330
100
AcDbEntity
  8
Ebene 1
370
     0
100
AcDbVertex
100
AcDb2dVertex
 10
428.853515625
 20
749.5
 30
0.0
  0
VERTEX
  5
339
330
330
100
AcDbEntity
  8
Ebene 1
370
     0
100
AcDbVertex
100
AcDb2dVertex
 10
429.470703125
 20
747.2060546875
 30
0.0
  0
VERTEX
  5
33A
330
330
100
AcDbEntity
  8
Ebene 1
370
     0
100
AcDbVertex
100
AcDb2dVertex
 10
429.470703125
 20
745.7060546875
 30
0.0
  0
VERTEX
  5
33B
330
330
100
AcDbEntity
  8
Ebene 1
370
     0
100
AcDbVertex
100
AcDb2dVertex
 10
428.853515625
 20
743.4560546875
 30
0.0
  0
VERTEX
  5
33C
330
330
100
AcDbEntity
  8
Ebene 1
370
     0
100
AcDbVertex
100
AcDb2dVertex
 10
427.662109375
 20
741.9111328125
 30
0.0
  0
VERTEX
  5
33D
330
330
100
AcDbEntity
  8
Ebene 1
370
     0
100
AcDbVertex
100
AcDb2dVertex
 10
425.853515625
 20
741.1611328125
 30
0.0
  0
VERTEX
  5
33E
330
330
100
AcDbEntity
  8
Ebene 1
370
     0
100
AcDbVertex
100
AcDb2dVertex
 10
424.0439453125
 20
741.1611328125
 30
0.0
  0
VERTEX
  5
33F
330
330
100
AcDbEntity
  8
Ebene 1
370
     0
100
AcDbVertex
100
AcDb2dVertex
 10
422.19140625
 20
741.9111328125
 30
0.0
  0
VERTEX
  5
340
330
330
100
AcDbEntity
  8
Ebene 1
370
     0
100
AcDbVertex
100
AcDb2dVertex
 10
421.6171875
 20
742.6611328125
 30
0.0
  0
VERTEX
  5
341
330
330
100
AcDbEntity
  8
Ebene 1
370
     0
100
AcDbVertex
100
AcDb2dVertex
 10
421.0
 20
744.2060546875
 30
0.0
  0
SEQEND
  5
342
330
330
100
AcDbEntity
  8
Ebene 1
370
     0
  0
POLYLINE
  5
343
330
3C
100
AcDbEntity
  8
Ebene 1
370
     0
100
AcDb2dPolyline
 66
     1
 10
0.0
 20
0.0
 30
0.0
  0
VERTEX
  5
344
330
343
100
AcDbEntity
  8
Ebene 1
370
     0
100
AcDbVertex
100
AcDb2dVertex
 10
377.67578125
 20
784.529296875
 30
0.0
  0
VERTEX
  5
345
330
343
100
AcDbEntity
  8
Ebene 1
370
     0
100
AcDbVertex
100
AcDb2dVertex
 10
271.970703125
 20
784.529296875
 30
0.0
  0
SEQEND
  5
346
330
343
100
AcDbEntity
  8
Ebene 1
370
     0
  0
POLYLINE
  5
347
330
3C
100
AcDbEntity
  8
Ebene 1
370
     0
100
AcDb2dPolyline
 66
     1
 10
0.0
 20
0.0
 30
0.0
  0
VERTEX
  5
348
330
347
100
AcDbEntity
  8
Ebene 1
370
     0
100
AcDbVertex
100
AcDb2dVertex
 10
386.67578125
 20
803.1025390625
 30
0.0
  0
VERTEX
  5
349
330
347
100
AcDbEntity
  8
Ebene 1
370
     0
100
AcDbVertex
100
AcDb2dVertex
 10
271.970703125
 20
803.1025390625
 30
0.0
  0
SEQEND
  5
34A
330
347
100
AcDbEntity
  8
Ebene 1
370
     0
  0
POLYLINE
  5
34B
330
3C
100
AcDbEntity
  8
Ebene 1
370
     0
100
AcDb2dPolyline
 66
     1
 10
0.0
 20
0.0
 30
0.0
  0
VERTEX
  5
34C
330
34B
100
AcDbEntity
  8
Ebene 1
370
     0
100
AcDbVertex
100
AcDb2dVertex
 10
282.55859375
 20
771.25
 30
0.0
  0
VERTEX
  5
34D
330
34B
100
AcDbEntity
  8
Ebene 1
370
     0
100
AcDbVertex
100
AcDb2dVertex
 10
282.55859375
 20
758.0146484375
 30
0.0
  0
SEQEND
  5
34E
330
34B
100
AcDbEntity
  8
Ebene 1
370
     0
  0
POLYLINE
  5
34F
330
3C
100
AcDbEntity
  8
Ebene 1
370
     0
100
AcDb2dPolyline
 66
     1
 10
0.0
 20
0.0
 30
0.0
  0
VERTEX
  5
350
330
34F
100
AcDbEntity
  8
Ebene 1
370
     0
100
AcDbVertex
100
AcDb2dVertex
 10
282.55859375
 20
816.337890625
 30
0.0
  0
VERTEX
  5
351
330
34F
100
AcDbEntity
  8
Ebene 1
370
     0
100
AcDbVertex
100
AcDb2dVertex
 10
282.55859375
 20
848.72021484375
 30
0.0
  0
SEQEND
  5
352
330
34F
100
AcDbEntity
  8
Ebene 1
370
     0
  0
POLYLINE
  5
353
330
3C
100
AcDbEntity
  8
Ebene 1
370
     0
100
AcDb2dPolyline
 66
     1
 10
0.0
 20
0.0
 30
0.0
  0
VERTEX
  5
354
330
353
100
AcDbEntity
  8
Ebene 1
370
     0
100
AcDbVertex
100
AcDb2dVertex
 10
282.55859375
 20
784.529296875
 30
0.0
  0
VERTEX
  5
355
330
353
100
AcDbEntity
  8
Ebene 1
370
     0
100
AcDbVertex
100
AcDb2dVertex
 10
282.55859375
 20
803.1025390625
 30
0.0
  0
SEQEND
  5
356
330
353
100
AcDbEntity
  8
Ebene 1
370
     0
  0
POLYLINE
  5
357
330
3C
100
AcDbEntity
  8
Ebene 1
370
     0
100
AcDb2dPolyline
 66
     1
 10
0.0
 20
0.0
 30
0.0
  0
VERTEX
  5
358
330
357
100
AcDbEntity
  8
Ebene 1
370
     0
100
AcDbVertex
100
AcDb2dVertex
 10
280.35302734375
 20
771.25
 30
0.0
  0
VERTEX
  5
359
330
357
100
AcDbEntity
  8
Ebene 1
370
     0
100
AcDbVertex
100
AcDb2dVertex
 10
284.7646484375
 20
771.25
 30
0.0
  0
VERTEX
  5
35A
330
357
100
AcDbEntity
  8
Ebene 1
370
     0
100
AcDbVertex
100
AcDb2dVertex
 10
282.55859375
 20
784.529296875
 30
0.0
  0
VERTEX
  5
35B
330
357
100
AcDbEntity
  8
Ebene 1
370
     0
100
AcDbVertex
100
AcDb2dVertex
 10
280.35302734375
 20
771.25
 30
0.0
  0
SEQEND
  5
35C
330
357
100
AcDbEntity
  8
Ebene 1
370
     0
  0
HATCH
  5
35D
330
3C
100
AcDbEntity
  8
Ebene 1
 62
   251
420
  6710886
100
AcDbHatch
 10
0.0
 20
0.0
 30
0.0
210
0.0
220
0.0
230
1.0
  2
SOLID
 70
     1
 71
     0
 91
        1
 92
        1
 93
        3
 72
     1
 10
280.35302734375
 20
771.25
 11
284.7646484375
 21
771.25
 72
     1
 10
284.7646484375
 20
771.25
 11
282.55859375
 21
784.529296875
 72
     1
 10
282.55859375
 20
784.529296875
 11
280.35302734375
 21
771.25
 97
        0
 75
     0
 76
     1
 98
        0
  0
POLYLINE
  5
35E
330
3C
100
AcDbEntity
  8
Ebene 1
370
     0
100
AcDb2dPolyline
 66
     1
 10
0.0
 20
0.0
 30
0.0
  0
VERTEX
  5
35F
330
35E
100
AcDbEntity
  8
Ebene 1
370
     0
100
AcDbVertex
100
AcDb2dVertex
 10
280.35302734375
 20
816.337890625
 30
0.0
  0
VERTEX
  5
360
330
35E
100
AcDbEntity
  8
Ebene 1
370
     0
100
AcDbVertex
100
AcDb2dVertex
 10
284.7646484375
 20
816.337890625
 30
0.0
  0
VERTEX
  5
361
330
35E
100
AcDbEntity
  8
Ebene 1
370
     0
100
AcDbVertex
100
AcDb2dVertex
 10
282.55859375
 20
803.1025390625
 30
0.0
  0
VERTEX
  5
362
330
35E
100
AcDbEntity
  8
Ebene 1
370
     0
100
AcDbVertex
100
AcDb2dVertex
 10
280.35302734375
 20
816.337890625
 30
0.0
  0
SEQEND
  5
363
330
35E
100
AcDbEntity
  8
Ebene 1
370
     0
  0
HATCH
  5
364
330
3C
100
AcDbEntity
  8
Ebene 1
 62
   251
420
  6710886
100
AcDbHatch
 10
0.0
 20
0.0
 30
0.0
210
0.0
220
0.0
230
1.0
  2
SOLID
 70
     1
 71
     0
 91
        1
 92
        1
 93
        3
 72
     1
 10
280.35302734375
 20
816.337890625
 11
284.7646484375
 21
816.337890625
 72
     1
 10
284.7646484375
 20
816.337890625
 11
282.55859375
 21
803.1025390625
 72
     1
 10
282.55859375
 20
803.1025390625
 11
280.35302734375
 21
816.337890625
 97
        0
 75
     0
 76
     1
 98
        0
  0
POLYLINE
  5
365
330
3C
100
AcDbEntity
  8
Ebene 1
370
     0
100
AcDb2dPolyline
 66
     1
 10
0.0
 20
0.0
 30
0.0
  0
VERTEX
  5
366
330
365
100
AcDbEntity
  8
Ebene 1
370
     0
100
AcDbVertex
100
AcDb2dVertex
 10
-158.0
 20
-296.0439453125
 30
0.0
  0
VERTEX
  5
367
330
365
100
AcDbEntity
  8
Ebene 1
370
     0
100
AcDbVertex
100
AcDb2dVertex
 10
-158.0
 20
-296.0439453125
 30
0.0
  0
SEQEND
  5
368
330
365
100
AcDbEntity
  8
Ebene 1
370
     0
  0
POLYLINE
  5
369
330
3C
100
AcDbEntity
  8
Ebene 1
370
     0
100
AcDb2dPolyline
 66
     1
 10
0.0
 20
0.0
 30
0.0
  0
VERTEX
  5
36A
330
369
100
AcDbEntity
  8
Ebene 1
370
     0
100
AcDbVertex
100
AcDb2dVertex
 10
-158.0
 20
-296.0439453125
 30
0.0
  0
VERTEX
  5
36B
330
369
100
AcDbEntity
  8
Ebene 1
370
     0
100
AcDbVertex
100
AcDb2dVertex
 10
-158.0
 20
-296.0439453125
 30
0.0
  0
SEQEND
  5
36C
330
369
100
AcDbEntity
  8
Ebene 1
370
     0
  0
POLYLINE
  5
36D
330
3C
100
AcDbEntity
  8
Ebene 1
370
     0
100
AcDb2dPolyline
 66
     1
 10
0.0
 20
0.0
 30
0.0
  0
VERTEX
  5
36E
330
36D
100
AcDbEntity
  8
Ebene 1
370
     0
100
AcDbVertex
100
AcDb2dVertex
 10
-158.0
 20
-296.0439453125
 30
0.0
  0
VERTEX
  5
36F
330
36D
100
AcDbEntity
  8
Ebene 1
370
     0
100
AcDbVertex
100
AcDb2dVertex
 10
-158.0
 20
-296.0439453125
 30
0.0
  0
SEQEND
  5
370
330
36D
100
AcDbEntity
  8
Ebene 1
370
     0
  0
POLYLINE
  5
371
330
3C
100
AcDbEntity
  8
Ebene 1
370
     0
100
AcDb2dPolyline
 66
     1
 10
0.0
 20
0.0
 30
0.0
  0
VERTEX
  5
372
330
371
100
AcDbEntity
  8
Ebene 1
370
     0
100
AcDbVertex
100
AcDb2dVertex
 10
261.33837890625
 20
843.42626953125
 30
0.0
  0
VERTEX
  5
373
330
371
100
AcDbEntity
  8
Ebene 1
370
     0
100
AcDbVertex
100
AcDb2dVertex
 10
277.2646484375
 20
837.337890625
 30
0.0
  0
SEQEND
  5
374
330
371
100
AcDbEntity
  8
Ebene 1
370
     0
  0
POLYLINE
  5
375
330
3C
100
AcDbEntity
  8
Ebene 1
370
     0
100
AcDb2dPolyline
 66
     1
 10
0.0
 20
0.0
 30
0.0
  0
VERTEX
  5
376
330
375
100
AcDbEntity
  8
Ebene 1
370
     0
100
AcDbVertex
100
AcDb2dVertex
 10
261.33837890625
 20
834.9111328125
 30
0.0
  0
VERTEX
  5
377
330
375
100
AcDbEntity
  8
Ebene 1
370
     0
100
AcDbVertex
100
AcDb2dVertex
 10
261.33837890625
 20
843.42626953125
 30
0.0
  0
SEQEND
  5
378
330
375
100
AcDbEntity
  8
Ebene 1
370
     0
  0
POLYLINE
  5
379
330
3C
100
AcDbEntity
  8
Ebene 1
370
     0
100
AcDb2dPolyline
 66
     1
 10
0.0
 20
0.0
 30
0.0
  0
VERTEX
  5
37A
330
379
100
AcDbEntity
  8
Ebene 1
370
     0
100
AcDbVertex
100
AcDb2dVertex
 10
386.67578125
 20
803.1025390625
 30
0.0
  0
VERTEX
  5
37B
330
379
100
AcDbEntity
  8
Ebene 1
370
     0
100
AcDbVertex
100
AcDb2dVertex
 10
308.853515625
 20
803.1025390625
 30
0.0
  0
SEQEND
  5
37C
330
379
100
AcDbEntity
  8
Ebene 1
370
     0
  0
POLYLINE
  5
37D
330
3C
100
AcDbEntity
  8
Ebene 1
370
     0
100
AcDb2dPolyline
 66
     1
 10
0.0
 20
0.0
 30
0.0
  0
VERTEX
  5
37E
330
37D
100
AcDbEntity
  8
Ebene 1
370
     0
100
AcDbVertex
100
AcDb2dVertex
 10
386.67578125
 20
837.55859375
 30
0.0
  0
VERTEX
  5
37F
330
37D
100
AcDbEntity
  8
Ebene 1
370
     0
100
AcDbVertex
100
AcDb2dVertex
 10
308.853515625
 20
837.55859375
 30
0.0
  0
SEQEND
  5
380
330
37D
100
AcDbEntity
  8
Ebene 1
370
     0
  0
POLYLINE
  5
381
330
3C
100
AcDbEntity
  8
Ebene 1
370
     0
100
AcDb2dPolyline
 66
     1
 10
0.0
 20
0.0
 30
0.0
  0
VERTEX
  5
382
330
381
100
AcDbEntity
  8
Ebene 1
370
     0
100
AcDbVertex
100
AcDb2dVertex
 10
319.44140625
 20
789.8232421875
 30
0.0
  0
VERTEX
  5
383
330
381
100
AcDbEntity
  8
Ebene 1
370
     0
100
AcDbVertex
100
AcDb2dVertex
 10
319.44140625
 20
776.587890625
 30
0.0
  0
SEQEND
  5
384
330
381
100
AcDbEntity
  8
Ebene 1
370
     0
  0
POLYLINE
  5
385
330
3C
100
AcDbEntity
  8
Ebene 1
370
     0
100
AcDb2dPolyline
 66
     1
 10
0.0
 20
0.0
 30
0.0
  0
VERTEX
  5
386
330
385
100
AcDbEntity
  8
Ebene 1
370
     0
100
AcDbVertex
100
AcDb2dVertex
 10
319.44140625
 20
850.837890625
 30
0.0
  0
VERTEX
  5
387
330
385
100
AcDbEntity
  8
Ebene 1
370
     0
100
AcDbVertex
100
AcDb2dVertex
 10
319.44140625
 20
926.23486328125
 30
0.0
  0
SEQEND
  5
388
330
385
100
AcDbEntity
  8
Ebene 1
370
     0
  0
POLYLINE
  5
389
330
3C
100
AcDbEntity
  8
Ebene 1
370
     0
100
AcDb2dPolyline
 66
     1
 10
0.0
 20
0.0
 30
0.0
  0
VERTEX
  5
38A
330
389
100
AcDbEntity
  8
Ebene 1
370
     0
100
AcDbVertex
100
AcDb2dVertex
 10
319.44140625
 20
803.1025390625
 30
0.0
  0
VERTEX
  5
38B
330
389
100
AcDbEntity
  8
Ebene 1
370
     0
100
AcDbVertex
100
AcDb2dVertex
 10
319.44140625
 20
837.55859375
 30
0.0
  0
SEQEND
  5
38C
330
389
100
AcDbEntity
  8
Ebene 1
370
     0
  0
POLYLINE
  5
38D
330
3C
100
AcDbEntity
  8
Ebene 1
370
     0
100
AcDb2dPolyline
 66
     1
 10
0.0
 20
0.0
 30
0.0
  0
VERTEX
  5
38E
330
38D
100
AcDbEntity
  8
Ebene 1
370
     0
100
AcDbVertex
100
AcDb2dVertex
 10
317.2353515625
 20
789.8232421875
 30
0.0
  0
VERTEX
  5
38F
330
38D
100
AcDbEntity
  8
Ebene 1
370
     0
100
AcDbVertex
100
AcDb2dVertex
 10
321.646484375
 20
789.8232421875
 30
0.0
  0
VERTEX
  5
390
330
38D
100
AcDbEntity
  8
Ebene 1
370
     0
100
AcDbVertex
100
AcDb2dVertex
 10
319.44140625
 20
803.1025390625
 30
0.0
  0
VERTEX
  5
391
330
38D
100
AcDbEntity
  8
Ebene 1
370
     0
100
AcDbVertex
100
AcDb2dVertex
 10
317.2353515625
 20
789.8232421875
 30
0.0
  0
SEQEND
  5
392
330
38D
100
AcDbEntity
  8
Ebene 1
370
     0
  0
HATCH
  5
393
330
3C
100
AcDbEntity
  8
Ebene 1
 62
   251
420
  6710886
100
AcDbHatch
 10
0.0
 20
0.0
 30
0.0
210
0.0
220
0.0
230
1.0
  2
SOLID
 70
     1
 71
     0
 91
        1
 92
        1
 93
        3
 72
     1
 10
317.2353515625
 20
789.8232421875
 11
321.646484375
 21
789.8232421875
 72
     1
 10
321.646484375
 20
789.8232421875
 11
319.44140625
 21
803.1025390625
 72
     1
 10
319.44140625
 20
803.1025390625
 11
317.2353515625
 21
789.8232421875
 97
        0
 75
     0
 76
     1
 98
        0
  0
POLYLINE
  5
394
330
3C
100
AcDbEntity
  8
Ebene 1
370
     0
100
AcDb2dPolyline
 66
     1
 10
0.0
 20
0.0
 30
0.0
  0
VERTEX
  5
395
330
394
100
AcDbEntity
  8
Ebene 1
370
     0
100
AcDbVertex
100
AcDb2dVertex
 10
317.2353515625
 20
850.837890625
 30
0.0
  0
VERTEX
  5
396
330
394
100
AcDbEntity
  8
Ebene 1
370
     0
100
AcDbVertex
100
AcDb2dVertex
 10
321.646484375
 20
850.837890625
 30
0.0
  0
VERTEX
  5
397
330
394
100
AcDbEntity
  8
Ebene 1
370
     0
100
AcDbVertex
100
AcDb2dVertex
 10
319.44140625
 20
837.55859375
 30
0.0
  0
VERTEX
  5
398
330
394
100
AcDbEntity
  8
Ebene 1
370
     0
100
AcDbVertex
100
AcDb2dVertex
 10
317.2353515625
 20
850.837890625
 30
0.0
  0
SEQEND
  5
399
330
394
100
AcDbEntity
  8
Ebene 1
370
     0
  0
HATCH
  5
39A
330
3C
100
AcDbEntity
  8
Ebene 1
 62
   251
420
  6710886
100
AcDbHatch
 10
0.0
 20
0.0
 30
0.0
210
0.0
220
0.0
230
1.0
  2
SOLID
 70
     1
 71
     0
 91
        1
 92
        1
 93
        3
 72
     1
 10
317.2353515625
 20
850.837890625
 11
321.646484375
 21
850.837890625
 72
     1
 10
321.646484375
 20
850.837890625
 11
319.44140625
 21
837.55859375
 72
     1
 10
319.44140625
 20
837.55859375
 11
317.2353515625
 21
850.837890625
 97
        0
 75
     0
 76
     1
 98
        0
  0
POLYLINE
  5
39B
330
3C
100
AcDbEntity
  8
Ebene 1
370
     0
100
AcDb2dPolyline
 66
     1
 10
0.0
 20
0.0
 30
0.0
  0
VERTEX
  5
39C
330
39B
100
AcDbEntity
  8
Ebene 1
370
     0
100
AcDbVertex
100
AcDb2dVertex
 10
-158.0
 20
-296.0439453125
 30
0.0
  0
VERTEX
  5
39D
330
39B
100
AcDbEntity
  8
Ebene 1
370
     0
100
AcDbVertex
100
AcDb2dVertex
 10
-158.0
 20
-296.0439453125
 30
0.0
  0
SEQEND
  5
39E
330
39B
100
AcDbEntity
  8
Ebene 1
370
     0
  0
POLYLINE
  5
39F
330
3C
100
AcDbEntity
  8
Ebene 1
370
     0
100
AcDb2dPolyline
 66
     1
 10
0.0
 20
0.0
 30
0.0
  0
VERTEX
  5
3A0
330
39F
100
AcDbEntity
  8
Ebene 1
370
     0
100
AcDbVertex
100
AcDb2dVertex
 10
-158.0
 20
-296.0439453125
 30
0.0
  0
VERTEX
  5
3A1
330
39F
100
AcDbEntity
  8
Ebene 1
370
     0
100
AcDbVertex
100
AcDb2dVertex
 10
-158.0
 20
-296.0439453125
 30
0.0
  0
SEQEND
  5
3A2
330
39F
100
AcDbEntity
  8
Ebene 1
370
     0
  0
POLYLINE
  5
3A3
330
3C
100
AcDbEntity
  8
Ebene 1
370
     0
100
AcDb2dPolyline
 66
     1
 10
0.0
 20
0.0
 30
0.0
  0
VERTEX
  5
3A4
330
3A3
100
AcDbEntity
  8
Ebene 1
370
     0
100
AcDbVertex
100
AcDb2dVertex
 10
-158.0
 20
-296.0439453125
 30
0.0
  0
VERTEX
  5
3A5
330
3A3
100
AcDbEntity
  8
Ebene 1
370
     0
100
AcDbVertex
100
AcDb2dVertex
 10
-158.0
 20
-296.0439453125
 30
0.0
  0
SEQEND
  5
3A6
330
3A3
100
AcDbEntity
  8
Ebene 1
370
     0
  0
POLYLINE
  5
3A7
330
3C
100
AcDbEntity
  8
Ebene 1
370
     0
100
AcDb2dPolyline
 66
     1
 10
0.0
 20
0.0
 30
0.0
  0
VERTEX
  5
3A8
330
3A7
100
AcDbEntity
  8
Ebene 1
370
     0
100
AcDbVertex
100
AcDb2dVertex
 10
301.2646484375
 20
902.14697265625
 30
0.0
  0
VERTEX
  5
3A9
330
3A7
100
AcDbEntity
  8
Ebene 1
370
     0
100
AcDbVertex
100
AcDb2dVertex
 10
300.5146484375
 20
903.38232421875
 30
0.0
  0
VERTEX
  5
3AA
330
3A7
100
AcDbEntity
  8
Ebene 1
370
     0
100
AcDbVertex
100
AcDb2dVertex
 10
298.220703125
 20
905.19091796875
 30
0.0
  0
VERTEX
  5
3AB
330
3A7
100
AcDbEntity
  8
Ebene 1
370
     0
100
AcDbVertex
100
AcDb2dVertex
 10
314.146484375
 20
905.19091796875
 30
0.0
  0
SEQEND
  5
3AC
330
3A7
100
AcDbEntity
  8
Ebene 1
370
     0
  0
POLYLINE
  5
3AD
330
3C
100
AcDbEntity
  8
Ebene 1
370
     0
100
AcDb2dPolyline
 66
     1
 10
0.0
 20
0.0
 30
0.0
  0
VERTEX
  5
3AE
330
3AD
100
AcDbEntity
  8
Ebene 1
370
     0
100
AcDbVertex
100
AcDb2dVertex
 10
298.220703125
 20
913.66162109375
 30
0.0
  0
VERTEX
  5
3AF
330
3AD
100
AcDbEntity
  8
Ebene 1
370
     0
100
AcDbVertex
100
AcDb2dVertex
 10
298.220703125
 20
920.3232421875
 30
0.0
  0
VERTEX
  5
3B0
330
3AD
100
AcDbEntity
  8
Ebene 1
370
     0
100
AcDbVertex
100
AcDb2dVertex
 10
304.30859375
 20
916.70556640625
 30
0.0
  0
VERTEX
  5
3B1
330
3AD
100
AcDbEntity
  8
Ebene 1
370
     0
100
AcDbVertex
100
AcDb2dVertex
 10
304.30859375
 20
918.5146484375
 30
0.0
  0
VERTEX
  5
3B2
330
3AD
100
AcDbEntity
  8
Ebene 1
370
     0
100
AcDbVertex
100
AcDb2dVertex
 10
305.05859375
 20
919.75
 30
0.0
  0
VERTEX
  5
3B3
330
3AD
100
AcDbEntity
  8
Ebene 1
370
     0
100
AcDbVertex
100
AcDb2dVertex
 10
305.80859375
 20
920.3232421875
 30
0.0
  0
VERTEX
  5
3B4
330
3AD
100
AcDbEntity
  8
Ebene 1
370
     0
100
AcDbVertex
100
AcDb2dVertex
 10
308.05859375
 20
920.94091796875
 30
0.0
  0
VERTEX
  5
3B5
330
3AD
100
AcDbEntity
  8
Ebene 1
370
     0
100
AcDbVertex
100
AcDb2dVertex
 10
309.603515625
 20
920.94091796875
 30
0.0
  0
VERTEX
  5
3B6
330
3AD
100
AcDbEntity
  8
Ebene 1
370
     0
100
AcDbVertex
100
AcDb2dVertex
 10
311.853515625
 20
920.3232421875
 30
0.0
  0
VERTEX
  5
3B7
330
3AD
100
AcDbEntity
  8
Ebene 1
370
     0
100
AcDbVertex
100
AcDb2dVertex
 10
313.396484375
 20
919.13232421875
 30
0.0
  0
VERTEX
  5
3B8
330
3AD
100
AcDbEntity
  8
Ebene 1
370
     0
100
AcDbVertex
100
AcDb2dVertex
 10
314.146484375
 20
917.3232421875
 30
0.0
  0
VERTEX
  5
3B9
330
3AD
100
AcDbEntity
  8
Ebene 1
370
     0
100
AcDbVertex
100
AcDb2dVertex
 10
314.146484375
 20
915.47021484375
 30
0.0
  0
VERTEX
  5
3BA
330
3AD
100
AcDbEntity
  8
Ebene 1
370
     0
100
AcDbVertex
100
AcDb2dVertex
 10
313.396484375
 20
913.66162109375
 30
0.0
  0
VERTEX
  5
3BB
330
3AD
100
AcDbEntity
  8
Ebene 1
370
     0
100
AcDbVertex
100
AcDb2dVertex
 10
312.603515625
 20
913.0439453125
 30
0.0
  0
VERTEX
  5
3BC
330
3AD
100
AcDbEntity
  8
Ebene 1
370
     0
100
AcDbVertex
100
AcDb2dVertex
 10
311.103515625
 20
912.47021484375
 30
0.0
  0
SEQEND
  5
3BD
330
3AD
100
AcDbEntity
  8
Ebene 1
370
     0
  0
POLYLINE
  5
3BE
330
3C
100
AcDbEntity
  8
Ebene 1
370
     0
100
AcDb2dPolyline
 66
     1
 10
0.0
 20
0.0
 30
0.0
  0
VERTEX
  5
3BF
330
3BE
100
AcDbEntity
  8
Ebene 1
370
     0
100
AcDbVertex
100
AcDb2dVertex
 10
386.67578125
 20
837.55859375
 30
0.0
  0
VERTEX
  5
3C0
330
3BE
100
AcDbEntity
  8
Ebene 1
370
     0
100
AcDbVertex
100
AcDb2dVertex
 10
338.32421875
 20
837.55859375
 30
0.0
  0
SEQEND
  5
3C1
330
3BE
100
AcDbEntity
  8
Ebene 1
370
     0
  0
POLYLINE
  5
3C2
330
3C
100
AcDbEntity
  8
Ebene 1
370
     0
100
AcDb2dPolyline
 66
     1
 10
0.0
 20
0.0
 30
0.0
  0
VERTEX
  5
3C3
330
3C2
100
AcDbEntity
  8
Ebene 1
370
     0
100
AcDbVertex
100
AcDb2dVertex
 10
386.67578125
 20
870.73486328125
 30
0.0
  0
VERTEX
  5
3C4
330
3C2
100
AcDbEntity
  8
Ebene 1
370
     0
100
AcDbVertex
100
AcDb2dVertex
 10
338.32421875
 20
870.73486328125
 30
0.0
  0
SEQEND
  5
3C5
330
3C2
100
AcDbEntity
  8
Ebene 1
370
     0
  0
POLYLINE
  5
3C6
330
3C
100
AcDbEntity
  8
Ebene 1
370
     0
100
AcDb2dPolyline
 66
     1
 10
0.0
 20
0.0
 30
0.0
  0
VERTEX
  5
3C7
330
3C6
100
AcDbEntity
  8
Ebene 1
370
     0
100
AcDbVertex
100
AcDb2dVertex
 10
348.912109375
 20
824.3232421875
 30
0.0
  0
VERTEX
  5
3C8
330
3C6
100
AcDbEntity
  8
Ebene 1
370
     0
100
AcDbVertex
100
AcDb2dVertex
 10
348.912109375
 20
811.0439453125
 30
0.0
  0
SEQEND
  5
3C9
330
3C6
100
AcDbEntity
  8
Ebene 1
370
     0
  0
POLYLINE
  5
3CA
330
3C
100
AcDbEntity
  8
Ebene 1
370
     0
100
AcDb2dPolyline
 66
     1
 10
0.0
 20
0.0
 30
0.0
  0
VERTEX
  5
3CB
330
3CA
100
AcDbEntity
  8
Ebene 1
370
     0
100
AcDbVertex
100
AcDb2dVertex
 10
348.912109375
 20
883.97021484375
 30
0.0
  0
VERTEX
  5
3CC
330
3CA
100
AcDbEntity
  8
Ebene 1
370
     0
100
AcDbVertex
100
AcDb2dVertex
 10
348.912109375
 20
944.8525390625
 30
0.0
  0
SEQEND
  5
3CD
330
3CA
100
AcDbEntity
  8
Ebene 1
370
     0
  0
POLYLINE
  5
3CE
330
3C
100
AcDbEntity
  8
Ebene 1
370
     0
100
AcDb2dPolyline
 66
     1
 10
0.0
 20
0.0
 30
0.0
  0
VERTEX
  5
3CF
330
3CE
100
AcDbEntity
  8
Ebene 1
370
     0
100
AcDbVertex
100
AcDb2dVertex
 10
348.912109375
 20
837.55859375
 30
0.0
  0
VERTEX
  5
3D0
330
3CE
100
AcDbEntity
  8
Ebene 1
370
     0
100
AcDbVertex
100
AcDb2dVertex
 10
348.912109375
 20
870.73486328125
 30
0.0
  0
SEQEND
  5
3D1
330
3CE
100
AcDbEntity
  8
Ebene 1
370
     0
  0
POLYLINE
  5
3D2
330
3C
100
AcDbEntity
  8
Ebene 1
370
     0
100
AcDb2dPolyline
 66
     1
 10
0.0
 20
0.0
 30
0.0
  0
VERTEX
  5
3D3
330
3D2
100
AcDbEntity
  8
Ebene 1
370
     0
100
AcDbVertex
100
AcDb2dVertex
 10
346.7060546875
 20
824.3232421875
 30
0.0
  0
VERTEX
  5
3D4
330
3D2
100
AcDbEntity
  8
Ebene 1
370
     0
100
AcDbVertex
100
AcDb2dVertex
 10
351.1171875
 20
824.3232421875
 30
0.0
  0
VERTEX
  5
3D5
330
3D2
100
AcDbEntity
  8
Ebene 1
370
     0
100
AcDbVertex
100
AcDb2dVertex
 10
348.912109375
 20
837.55859375
 30
0.0
  0
VERTEX
  5
3D6
330
3D2
100
AcDbEntity
  8
Ebene 1
370
     0
100
AcDbVertex
100
AcDb2dVertex
 10
346.7060546875
 20
824.3232421875
 30
0.0
  0
SEQEND
  5
3D7
330
3D2
100
AcDbEntity
  8
Ebene 1
370
     0
  0
HATCH
  5
3D8
330
3C
100
AcDbEntity
  8
Ebene 1
 62
   251
420
  6710886
100
AcDbHatch
 10
0.0
 20
0.0
 30
0.0
210
0.0
220
0.0
230
1.0
  2
SOLID
 70
     1
 71
     0
 91
        1
 92
        1
 93
        3
 72
     1
 10
346.7060546875
 20
824.3232421875
 11
351.1171875
 21
824.3232421875
 72
     1
 10
351.1171875
 20
824.3232421875
 11
348.912109375
 21
837.55859375
 72
     1
 10
348.912109375
 20
837.55859375
 11
346.7060546875
 21
824.3232421875
 97
        0
 75
     0
 76
     1
 98
        0
  0
POLYLINE
  5
3D9
330
3C
100
AcDbEntity
  8
Ebene 1
370
     0
100
AcDb2dPolyline
 66
     1
 10
0.0
 20
0.0
 30
0.0
  0
VERTEX
  5
3DA
330
3D9
100
AcDbEntity
  8
Ebene 1
370
     0
100
AcDbVertex
100
AcDb2dVertex
 10
346.7060546875
 20
883.97021484375
 30
0.0
  0
VERTEX
  5
3DB
330
3D9
100
AcDbEntity
  8
Ebene 1
370
     0
100
AcDbVertex
100
AcDb2dVertex
 10
351.1171875
 20
883.97021484375
 30
0.0
  0
VERTEX
  5
3DC
330
3D9
100
AcDbEntity
  8
Ebene 1
370
     0
100
AcDbVertex
100
AcDb2dVertex
 10
348.912109375
 20
870.73486328125
 30
0.0
  0
VERTEX
  5
3DD
330
3D9
100
AcDbEntity
  8
Ebene 1
370
     0
100
AcDbVertex
100
AcDb2dVertex
 10
346.7060546875
 20
883.97021484375
 30
0.0
  0
SEQEND
  5
3DE
330
3D9
100
AcDbEntity
  8
Ebene 1
370
     0
  0
HATCH
  5
3DF
330
3C
100
AcDbEntity
  8
Ebene 1
 62
   251
420
  6710886
100
AcDbHatch
 10
0.0
 20
0.0
 30
0.0
210
0.0
220
0.0
230
1.0
  2
SOLID
 70
     1
 71
     0
 91
        1
 92
        1
 93
        3
 72
     1
 10
346.7060546875
 20
883.97021484375
 11
351.1171875
 21
883.97021484375
 72
     1
 10
351.1171875
 20
883.97021484375
 11
348.912109375
 21
870.73486328125
 72
     1
 10
348.912109375
 20
870.73486328125
 11
346.7060546875
 21
883.97021484375
 97
        0
 75
     0
 76
     1
 98
        0
  0
POLYLINE
  5
3E0
330
3C
100
AcDbEntity
  8
Ebene 1
370
     0
100
AcDb2dPolyline
 66
     1
 10
0.0
 20
0.0
 30
0.0
  0
VERTEX
  5
3E1
330
3E0
100
AcDbEntity
  8
Ebene 1
370
     0
100
AcDbVertex
100
AcDb2dVertex
 10
330.7353515625
 20
902.5439453125
 30
0.0
  0
VERTEX
  5
3E2
330
3E0
100
AcDbEntity
  8
Ebene 1
370
     0
100
AcDbVertex
100
AcDb2dVertex
 10
329.9853515625
 20
903.779296875
 30
0.0
  0
VERTEX
  5
3E3
330
3E0
100
AcDbEntity
  8
Ebene 1
370
     0
100
AcDbVertex
100
AcDb2dVertex
 10
327.69140625
 20
905.587890625
 30
0.0
  0
VERTEX
  5
3E4
330
3E0
100
AcDbEntity
  8
Ebene 1
370
     0
100
AcDbVertex
100
AcDb2dVertex
 10
343.6171875
 20
905.587890625
 30
0.0
  0
SEQEND
  5
3E5
330
3E0
100
AcDbEntity
  8
Ebene 1
370
     0
  0
POLYLINE
  5
3E6
330
3C
100
AcDbEntity
  8
Ebene 1
370
     0
100
AcDb2dPolyline
 66
     1
 10
0.0
 20
0.0
 30
0.0
  0
VERTEX
  5
3E7
330
3E6
100
AcDbEntity
  8
Ebene 1
370
     0
100
AcDbVertex
100
AcDb2dVertex
 10
331.4853515625
 20
913.48486328125
 30
0.0
  0
VERTEX
  5
3E8
330
3E6
100
AcDbEntity
  8
Ebene 1
370
     0
100
AcDbVertex
100
AcDb2dVertex
 10
330.7353515625
 20
913.48486328125
 30
0.0
  0
VERTEX
  5
3E9
330
3E6
100
AcDbEntity
  8
Ebene 1
370
     0
100
AcDbVertex
100
AcDb2dVertex
 10
329.2353515625
 20
914.05859375
 30
0.0
  0
VERTEX
  5
3EA
330
3E6
100
AcDbEntity
  8
Ebene 1
370
     0
100
AcDbVertex
100
AcDb2dVertex
 10
328.4853515625
 20
914.67626953125
 30
0.0
  0
VERTEX
  5
3EB
330
3E6
100
AcDbEntity
  8
Ebene 1
370
     0
100
AcDbVertex
100
AcDb2dVertex
 10
327.69140625
 20
915.91162109375
 30
0.0
  0
VERTEX
  5
3EC
330
3E6
100
AcDbEntity
  8
Ebene 1
370
     0
100
AcDbVertex
100
AcDb2dVertex
 10
327.69140625
 20
918.337890625
 30
0.0
  0
VERTEX
  5
3ED
330
3E6
100
AcDbEntity
  8
Ebene 1
370
     0
100
AcDbVertex
100
AcDb2dVertex
 10
328.4853515625
 20
919.529296875
 30
0.0
  0
VERTEX
  5
3EE
330
3E6
100
AcDbEntity
  8
Ebene 1
370
     0
100
AcDbVertex
100
AcDb2dVertex
 10
329.2353515625
 20
920.14697265625
 30
0.0
  0
VERTEX
  5
3EF
330
3E6
100
AcDbEntity
  8
Ebene 1
370
     0
100
AcDbVertex
100
AcDb2dVertex
 10
330.7353515625
 20
920.7646484375
 30
0.0
  0
VERTEX
  5
3F0
330
3E6
100
AcDbEntity
  8
Ebene 1
370
     0
100
AcDbVertex
100
AcDb2dVertex
 10
332.2353515625
 20
920.7646484375
 30
0.0
  0
VERTEX
  5
3F1
330
3E6
100
AcDbEntity
  8
Ebene 1
370
     0
100
AcDbVertex
100
AcDb2dVertex
 10
333.779296875
 20
920.14697265625
 30
0.0
  0
VERTEX
  5
3F2
330
3E6
100
AcDbEntity
  8
Ebene 1
370
     0
100
AcDbVertex
100
AcDb2dVertex
 10
336.029296875
 20
918.91162109375
 30
0.0
  0
VERTEX
  5
3F3
330
3E6
100
AcDbEntity
  8
Ebene 1
370
     0
100
AcDbVertex
100
AcDb2dVertex
 10
343.6171875
 20
912.8671875
 30
0.0
  0
VERTEX
  5
3F4
330
3E6
100
AcDbEntity
  8
Ebene 1
370
     0
100
AcDbVertex
100
AcDb2dVertex
 10
343.6171875
 20
921.337890625
 30
0.0
  0
SEQEND
  5
3F5
330
3E6
100
AcDbEntity
  8
Ebene 1
370
     0
  0
POLYLINE
  5
3F6
330
3C
100
AcDbEntity
  8
Ebene 1
370
     0
100
AcDb2dPolyline
 66
     1
 10
0.0
 20
0.0
 30
0.0
  0
VERTEX
  5
3F7
330
3F6
100
AcDbEntity
  8
Ebene 1
370
     0
100
AcDbVertex
100
AcDb2dVertex
 10
342.1171875
 20
926.19091796875
 30
0.0
  0
VERTEX
  5
3F8
330
3F6
100
AcDbEntity
  8
Ebene 1
370
     0
100
AcDbVertex
100
AcDb2dVertex
 10
342.8671875
 20
925.5732421875
 30
0.0
  0
VERTEX
  5
3F9
330
3F6
100
AcDbEntity
  8
Ebene 1
370
     0
100
AcDbVertex
100
AcDb2dVertex
 10
343.6171875
 20
926.19091796875
 30
0.0
  0
VERTEX
  5
3FA
330
3F6
100
AcDbEntity
  8
Ebene 1
370
     0
100
AcDbVertex
100
AcDb2dVertex
 10
342.8671875
 20
926.80859375
 30
0.0
  0
VERTEX
  5
3FB
330
3F6
100
AcDbEntity
  8
Ebene 1
370
     0
100
AcDbVertex
100
AcDb2dVertex
 10
342.1171875
 20
926.19091796875
 30
0.0
  0
VERTEX
  5
3FC
330
3F6
100
AcDbEntity
  8
Ebene 1
370
     0
100
AcDbVertex
100
AcDb2dVertex
 10
342.1171875
 20
926.19091796875
 30
0.0
  0
SEQEND
  5
3FD
330
3F6
100
AcDbEntity
  8
Ebene 1
370
     0
  0
POLYLINE
  5
3FE
330
3C
100
AcDbEntity
  8
Ebene 1
370
     0
100
AcDb2dPolyline
 66
     1
 10
0.0
 20
0.0
 30
0.0
  0
VERTEX
  5
3FF
330
3FE
100
AcDbEntity
  8
Ebene 1
370
     0
100
AcDbVertex
100
AcDb2dVertex
 10
-158.0
 20
-296.0439453125
 30
0.0
  0
VERTEX
  5
400
330
3FE
100
AcDbEntity
  8
Ebene 1
370
     0
100
AcDbVertex
100
AcDb2dVertex
 10
-158.0
 20
-296.0439453125
 30
0.0
  0
SEQEND
  5
401
330
3FE
100
AcDbEntity
  8
Ebene 1
370
     0
  0
POLYLINE
  5
402
330
3C
100
AcDbEntity
  8
Ebene 1
370
     0
100
AcDb2dPolyline
 66
     1
 10
0.0
 20
0.0
 30
0.0
  0
VERTEX
  5
403
330
402
100
AcDbEntity
  8
Ebene 1
370
     0
100
AcDbVertex
100
AcDb2dVertex
 10
-158.0
 20
-296.0439453125
 30
0.0
  0
VERTEX
  5
404
330
402
100
AcDbEntity
  8
Ebene 1
370
     0
100
AcDbVertex
100
AcDb2dVertex
 10
-158.0
 20
-296.0439453125
 30
0.0
  0
SEQEND
  5
405
330
402
100
AcDbEntity
  8
Ebene 1
370
     0
  0
POLYLINE
  5
406
330
3C
100
AcDbEntity
  8
Ebene 1
370
     0
100
AcDb2dPolyline
 66
     1
 10
0.0
 20
0.0
 30
0.0
  0
VERTEX
  5
407
330
406
100
AcDbEntity
  8
Ebene 1
370
     0
100
AcDbVertex
100
AcDb2dVertex
 10
-158.0
 20
-296.0439453125
 30
0.0
  0
VERTEX
  5
408
330
406
100
AcDbEntity
  8
Ebene 1
370
     0
100
AcDbVertex
100
AcDb2dVertex
 10
-158.0
 20
-296.0439453125
 30
0.0
  0
SEQEND
  5
409
330
406
100
AcDbEntity
  8
Ebene 1
370
     0
  0
POLYLINE
  5
40A
330
3C
100
AcDbEntity
  8
Ebene 1
370
     0
100
AcDb2dPolyline
 66
     1
 10
0.0
 20
0.0
 30
0.0
  0
VERTEX
  5
40B
330
40A
100
AcDbEntity
  8
Ebene 1
370
     0
100
AcDbVertex
100
AcDb2dVertex
 10
327.69140625
 20
938.3232421875
 30
0.0
  0
VERTEX
  5
40C
330
40A
100
AcDbEntity
  8
Ebene 1
370
     0
100
AcDbVertex
100
AcDb2dVertex
 10
327.69140625
 20
932.279296875
 30
0.0
  0
VERTEX
  5
40D
330
40A
100
AcDbEntity
  8
Ebene 1
370
     0
100
AcDbVertex
100
AcDb2dVertex
 10
334.529296875
 20
931.66162109375
 30
0.0
  0
VERTEX
  5
40E
330
40A
100
AcDbEntity
  8
Ebene 1
370
     0
100
AcDbVertex
100
AcDb2dVertex
 10
333.779296875
 20
932.279296875
 30
0.0
  0
VERTEX
  5
40F
330
40A
100
AcDbEntity
  8
Ebene 1
370
     0
100
AcDbVertex
100
AcDb2dVertex
 10
333.029296875
 20
934.087890625
 30
0.0
  0
VERTEX
  5
410
330
40A
100
AcDbEntity
  8
Ebene 1
370
     0
100
AcDbVertex
100
AcDb2dVertex
 10
333.029296875
 20
935.89697265625
 30
0.0
  0
VERTEX
  5
411
330
40A
100
AcDbEntity
  8
Ebene 1
370
     0
100
AcDbVertex
100
AcDb2dVertex
 10
333.779296875
 20
937.70556640625
 30
0.0
  0
VERTEX
  5
412
330
40A
100
AcDbEntity
  8
Ebene 1
370
     0
100
AcDbVertex
100
AcDb2dVertex
 10
335.279296875
 20
938.94091796875
 30
0.0
  0
VERTEX
  5
413
330
40A
100
AcDbEntity
  8
Ebene 1
370
     0
100
AcDbVertex
100
AcDb2dVertex
 10
337.57421875
 20
939.5146484375
 30
0.0
  0
VERTEX
  5
414
330
40A
100
AcDbEntity
  8
Ebene 1
370
     0
100
AcDbVertex
100
AcDb2dVertex
 10
339.07421875
 20
939.5146484375
 30
0.0
  0
VERTEX
  5
415
330
40A
100
AcDbEntity
  8
Ebene 1
370
     0
100
AcDbVertex
100
AcDb2dVertex
 10
341.32421875
 20
938.94091796875
 30
0.0
  0
VERTEX
  5
416
330
40A
100
AcDbEntity
  8
Ebene 1
370
     0
100
AcDbVertex
100
AcDb2dVertex
 10
342.8671875
 20
937.70556640625
 30
0.0
  0
VERTEX
  5
417
330
40A
100
AcDbEntity
  8
Ebene 1
370
     0
100
AcDbVertex
100
AcDb2dVertex
 10
343.6171875
 20
935.89697265625
 30
0.0
  0
VERTEX
  5
418
330
40A
100
AcDbEntity
  8
Ebene 1
370
     0
100
AcDbVertex
100
AcDb2dVertex
 10
343.6171875
 20
934.087890625
 30
0.0
  0
VERTEX
  5
419
330
40A
100
AcDbEntity
  8
Ebene 1
370
     0
100
AcDbVertex
100
AcDb2dVertex
 10
342.8671875
 20
932.279296875
 30
0.0
  0
VERTEX
  5
41A
330
40A
100
AcDbEntity
  8
Ebene 1
370
     0
100
AcDbVertex
100
AcDb2dVertex
 10
342.1171875
 20
931.66162109375
 30
0.0
  0
VERTEX
  5
41B
330
40A
100
AcDbEntity
  8
Ebene 1
370
     0
100
AcDbVertex
100
AcDb2dVertex
 10
340.57421875
 20
931.0439453125
 30
0.0
  0
SEQEND
  5
41C
330
40A
100
AcDbEntity
  8
Ebene 1
370
     0
  0
POLYLINE
  5
41D
330
3C
100
AcDbEntity
  8
Ebene 1
370
     0
100
AcDb2dPolyline
 66
     1
 10
0.0
 20
0.0
 30
0.0
  0
VERTEX
  5
41E
330
41D
100
AcDbEntity
  8
Ebene 1
370
     0
100
AcDbVertex
100
AcDb2dVertex
 10
459.82421875
 20
886.66162109375
 30
0.0
  0
VERTEX
  5
41F
330
41D
100
AcDbEntity
  8
Ebene 1
370
     0
100
AcDbVertex
100
AcDb2dVertex
 10
530.103515625
 20
886.66162109375
 30
0.0
  0
SEQEND
  5
420
330
41D
100
AcDbEntity
  8
Ebene 1
370
     0
  0
POLYLINE
  5
421
330
3C
100
AcDbEntity
  8
Ebene 1
370
     0
100
AcDb2dPolyline
 66
     1
 10
0.0
 20
0.0
 30
0.0
  0
VERTEX
  5
422
330
421
100
AcDbEntity
  8
Ebene 1
370
     0
100
AcDbVertex
100
AcDb2dVertex
 10
488.9853515625
 20
784.529296875
 30
0.0
  0
VERTEX
  5
423
330
421
100
AcDbEntity
  8
Ebene 1
370
     0
100
AcDbVertex
100
AcDb2dVertex
 10
530.103515625
 20
784.529296875
 30
0.0
  0
SEQEND
  5
424
330
421
100
AcDbEntity
  8
Ebene 1
370
     0
  0
POLYLINE
  5
425
330
3C
100
AcDbEntity
  8
Ebene 1
370
     0
100
AcDb2dPolyline
 66
     1
 10
0.0
 20
0.0
 30
0.0
  0
VERTEX
  5
426
330
425
100
AcDbEntity
  8
Ebene 1
370
     0
100
AcDbVertex
100
AcDb2dVertex
 10
519.5146484375
 20
873.38232421875
 30
0.0
  0
VERTEX
  5
427
330
425
100
AcDbEntity
  8
Ebene 1
370
     0
100
AcDbVertex
100
AcDb2dVertex
 10
519.5146484375
 20
797.80859375
 30
0.0
  0
SEQEND
  5
428
330
425
100
AcDbEntity
  8
Ebene 1
370
     0
  0
POLYLINE
  5
429
330
3C
100
AcDbEntity
  8
Ebene 1
370
     0
100
AcDb2dPolyline
 66
     1
 10
0.0
 20
0.0
 30
0.0
  0
VERTEX
  5
42A
330
429
100
AcDbEntity
  8
Ebene 1
370
     0
100
AcDbVertex
100
AcDb2dVertex
 10
517.30859375
 20
873.38232421875
 30
0.0
  0
VERTEX
  5
42B
330
429
100
AcDbEntity
  8
Ebene 1
370
     0
100
AcDbVertex
100
AcDb2dVertex
 10
521.720703125
 20
873.38232421875
 30
0.0
  0
VERTEX
  5
42C
330
429
100
AcDbEntity
  8
Ebene 1
370
     0
100
AcDbVertex
100
AcDb2dVertex
 10
519.5146484375
 20
886.66162109375
 30
0.0
  0
VERTEX
  5
42D
330
429
100
AcDbEntity
  8
Ebene 1
370
     0
100
AcDbVertex
100
AcDb2dVertex
 10
517.30859375
 20
873.38232421875
 30
0.0
  0
SEQEND
  5
42E
330
429
100
AcDbEntity
  8
Ebene 1
370
     0
  0
HATCH
  5
42F
330
3C
100
AcDbEntity
  8
Ebene 1
 62
   251
420
  6710886
100
AcDbHatch
 10
0.0
 20
0.0
 30
0.0
210
0.0
220
0.0
230
1.0
  2
SOLID
 70
     1
 71
     0
 91
        1
 92
        1
 93
        3
 72
     1
 10
517.30859375
 20
873.38232421875
 11
521.720703125
 21
873.38232421875
 72
     1
 10
521.720703125
 20
873.38232421875
 11
519.5146484375
 21
886.66162109375
 72
     1
 10
519.5146484375
 20
886.66162109375
 11
517.30859375
 21
873.38232421875
 97
        0
 75
     0
 76
     1
 98
        0
  0
POLYLINE
  5
430
330
3C
100
AcDbEntity
  8
Ebene 1
370
     0
100
AcDb2dPolyline
 66
     1
 10
0.0
 20
0.0
 30
0.0
  0
VERTEX
  5
431
330
430
100
AcDbEntity
  8
Ebene 1
370
     0
100
AcDbVertex
100
AcDb2dVertex
 10
517.30859375
 20
797.80859375
 30
0.0
  0
VERTEX
  5
432
330
430
100
AcDbEntity
  8
Ebene 1
370
     0
100
AcDbVertex
100
AcDb2dVertex
 10
521.720703125
 20
797.80859375
 30
0.0
  0
VERTEX
  5
433
330
430
100
AcDbEntity
  8
Ebene 1
370
     0
100
AcDbVertex
100
AcDb2dVertex
 10
519.5146484375
 20
784.529296875
 30
0.0
  0
VERTEX
  5
434
330
430
100
AcDbEntity
  8
Ebene 1
370
     0
100
AcDbVertex
100
AcDb2dVertex
 10
517.30859375
 20
797.80859375
 30
0.0
  0
SEQEND
  5
435
330
430
100
AcDbEntity
  8
Ebene 1
370
     0
  0
HATCH
  5
436
330
3C
100
AcDbEntity
  8
Ebene 1
 62
   251
420
  6710886
100
AcDbHatch
 10
0.0
 20
0.0
 30
0.0
210
0.0
220
0.0
230
1.0
  2
SOLID
 70
     1
 71
     0
 91
        1
 92
        1
 93
        3
 72
     1
 10
517.30859375
 20
797.80859375
 11
521.720703125
 21
797.80859375
 72
     1
 10
521.720703125
 20
797.80859375
 11
519.5146484375
 21
784.529296875
 72
     1
 10
519.5146484375
 20
784.529296875
 11
517.30859375
 21
797.80859375
 97
        0
 75
     0
 76
     1
 98
        0
  0
POLYLINE
  5
437
330
3C
100
AcDbEntity
  8
Ebene 1
370
     0
100
AcDb2dPolyline
 66
     1
 10
0.0
 20
0.0
 30
0.0
  0
VERTEX
  5
438
330
437
100
AcDbEntity
  8
Ebene 1
370
     0
100
AcDbVertex
100
AcDb2dVertex
 10
498.2939453125
 20
817.396484375
 30
0.0
  0
VERTEX
  5
439
330
437
100
AcDbEntity
  8
Ebene 1
370
     0
100
AcDbVertex
100
AcDb2dVertex
 10
498.2939453125
 20
824.05859375
 30
0.0
  0
VERTEX
  5
43A
330
437
100
AcDbEntity
  8
Ebene 1
370
     0
100
AcDbVertex
100
AcDb2dVertex
 10
504.3828125
 20
820.44140625
 30
0.0
  0
VERTEX
  5
43B
330
437
100
AcDbEntity
  8
Ebene 1
370
     0
100
AcDbVertex
100
AcDb2dVertex
 10
504.3828125
 20
822.25
 30
0.0
  0
VERTEX
  5
43C
330
437
100
AcDbEntity
  8
Ebene 1
370
     0
100
AcDbVertex
100
AcDb2dVertex
 10
505.1328125
 20
823.44140625
 30
0.0
  0
VERTEX
  5
43D
330
437
100
AcDbEntity
  8
Ebene 1
370
     0
100
AcDbVertex
100
AcDb2dVertex
 10
505.8828125
 20
824.05859375
 30
0.0
  0
VERTEX
  5
43E
330
437
100
AcDbEntity
  8
Ebene 1
370
     0
100
AcDbVertex
100
AcDb2dVertex
 10
508.1328125
 20
824.67578125
 30
0.0
  0
VERTEX
  5
43F
330
437
100
AcDbEntity
  8
Ebene 1
370
     0
100
AcDbVertex
100
AcDb2dVertex
 10
509.67578125
 20
824.67578125
 30
0.0
  0
VERTEX
  5
440
330
437
100
AcDbEntity
  8
Ebene 1
370
     0
100
AcDbVertex
100
AcDb2dVertex
 10
511.92578125
 20
824.05859375
 30
0.0
  0
VERTEX
  5
441
330
437
100
AcDbEntity
  8
Ebene 1
370
     0
100
AcDbVertex
100
AcDb2dVertex
 10
513.470703125
 20
822.8671875
 30
0.0
  0
VERTEX
  5
442
330
437
100
AcDbEntity
  8
Ebene 1
370
     0
100
AcDbVertex
100
AcDb2dVertex
 10
514.220703125
 20
821.0146484375
 30
0.0
  0
VERTEX
  5
443
330
437
100
AcDbEntity
  8
Ebene 1
370
     0
100
AcDbVertex
100
AcDb2dVertex
 10
514.220703125
 20
819.2060546875
 30
0.0
  0
VERTEX
  5
444
330
437
100
AcDbEntity
  8
Ebene 1
370
     0
100
AcDbVertex
100
AcDb2dVertex
 10
513.470703125
 20
817.396484375
 30
0.0
  0
VERTEX
  5
445
330
437
100
AcDbEntity
  8
Ebene 1
370
     0
100
AcDbVertex
100
AcDb2dVertex
 10
512.67578125
 20
816.779296875
 30
0.0
  0
VERTEX
  5
446
330
437
100
AcDbEntity
  8
Ebene 1
370
     0
100
AcDbVertex
100
AcDb2dVertex
 10
511.17578125
 20
816.2060546875
 30
0.0
  0
SEQEND
  5
447
330
437
100
AcDbEntity
  8
Ebene 1
370
     0
  0
POLYLINE
  5
448
330
3C
100
AcDbEntity
  8
Ebene 1
370
     0
100
AcDb2dPolyline
 66
     1
 10
0.0
 20
0.0
 30
0.0
  0
VERTEX
  5
449
330
448
100
AcDbEntity
  8
Ebene 1
370
     0
100
AcDbVertex
100
AcDb2dVertex
 10
498.2939453125
 20
831.337890625
 30
0.0
  0
VERTEX
  5
44A
330
448
100
AcDbEntity
  8
Ebene 1
370
     0
100
AcDbVertex
100
AcDb2dVertex
 10
499.0439453125
 20
829.529296875
 30
0.0
  0
VERTEX
  5
44B
330
448
100
AcDbEntity
  8
Ebene 1
370
     0
100
AcDbVertex
100
AcDb2dVertex
 10
500.587890625
 20
828.9111328125
 30
0.0
  0
VERTEX
  5
44C
330
448
100
AcDbEntity
  8
Ebene 1
370
     0
100
AcDbVertex
100
AcDb2dVertex
 10
502.087890625
 20
828.9111328125
 30
0.0
  0
VERTEX
  5
44D
330
448
100
AcDbEntity
  8
Ebene 1
370
     0
100
AcDbVertex
100
AcDb2dVertex
 10
503.587890625
 20
829.529296875
 30
0.0
  0
VERTEX
  5
44E
330
448
100
AcDbEntity
  8
Ebene 1
370
     0
100
AcDbVertex
100
AcDb2dVertex
 10
504.3828125
 20
830.720703125
 30
0.0
  0
VERTEX
  5
44F
330
448
100
AcDbEntity
  8
Ebene 1
370
     0
100
AcDbVertex
100
AcDb2dVertex
 10
505.1328125
 20
833.146484375
 30
0.0
  0
VERTEX
  5
450
330
448
100
AcDbEntity
  8
Ebene 1
370
     0
100
AcDbVertex
100
AcDb2dVertex
 10
505.8828125
 20
835.0
 30
0.0
  0
VERTEX
  5
451
330
448
100
AcDbEntity
  8
Ebene 1
370
     0
100
AcDbVertex
100
AcDb2dVertex
 10
507.3828125
 20
836.19091796875
 30
0.0
  0
VERTEX
  5
452
330
448
100
AcDbEntity
  8
Ebene 1
370
     0
100
AcDbVertex
100
AcDb2dVertex
 10
508.92578125
 20
836.80859375
 30
0.0
  0
VERTEX
  5
453
330
448
100
AcDbEntity
  8
Ebene 1
370
     0
100
AcDbVertex
100
AcDb2dVertex
 10
511.17578125
 20
836.80859375
 30
0.0
  0
VERTEX
  5
454
330
448
100
AcDbEntity
  8
Ebene 1
370
     0
100
AcDbVertex
100
AcDb2dVertex
 10
512.67578125
 20
836.19091796875
 30
0.0
  0
VERTEX
  5
455
330
448
100
AcDbEntity
  8
Ebene 1
370
     0
100
AcDbVertex
100
AcDb2dVertex
 10
513.470703125
 20
835.5732421875
 30
0.0
  0
VERTEX
  5
456
330
448
100
AcDbEntity
  8
Ebene 1
370
     0
100
AcDbVertex
100
AcDb2dVertex
 10
514.220703125
 20
833.7646484375
 30
0.0
  0
VERTEX
  5
457
330
448
100
AcDbEntity
  8
Ebene 1
370
     0
100
AcDbVertex
100
AcDb2dVertex
 10
514.220703125
 20
831.337890625
 30
0.0
  0
VERTEX
  5
458
330
448
100
AcDbEntity
  8
Ebene 1
370
     0
100
AcDbVertex
100
AcDb2dVertex
 10
513.470703125
 20
829.529296875
 30
0.0
  0
VERTEX
  5
459
330
448
100
AcDbEntity
  8
Ebene 1
370
     0
100
AcDbVertex
100
AcDb2dVertex
 10
512.67578125
 20
828.9111328125
 30
0.0
  0
VERTEX
  5
45A
330
448
100
AcDbEntity
  8
Ebene 1
370
     0
100
AcDbVertex
100
AcDb2dVertex
 10
511.17578125
 20
828.2939453125
 30
0.0
  0
VERTEX
  5
45B
330
448
100
AcDbEntity
  8
Ebene 1
370
     0
100
AcDbVertex
100
AcDb2dVertex
 10
508.92578125
 20
828.2939453125
 30
0.0
  0
VERTEX
  5
45C
330
448
100
AcDbEntity
  8
Ebene 1
370
     0
100
AcDbVertex
100
AcDb2dVertex
 10
507.3828125
 20
828.9111328125
 30
0.0
  0
VERTEX
  5
45D
330
448
100
AcDbEntity
  8
Ebene 1
370
     0
100
AcDbVertex
100
AcDb2dVertex
 10
505.8828125
 20
830.146484375
 30
0.0
  0
VERTEX
  5
45E
330
448
100
AcDbEntity
  8
Ebene 1
370
     0
100
AcDbVertex
100
AcDb2dVertex
 10
505.1328125
 20
831.9560546875
 30
0.0
  0
VERTEX
  5
45F
330
448
100
AcDbEntity
  8
Ebene 1
370
     0
100
AcDbVertex
100
AcDb2dVertex
 10
504.3828125
 20
834.3818359375
 30
0.0
  0
VERTEX
  5
460
330
448
100
AcDbEntity
  8
Ebene 1
370
     0
100
AcDbVertex
100
AcDb2dVertex
 10
503.587890625
 20
835.5732421875
 30
0.0
  0
VERTEX
  5
461
330
448
100
AcDbEntity
  8
Ebene 1
370
     0
100
AcDbVertex
100
AcDb2dVertex
 10
502.087890625
 20
836.19091796875
 30
0.0
  0
VERTEX
  5
462
330
448
100
AcDbEntity
  8
Ebene 1
370
     0
100
AcDbVertex
100
AcDb2dVertex
 10
500.587890625
 20
836.19091796875
 30
0.0
  0
VERTEX
  5
463
330
448
100
AcDbEntity
  8
Ebene 1
370
     0
100
AcDbVertex
100
AcDb2dVertex
 10
499.0439453125
 20
835.5732421875
 30
0.0
  0
VERTEX
  5
464
330
448
100
AcDbEntity
  8
Ebene 1
370
     0
100
AcDbVertex
100
AcDb2dVertex
 10
498.2939453125
 20
833.7646484375
 30
0.0
  0
VERTEX
  5
465
330
448
100
AcDbEntity
  8
Ebene 1
370
     0
100
AcDbVertex
100
AcDb2dVertex
 10
498.2939453125
 20
831.337890625
 30
0.0
  0
VERTEX
  5
466
330
448
100
AcDbEntity
  8
Ebene 1
370
     0
100
AcDbVertex
100
AcDb2dVertex
 10
498.2939453125
 20
831.337890625
 30
0.0
  0
SEQEND
  5
467
330
448
100
AcDbEntity
  8
Ebene 1
370
     0
  0
POLYLINE
  5
468
330
3C
100
AcDbEntity
  8
Ebene 1
370
     0
100
AcDb2dPolyline
 66
     1
 10
0.0
 20
0.0
 30
0.0
  0
VERTEX
  5
469
330
468
100
AcDbEntity
  8
Ebene 1
370
     0
100
AcDbVertex
100
AcDb2dVertex
 10
512.67578125
 20
841.66162109375
 30
0.0
  0
VERTEX
  5
46A
330
468
100
AcDbEntity
  8
Ebene 1
370
     0
100
AcDbVertex
100
AcDb2dVertex
 10
513.470703125
 20
841.0439453125
 30
0.0
  0
VERTEX
  5
46B
330
468
100
AcDbEntity
  8
Ebene 1
370
     0
100
AcDbVertex
100
AcDb2dVertex
 10
514.220703125
 20
841.66162109375
 30
0.0
  0
VERTEX
  5
46C
330
468
100
AcDbEntity
  8
Ebene 1
370
     0
100
AcDbVertex
100
AcDb2dVertex
 10
513.470703125
 20
842.23486328125
 30
0.0
  0
VERTEX
  5
46D
330
468
100
AcDbEntity
  8
Ebene 1
370
     0
100
AcDbVertex
100
AcDb2dVertex
 10
512.67578125
 20
841.66162109375
 30
0.0
  0
VERTEX
  5
46E
330
468
100
AcDbEntity
  8
Ebene 1
370
     0
100
AcDbVertex
100
AcDb2dVertex
 10
512.67578125
 20
841.66162109375
 30
0.0
  0
SEQEND
  5
46F
330
468
100
AcDbEntity
  8
Ebene 1
370
     0
  0
POLYLINE
  5
470
330
3C
100
AcDbEntity
  8
Ebene 1
370
     0
100
AcDb2dPolyline
 66
     1
 10
0.0
 20
0.0
 30
0.0
  0
VERTEX
  5
471
330
470
100
AcDbEntity
  8
Ebene 1
370
     0
100
AcDbVertex
100
AcDb2dVertex
 10
-158.0
 20
-296.0439453125
 30
0.0
  0
VERTEX
  5
472
330
470
100
AcDbEntity
  8
Ebene 1
370
     0
100
AcDbVertex
100
AcDb2dVertex
 10
-158.0
 20
-296.0439453125
 30
0.0
  0
SEQEND
  5
473
330
470
100
AcDbEntity
  8
Ebene 1
370
     0
  0
POLYLINE
  5
474
330
3C
100
AcDbEntity
  8
Ebene 1
370
     0
100
AcDb2dPolyline
 66
     1
 10
0.0
 20
0.0
 30
0.0
  0
VERTEX
  5
475
330
474
100
AcDbEntity
  8
Ebene 1
370
     0
100
AcDbVertex
100
AcDb2dVertex
 10
-158.0
 20
-296.0439453125
 30
0.0
  0
VERTEX
  5
476
330
474
100
AcDbEntity
  8
Ebene 1
370
     0
100
AcDbVertex
100
AcDb2dVertex
 10
-158.0
 20
-296.0439453125
 30
0.0
  0
SEQEND
  5
477
330
474
100
AcDbEntity
  8
Ebene 1
370
     0
  0
POLYLINE
  5
478
330
3C
100
AcDbEntity
  8
Ebene 1
370
     0
100
AcDb2dPolyline
 66
     1
 10
0.0
 20
0.0
 30
0.0
  0
VERTEX
  5
479
330
478
100
AcDbEntity
  8
Ebene 1
370
     0
100
AcDbVertex
100
AcDb2dVertex
 10
-158.0
 20
-296.0439453125
 30
0.0
  0
VERTEX
  5
47A
330
478
100
AcDbEntity
  8
Ebene 1
370
     0
100
AcDbVertex
100
AcDb2dVertex
 10
-158.0
 20
-296.0439453125
 30
0.0
  0
SEQEND
  5
47B
330
478
100
AcDbEntity
  8
Ebene 1
370
     0
  0
POLYLINE
  5
47C
330
3C
100
AcDbEntity
  8
Ebene 1
370
     0
100
AcDb2dPolyline
 66
     1
 10
0.0
 20
0.0
 30
0.0
  0
VERTEX
  5
47D
330
47C
100
AcDbEntity
  8
Ebene 1
370
     0
100
AcDbVertex
100
AcDb2dVertex
 10
498.2939453125
 20
853.75
 30
0.0
  0
VERTEX
  5
47E
330
47C
100
AcDbEntity
  8
Ebene 1
370
     0
100
AcDbVertex
100
AcDb2dVertex
 10
498.2939453125
 20
847.70556640625
 30
0.0
  0
VERTEX
  5
47F
330
47C
100
AcDbEntity
  8
Ebene 1
370
     0
100
AcDbVertex
100
AcDb2dVertex
 10
505.1328125
 20
847.087890625
 30
0.0
  0
VERTEX
  5
480
330
47C
100
AcDbEntity
  8
Ebene 1
370
     0
100
AcDbVertex
100
AcDb2dVertex
 10
504.3828125
 20
847.70556640625
 30
0.0
  0
VERTEX
  5
481
330
47C
100
AcDbEntity
  8
Ebene 1
370
     0
100
AcDbVertex
100
AcDb2dVertex
 10
503.587890625
 20
849.5146484375
 30
0.0
  0
VERTEX
  5
482
330
47C
100
AcDbEntity
  8
Ebene 1
370
     0
100
AcDbVertex
100
AcDb2dVertex
 10
503.587890625
 20
851.3671875
 30
0.0
  0
VERTEX
  5
483
330
47C
100
AcDbEntity
  8
Ebene 1
370
     0
100
AcDbVertex
100
AcDb2dVertex
 10
504.3828125
 20
853.17626953125
 30
0.0
  0
VERTEX
  5
484
330
47C
100
AcDbEntity
  8
Ebene 1
370
     0
100
AcDbVertex
100
AcDb2dVertex
 10
505.8828125
 20
854.3671875
 30
0.0
  0
VERTEX
  5
485
330
47C
100
AcDbEntity
  8
Ebene 1
370
     0
100
AcDbVertex
100
AcDb2dVertex
 10
508.1328125
 20
854.98486328125
 30
0.0
  0
VERTEX
  5
486
330
47C
100
AcDbEntity
  8
Ebene 1
370
     0
100
AcDbVertex
100
AcDb2dVertex
 10
509.67578125
 20
854.98486328125
 30
0.0
  0
VERTEX
  5
487
330
47C
100
AcDbEntity
  8
Ebene 1
370
     0
100
AcDbVertex
100
AcDb2dVertex
 10
511.92578125
 20
854.3671875
 30
0.0
  0
VERTEX
  5
488
330
47C
100
AcDbEntity
  8
Ebene 1
370
     0
100
AcDbVertex
100
AcDb2dVertex
 10
513.470703125
 20
853.17626953125
 30
0.0
  0
VERTEX
  5
489
330
47C
100
AcDbEntity
  8
Ebene 1
370
     0
100
AcDbVertex
100
AcDb2dVertex
 10
514.220703125
 20
851.3671875
 30
0.0
  0
VERTEX
  5
48A
330
47C
100
AcDbEntity
  8
Ebene 1
370
     0
100
AcDbVertex
100
AcDb2dVertex
 10
514.220703125
 20
849.5146484375
 30
0.0
  0
VERTEX
  5
48B
330
47C
100
AcDbEntity
  8
Ebene 1
370
     0
100
AcDbVertex
100
AcDb2dVertex
 10
513.470703125
 20
847.70556640625
 30
0.0
  0
VERTEX
  5
48C
330
47C
100
AcDbEntity
  8
Ebene 1
370
     0
100
AcDbVertex
100
AcDb2dVertex
 10
512.67578125
 20
847.087890625
 30
0.0
  0
VERTEX
  5
48D
330
47C
100
AcDbEntity
  8
Ebene 1
370
     0
100
AcDbVertex
100
AcDb2dVertex
 10
511.17578125
 20
846.5146484375
 30
0.0
  0
SEQEND
  5
48E
330
47C
100
AcDbEntity
  8
Ebene 1
370
     0
  0
POLYLINE
  5
48F
330
3C
100
AcDbEntity
  8
Ebene 1
370
     0
100
AcDb2dPolyline
 66
     1
 10
0.0
 20
0.0
 30
0.0
  0
VERTEX
  5
490
330
48F
100
AcDbEntity
  8
Ebene 1
370
     0
100
AcDbVertex
100
AcDb2dVertex
 10
380.32421875
 20
889.30859375
 30
0.0
  0
VERTEX
  5
491
330
48F
100
AcDbEntity
  8
Ebene 1
370
     0
100
AcDbVertex
100
AcDb2dVertex
 10
380.32421875
 20
964.48486328125
 30
0.0
  0
SEQEND
  5
492
330
48F
100
AcDbEntity
  8
Ebene 1
370
     0
  0
POLYLINE
  5
493
330
3C
100
AcDbEntity
  8
Ebene 1
370
     0
100
AcDb2dPolyline
 66
     1
 10
0.0
 20
0.0
 30
0.0
  0
VERTEX
  5
494
330
493
100
AcDbEntity
  8
Ebene 1
370
     0
100
AcDbVertex
100
AcDb2dVertex
 10
483.69140625
 20
856.13232421875
 30
0.0
  0
VERTEX
  5
495
330
493
100
AcDbEntity
  8
Ebene 1
370
     0
100
AcDbVertex
100
AcDb2dVertex
 10
483.69140625
 20
964.48486328125
 30
0.0
  0
SEQEND
  5
496
330
493
100
AcDbEntity
  8
Ebene 1
370
     0
  0
POLYLINE
  5
497
330
3C
100
AcDbEntity
  8
Ebene 1
370
     0
100
AcDb2dPolyline
 66
     1
 10
0.0
 20
0.0
 30
0.0
  0
VERTEX
  5
498
330
497
100
AcDbEntity
  8
Ebene 1
370
     0
100
AcDbVertex
100
AcDb2dVertex
 10
393.55859375
 20
953.8525390625
 30
0.0
  0
VERTEX
  5
499
330
497
100
AcDbEntity
  8
Ebene 1
370
     0
100
AcDbVertex
100
AcDb2dVertex
 10
470.4560546875
 20
953.8525390625
 30
0.0
  0
SEQEND
  5
49A
330
497
100
AcDbEntity
  8
Ebene 1
370
     0
  0
POLYLINE
  5
49B
330
3C
100
AcDbEntity
  8
Ebene 1
370
     0
100
AcDb2dPolyline
 66
     1
 10
0.0
 20
0.0
 30
0.0
  0
VERTEX
  5
49C
330
49B
100
AcDbEntity
  8
Ebene 1
370
     0
100
AcDbVertex
100
AcDb2dVertex
 10
393.55859375
 20
956.05859375
 30
0.0
  0
VERTEX
  5
49D
330
49B
100
AcDbEntity
  8
Ebene 1
370
     0
100
AcDbVertex
100
AcDb2dVertex
 10
393.55859375
 20
951.64697265625
 30
0.0
  0
VERTEX
  5
49E
330
49B
100
AcDbEntity
  8
Ebene 1
370
     0
100
AcDbVertex
100
AcDb2dVertex
 10
380.32421875
 20
953.8525390625
 30
0.0
  0
VERTEX
  5
49F
330
49B
100
AcDbEntity
  8
Ebene 1
370
     0
100
AcDbVertex
100
AcDb2dVertex
 10
393.55859375
 20
956.05859375
 30
0.0
  0
SEQEND
  5
4A0
330
49B
100
AcDbEntity
  8
Ebene 1
370
     0
  0
HATCH
  5
4A1
330
3C
100
AcDbEntity
  8
Ebene 1
 62
   251
420
  6710886
100
AcDbHatch
 10
0.0
 20
0.0
 30
0.0
210
0.0
220
0.0
230
1.0
  2
SOLID
 70
     1
 71
     0
 91
        1
 92
        1
 93
        3
 72
     1
 10
393.55859375
 20
956.05859375
 11
393.55859375
 21
951.64697265625
 72
     1
 10
393.55859375
 20
951.64697265625
 11
380.32421875
 21
953.8525390625
 72
     1
 10
380.32421875
 20
953.8525390625
 11
393.55859375
 21
956.05859375
 97
        0
 75
     0
 76
     1
 98
        0
  0
POLYLINE
  5
4A2
330
3C
100
AcDbEntity
  8
Ebene 1
370
     0
100
AcDb2dPolyline
 66
     1
 10
0.0
 20
0.0
 30
0.0
  0
VERTEX
  5
4A3
330
4A2
100
AcDbEntity
  8
Ebene 1
370
     0
100
AcDbVertex
100
AcDb2dVertex
 10
470.4560546875
 20
956.05859375
 30
0.0
  0
VERTEX
  5
4A4
330
4A2
100
AcDbEntity
  8
Ebene 1
370
     0
100
AcDbVertex
100
AcDb2dVertex
 10
470.4560546875
 20
951.64697265625
 30
0.0
  0
VERTEX
  5
4A5
330
4A2
100
AcDbEntity
  8
Ebene 1
370
     0
100
AcDbVertex
100
AcDb2dVertex
 10
483.69140625
 20
953.8525390625
 30
0.0
  0
VERTEX
  5
4A6
330
4A2
100
AcDbEntity
  8
Ebene 1
370
     0
100
AcDbVertex
100
AcDb2dVertex
 10
470.4560546875
 20
956.05859375
 30
0.0
  0
SEQEND
  5
4A7
330
4A2
100
AcDbEntity
  8
Ebene 1
370
     0
  0
HATCH
  5
4A8
330
3C
100
AcDbEntity
  8
Ebene 1
 62
   251
420
  6710886
100
AcDbHatch
 10
0.0
 20
0.0
 30
0.0
210
0.0
220
0.0
230
1.0
  2
SOLID
 70
     1
 71
     0
 91
        1
 92
        1
 93
        3
 72
     1
 10
470.4560546875
 20
956.05859375
 11
470.4560546875
 21
951.64697265625
 72
     1
 10
470.4560546875
 20
951.64697265625
 11
483.69140625
 21
953.8525390625
 72
     1
 10
483.69140625
 20
953.8525390625
 11
470.4560546875
 21
956.05859375
 97
        0
 75
     0
 76
     1
 98
        0
  0
POLYLINE
  5
4A9
330
3C
100
AcDbEntity
  8
Ebene 1
370
     0
100
AcDb2dPolyline
 66
     1
 10
0.0
 20
0.0
 30
0.0
  0
VERTEX
  5
4AA
330
4A9
100
AcDbEntity
  8
Ebene 1
370
     0
100
AcDbVertex
100
AcDb2dVertex
 10
-158.0
 20
-296.0439453125
 30
0.0
  0
VERTEX
  5
4AB
330
4A9
100
AcDbEntity
  8
Ebene 1
370
     0
100
AcDbVertex
100
AcDb2dVertex
 10
-158.0
 20
-296.0439453125
 30
0.0
  0
SEQEND
  5
4AC
330
4A9
100
AcDbEntity
  8
Ebene 1
370
     0
  0
POLYLINE
  5
4AD
330
3C
100
AcDbEntity
  8
Ebene 1
370
     0
100
AcDb2dPolyline
 66
     1
 10
0.0
 20
0.0
 30
0.0
  0
VERTEX
  5
4AE
330
4AD
100
AcDbEntity
  8
Ebene 1
370
     0
100
AcDbVertex
100
AcDb2dVertex
 10
-158.0
 20
-296.0439453125
 30
0.0
  0
VERTEX
  5
4AF
330
4AD
100
AcDbEntity
  8
Ebene 1
370
     0
100
AcDbVertex
100
AcDb2dVertex
 10
-158.0
 20
-296.0439453125
 30
0.0
  0
SEQEND
  5
4B0
330
4AD
100
AcDbEntity
  8
Ebene 1
370
     0
  0
POLYLINE
  5
4B1
330
3C
100
AcDbEntity
  8
Ebene 1
370
     0
100
AcDb2dPolyline
 66
     1
 10
0.0
 20
0.0
 30
0.0
  0
VERTEX
  5
4B2
330
4B1
100
AcDbEntity
  8
Ebene 1
370
     0
100
AcDbVertex
100
AcDb2dVertex
 10
-158.0
 20
-296.0439453125
 30
0.0
  0
VERTEX
  5
4B3
330
4B1
100
AcDbEntity
  8
Ebene 1
370
     0
100
AcDbVertex
100
AcDb2dVertex
 10
-158.0
 20
-296.0439453125
 30
0.0
  0
SEQEND
  5
4B4
330
4B1
100
AcDbEntity
  8
Ebene 1
370
     0
  0
POLYLINE
  5
4B5
330
3C
100
AcDbEntity
  8
Ebene 1
370
     0
100
AcDb2dPolyline
 66
     1
 10
0.0
 20
0.0
 30
0.0
  0
VERTEX
  5
4B6
330
4B5
100
AcDbEntity
  8
Ebene 1
370
     0
100
AcDbVertex
100
AcDb2dVertex
 10
423.2060546875
 20
975.0732421875
 30
0.0
  0
VERTEX
  5
4B7
330
4B5
100
AcDbEntity
  8
Ebene 1
370
     0
100
AcDbVertex
100
AcDb2dVertex
 10
429.912109375
 20
975.0732421875
 30
0.0
  0
VERTEX
  5
4B8
330
4B5
100
AcDbEntity
  8
Ebene 1
370
     0
100
AcDbVertex
100
AcDb2dVertex
 10
426.25
 20
969.029296875
 30
0.0
  0
VERTEX
  5
4B9
330
4B5
100
AcDbEntity
  8
Ebene 1
370
     0
100
AcDbVertex
100
AcDb2dVertex
 10
428.05859375
 20
969.029296875
 30
0.0
  0
VERTEX
  5
4BA
330
4B5
100
AcDbEntity
  8
Ebene 1
370
     0
100
AcDbVertex
100
AcDb2dVertex
 10
429.2939453125
 20
968.279296875
 30
0.0
  0
VERTEX
  5
4BB
330
4B5
100
AcDbEntity
  8
Ebene 1
370
     0
100
AcDbVertex
100
AcDb2dVertex
 10
429.912109375
 20
967.529296875
 30
0.0
  0
VERTEX
  5
4BC
330
4B5
100
AcDbEntity
  8
Ebene 1
370
     0
100
AcDbVertex
100
AcDb2dVertex
 10
430.4853515625
 20
965.23486328125
 30
0.0
  0
VERTEX
  5
4BD
330
4B5
100
AcDbEntity
  8
Ebene 1
370
     0
100
AcDbVertex
100
AcDb2dVertex
 10
430.4853515625
 20
963.73486328125
 30
0.0
  0
VERTEX
  5
4BE
330
4B5
100
AcDbEntity
  8
Ebene 1
370
     0
100
AcDbVertex
100
AcDb2dVertex
 10
429.912109375
 20
961.44091796875
 30
0.0
  0
VERTEX
  5
4BF
330
4B5
100
AcDbEntity
  8
Ebene 1
370
     0
100
AcDbVertex
100
AcDb2dVertex
 10
428.67578125
 20
959.94091796875
 30
0.0
  0
VERTEX
  5
4C0
330
4B5
100
AcDbEntity
  8
Ebene 1
370
     0
100
AcDbVertex
100
AcDb2dVertex
 10
426.8671875
 20
959.19091796875
 30
0.0
  0
VERTEX
  5
4C1
330
4B5
100
AcDbEntity
  8
Ebene 1
370
     0
100
AcDbVertex
100
AcDb2dVertex
 10
425.05859375
 20
959.19091796875
 30
0.0
  0
VERTEX
  5
4C2
330
4B5
100
AcDbEntity
  8
Ebene 1
370
     0
100
AcDbVertex
100
AcDb2dVertex
 10
423.2060546875
 20
959.94091796875
 30
0.0
  0
VERTEX
  5
4C3
330
4B5
100
AcDbEntity
  8
Ebene 1
370
     0
100
AcDbVertex
100
AcDb2dVertex
 10
422.6328125
 20
960.69091796875
 30
0.0
  0
VERTEX
  5
4C4
330
4B5
100
AcDbEntity
  8
Ebene 1
370
     0
100
AcDbVertex
100
AcDb2dVertex
 10
422.0146484375
 20
962.19091796875
 30
0.0
  0
SEQEND
  5
4C5
330
4B5
100
AcDbEntity
  8
Ebene 1
370
     0
  0
POLYLINE
  5
4C6
330
3C
100
AcDbEntity
  8
Ebene 1
370
     0
100
AcDb2dPolyline
 66
     1
 10
0.0
 20
0.0
 30
0.0
  0
VERTEX
  5
4C7
330
4C6
100
AcDbEntity
  8
Ebene 1
370
     0
100
AcDbVertex
100
AcDb2dVertex
 10
442.0
 20
969.779296875
 30
0.0
  0
VERTEX
  5
4C8
330
4C6
100
AcDbEntity
  8
Ebene 1
370
     0
100
AcDbVertex
100
AcDb2dVertex
 10
441.3828125
 20
967.529296875
 30
0.0
  0
VERTEX
  5
4C9
330
4C6
100
AcDbEntity
  8
Ebene 1
370
     0
100
AcDbVertex
100
AcDb2dVertex
 10
440.19140625
 20
965.98486328125
 30
0.0
  0
VERTEX
  5
4CA
330
4C6
100
AcDbEntity
  8
Ebene 1
370
     0
100
AcDbVertex
100
AcDb2dVertex
 10
438.3828125
 20
965.23486328125
 30
0.0
  0
VERTEX
  5
4CB
330
4C6
100
AcDbEntity
  8
Ebene 1
370
     0
100
AcDbVertex
100
AcDb2dVertex
 10
437.7646484375
 20
965.23486328125
 30
0.0
  0
VERTEX
  5
4CC
330
4C6
100
AcDbEntity
  8
Ebene 1
370
     0
100
AcDbVertex
100
AcDb2dVertex
 10
435.9560546875
 20
965.98486328125
 30
0.0
  0
VERTEX
  5
4CD
330
4C6
100
AcDbEntity
  8
Ebene 1
370
     0
100
AcDbVertex
100
AcDb2dVertex
 10
434.720703125
 20
967.529296875
 30
0.0
  0
VERTEX
  5
4CE
330
4C6
100
AcDbEntity
  8
Ebene 1
370
     0
100
AcDbVertex
100
AcDb2dVertex
 10
434.146484375
 20
969.779296875
 30
0.0
  0
VERTEX
  5
4CF
330
4C6
100
AcDbEntity
  8
Ebene 1
370
     0
100
AcDbVertex
100
AcDb2dVertex
 10
434.146484375
 20
970.529296875
 30
0.0
  0
VERTEX
  5
4D0
330
4C6
100
AcDbEntity
  8
Ebene 1
370
     0
100
AcDbVertex
100
AcDb2dVertex
 10
434.720703125
 20
972.8232421875
 30
0.0
  0
VERTEX
  5
4D1
330
4C6
100
AcDbEntity
  8
Ebene 1
370
     0
100
AcDbVertex
100
AcDb2dVertex
 10
435.9560546875
 20
974.3232421875
 30
0.0
  0
VERTEX
  5
4D2
330
4C6
100
AcDbEntity
  8
Ebene 1
370
     0
100
AcDbVertex
100
AcDb2dVertex
 10
437.7646484375
 20
975.0732421875
 30
0.0
  0
VERTEX
  5
4D3
330
4C6
100
AcDbEntity
  8
Ebene 1
370
     0
100
AcDbVertex
100
AcDb2dVertex
 10
438.3828125
 20
975.0732421875
 30
0.0
  0
VERTEX
  5
4D4
330
4C6
100
AcDbEntity
  8
Ebene 1
370
     0
100
AcDbVertex
100
AcDb2dVertex
 10
440.19140625
 20
974.3232421875
 30
0.0
  0
VERTEX
  5
4D5
330
4C6
100
AcDbEntity
  8
Ebene 1
370
     0
100
AcDbVertex
100
AcDb2dVertex
 10
441.3828125
 20
972.8232421875
 30
0.0
  0
VERTEX
  5
4D6
330
4C6
100
AcDbEntity
  8
Ebene 1
370
     0
100
AcDbVertex
100
AcDb2dVertex
 10
442.0
 20
969.779296875
 30
0.0
  0
VERTEX
  5
4D7
330
4C6
100
AcDbEntity
  8
Ebene 1
370
     0
100
AcDbVertex
100
AcDb2dVertex
 10
442.0
 20
965.98486328125
 30
0.0
  0
VERTEX
  5
4D8
330
4C6
100
AcDbEntity
  8
Ebene 1
370
     0
100
AcDbVertex
100
AcDb2dVertex
 10
441.3828125
 20
962.19091796875
 30
0.0
  0
VERTEX
  5
4D9
330
4C6
100
AcDbEntity
  8
Ebene 1
370
     0
100
AcDbVertex
100
AcDb2dVertex
 10
440.19140625
 20
959.94091796875
 30
0.0
  0
VERTEX
  5
4DA
330
4C6
100
AcDbEntity
  8
Ebene 1
370
     0
100
AcDbVertex
100
AcDb2dVertex
 10
438.3828125
 20
959.19091796875
 30
0.0
  0
VERTEX
  5
4DB
330
4C6
100
AcDbEntity
  8
Ebene 1
370
     0
100
AcDbVertex
100
AcDb2dVertex
 10
437.146484375
 20
959.19091796875
 30
0.0
  0
VERTEX
  5
4DC
330
4C6
100
AcDbEntity
  8
Ebene 1
370
     0
100
AcDbVertex
100
AcDb2dVertex
 10
435.337890625
 20
959.94091796875
 30
0.0
  0
VERTEX
  5
4DD
330
4C6
100
AcDbEntity
  8
Ebene 1
370
     0
100
AcDbVertex
100
AcDb2dVertex
 10
434.720703125
 20
961.44091796875
 30
0.0
  0
SEQEND
  5
4DE
330
4C6
100
AcDbEntity
  8
Ebene 1
370
     0
  0
POLYLINE
  5
4DF
330
3C
100
AcDbEntity
  8
Ebene 1
370
     0
100
AcDb2dPolyline
 66
     1
 10
0.0
 20
0.0
 30
0.0
  0
VERTEX
  5
4E0
330
4DF
100
AcDbEntity
  8
Ebene 1
370
     0
100
AcDbVertex
100
AcDb2dVertex
 10
454.529296875
 20
886.66162109375
 30
0.0
  0
VERTEX
  5
4E1
330
4DF
100
AcDbEntity
  8
Ebene 1
370
     0
100
AcDbVertex
100
AcDb2dVertex
 10
382.970703125
 20
886.66162109375
 30
0.0
  0
SEQEND
  5
4E2
330
4DF
100
AcDbEntity
  8
Ebene 1
370
     0
  0
POLYLINE
  5
4E3
330
3C
100
AcDbEntity
  8
Ebene 1
370
     0
100
AcDb2dPolyline
 66
     1
 10
0.0
 20
0.0
 30
0.0
  0
VERTEX
  5
4E4
330
4E3
100
AcDbEntity
  8
Ebene 1
370
     0
100
AcDbVertex
100
AcDb2dVertex
 10
457.17578125
 20
883.97021484375
 30
0.0
  0
VERTEX
  5
4E5
330
4E3
100
AcDbEntity
  8
Ebene 1
370
     0
100
AcDbVertex
100
AcDb2dVertex
 10
457.087890625
 20
884.5439453125
 30
0.0
  0
VERTEX
  5
4E6
330
4E3
100
AcDbEntity
  8
Ebene 1
370
     0
100
AcDbVertex
100
AcDb2dVertex
 10
456.912109375
 20
885.1171875
 30
0.0
  0
VERTEX
  5
4E7
330
4E3
100
AcDbEntity
  8
Ebene 1
370
     0
100
AcDbVertex
100
AcDb2dVertex
 10
456.603515625
 20
885.6025390625
 30
0.0
  0
VERTEX
  5
4E8
330
4E3
100
AcDbEntity
  8
Ebene 1
370
     0
100
AcDbVertex
100
AcDb2dVertex
 10
456.162109375
 20
886.0439453125
 30
0.0
  0
VERTEX
  5
4E9
330
4E3
100
AcDbEntity
  8
Ebene 1
370
     0
100
AcDbVertex
100
AcDb2dVertex
 10
455.67578125
 20
886.3525390625
 30
0.0
  0
VERTEX
  5
4EA
330
4E3
100
AcDbEntity
  8
Ebene 1
370
     0
100
AcDbVertex
100
AcDb2dVertex
 10
455.103515625
 20
886.529296875
 30
0.0
  0
VERTEX
  5
4EB
330
4E3
100
AcDbEntity
  8
Ebene 1
370
     0
100
AcDbVertex
100
AcDb2dVertex
 10
454.529296875
 20
886.6171875
 30
0.0
  0
SEQEND
  5
4EC
330
4E3
100
AcDbEntity
  8
Ebene 1
370
     0
  0
POLYLINE
  5
4ED
330
3C
100
AcDbEntity
  8
Ebene 1
370
     0
100
AcDb2dPolyline
 66
     1
 10
0.0
 20
0.0
 30
0.0
  0
VERTEX
  5
4EE
330
4ED
100
AcDbEntity
  8
Ebene 1
370
     0
100
AcDbVertex
100
AcDb2dVertex
 10
483.69140625
 20
784.529296875
 30
0.0
  0
VERTEX
  5
4EF
330
4ED
100
AcDbEntity
  8
Ebene 1
370
     0
100
AcDbVertex
100
AcDb2dVertex
 10
382.970703125
 20
784.529296875
 30
0.0
  0
SEQEND
  5
4F0
330
4ED
100
AcDbEntity
  8
Ebene 1
370
     0
  0
POLYLINE
  5
4F1
330
3C
100
AcDbEntity
  8
Ebene 1
370
     0
100
AcDb2dPolyline
 66
     1
 10
0.0
 20
0.0
 30
0.0
  0
VERTEX
  5
4F2
330
4F1
100
AcDbEntity
  8
Ebene 1
370
     0
100
AcDbVertex
100
AcDb2dVertex
 10
380.32421875
 20
787.17578125
 30
0.0
  0
VERTEX
  5
4F3
330
4F1
100
AcDbEntity
  8
Ebene 1
370
     0
100
AcDbVertex
100
AcDb2dVertex
 10
380.412109375
 20
786.6025390625
 30
0.0
  0
VERTEX
  5
4F4
330
4F1
100
AcDbEntity
  8
Ebene 1
370
     0
100
AcDbVertex
100
AcDb2dVertex
 10
380.587890625
 20
786.029296875
 30
0.0
  0
VERTEX
  5
4F5
330
4F1
100
AcDbEntity
  8
Ebene 1
370
     0
100
AcDbVertex
100
AcDb2dVertex
 10
380.896484375
 20
785.5439453125
 30
0.0
  0
VERTEX
  5
4F6
330
4F1
100
AcDbEntity
  8
Ebene 1
370
     0
100
AcDbVertex
100
AcDb2dVertex
 10
381.337890625
 20
785.1025390625
 30
0.0
  0
VERTEX
  5
4F7
330
4F1
100
AcDbEntity
  8
Ebene 1
370
     0
100
AcDbVertex
100
AcDb2dVertex
 10
381.82421875
 20
784.7939453125
 30
0.0
  0
VERTEX
  5
4F8
330
4F1
100
AcDbEntity
  8
Ebene 1
370
     0
100
AcDbVertex
100
AcDb2dVertex
 10
382.396484375
 20
784.6171875
 30
0.0
  0
VERTEX
  5
4F9
330
4F1
100
AcDbEntity
  8
Ebene 1
370
     0
100
AcDbVertex
100
AcDb2dVertex
 10
382.970703125
 20
784.529296875
 30
0.0
  0
SEQEND
  5
4FA
330
4F1
100
AcDbEntity
  8
Ebene 1
370
     0
  0
POLYLINE
  5
4FB
330
3C
100
AcDbEntity
  8
Ebene 1
370
     0
100
AcDb2dPolyline
 66
     1
 10
0.0
 20
0.0
 30
0.0
  0
VERTEX
  5
4FC
330
4FB
100
AcDbEntity
  8
Ebene 1
370
     0
100
AcDbVertex
100
AcDb2dVertex
 10
483.69140625
 20
850.837890625
 30
0.0
  0
VERTEX
  5
4FD
330
4FB
100
AcDbEntity
  8
Ebene 1
370
     0
100
AcDbVertex
100
AcDb2dVertex
 10
483.69140625
 20
784.529296875
 30
0.0
  0
SEQEND
  5
4FE
330
4FB
100
AcDbEntity
  8
Ebene 1
370
     0
  0
POLYLINE
  5
4FF
330
3C
100
AcDbEntity
  8
Ebene 1
370
     0
100
AcDb2dPolyline
 66
     1
 10
0.0
 20
0.0
 30
0.0
  0
VERTEX
  5
500
330
4FF
100
AcDbEntity
  8
Ebene 1
370
     0
100
AcDbVertex
100
AcDb2dVertex
 10
380.32421875
 20
883.97021484375
 30
0.0
  0
VERTEX
  5
501
330
4FF
100
AcDbEntity
  8
Ebene 1
370
     0
100
AcDbVertex
100
AcDb2dVertex
 10
380.32421875
 20
787.17578125
 30
0.0
  0
SEQEND
  5
502
330
4FF
100
AcDbEntity
  8
Ebene 1
370
     0
  0
POLYLINE
  5
503
330
3C
100
AcDbEntity
  8
Ebene 1
370
     0
100
AcDb2dPolyline
 66
     1
 10
0.0
 20
0.0
 30
0.0
  0
VERTEX
  5
504
330
503
100
AcDbEntity
  8
Ebene 1
370
     0
100
AcDbVertex
100
AcDb2dVertex
 10
382.970703125
 20
886.6171875
 30
0.0
  0
VERTEX
  5
505
330
503
100
AcDbEntity
  8
Ebene 1
370
     0
100
AcDbVertex
100
AcDb2dVertex
 10
382.396484375
 20
886.529296875
 30
0.0
  0
VERTEX
  5
506
330
503
100
AcDbEntity
  8
Ebene 1
370
     0
100
AcDbVertex
100
AcDb2dVertex
 10
381.82421875
 20
886.3525390625
 30
0.0
  0
VERTEX
  5
507
330
503
100
AcDbEntity
  8
Ebene 1
370
     0
100
AcDbVertex
100
AcDb2dVertex
 10
381.337890625
 20
886.0439453125
 30
0.0
  0
VERTEX
  5
508
330
503
100
AcDbEntity
  8
Ebene 1
370
     0
100
AcDbVertex
100
AcDb2dVertex
 10
380.896484375
 20
885.6025390625
 30
0.0
  0
VERTEX
  5
509
330
503
100
AcDbEntity
  8
Ebene 1
370
     0
100
AcDbVertex
100
AcDb2dVertex
 10
380.587890625
 20
885.1171875
 30
0.0
  0
VERTEX
  5
50A
330
503
100
AcDbEntity
  8
Ebene 1
370
     0
100
AcDbVertex
100
AcDb2dVertex
 10
380.412109375
 20
884.5439453125
 30
0.0
  0
VERTEX
  5
50B
330
503
100
AcDbEntity
  8
Ebene 1
370
     0
100
AcDbVertex
100
AcDb2dVertex
 10
380.32421875
 20
883.97021484375
 30
0.0
  0
SEQEND
  5
50C
330
503
100
AcDbEntity
  8
Ebene 1
370
     0
  0
POLYLINE
  5
50D
330
3C
100
AcDbEntity
  8
Ebene 1
370
     0
100
AcDb2dPolyline
 66
     1
 10
0.0
 20
0.0
 30
0.0
  0
VERTEX
  5
50E
330
50D
100
AcDbEntity
  8
Ebene 1
370
     0
100
AcDbVertex
100
AcDb2dVertex
 10
483.69140625
 20
850.837890625
 30
0.0
  0
VERTEX
  5
50F
330
50D
100
AcDbEntity
  8
Ebene 1
370
     0
100
AcDbVertex
100
AcDb2dVertex
 10
462.5146484375
 20
850.837890625
 30
0.0
  0
SEQEND
  5
510
330
50D
100
AcDbEntity
  8
Ebene 1
370
     0
  0
POLYLINE
  5
511
330
3C
100
AcDbEntity
  8
Ebene 1
370
     0
100
AcDb2dPolyline
 66
     1
 10
0.0
 20
0.0
 30
0.0
  0
VERTEX
  5
512
330
511
100
AcDbEntity
  8
Ebene 1
370
     0
100
AcDbVertex
100
AcDb2dVertex
 10
473.103515625
 20
850.837890625
 30
0.0
  0
VERTEX
  5
513
330
511
100
AcDbEntity
  8
Ebene 1
370
     0
100
AcDbVertex
100
AcDb2dVertex
 10
473.103515625
 20
784.529296875
 30
0.0
  0
SEQEND
  5
514
330
511
100
AcDbEntity
  8
Ebene 1
370
     0
  0
POLYLINE
  5
515
330
3C
100
AcDbEntity
  8
Ebene 1
370
     0
100
AcDb2dPolyline
 66
     1
 10
0.0
 20
0.0
 30
0.0
  0
VERTEX
  5
516
330
515
100
AcDbEntity
  8
Ebene 1
370
     0
100
AcDbVertex
100
AcDb2dVertex
 10
462.5146484375
 20
850.837890625
 30
0.0
  0
VERTEX
  5
517
330
515
100
AcDbEntity
  8
Ebene 1
370
     0
100
AcDbVertex
100
AcDb2dVertex
 10
462.5146484375
 20
784.529296875
 30
0.0
  0
SEQEND
  5
518
330
515
100
AcDbEntity
  8
Ebene 1
370
     0
  0
POLYLINE
  5
519
330
3C
100
AcDbEntity
  8
Ebene 1
370
     0
100
AcDb2dPolyline
 66
     1
 10
0.0
 20
0.0
 30
0.0
  0
VERTEX
  5
51A
330
519
100
AcDbEntity
  8
Ebene 1
370
     0
100
AcDbVertex
100
AcDb2dVertex
 10
407.5
 20
803.1025390625
 30
0.0
  0
VERTEX
  5
51B
330
519
100
AcDbEntity
  8
Ebene 1
370
     0
100
AcDbVertex
100
AcDb2dVertex
 10
407.4560546875
 20
803.9853515625
 30
0.0
  0
VERTEX
  5
51C
330
519
100
AcDbEntity
  8
Ebene 1
370
     0
100
AcDbVertex
100
AcDb2dVertex
 10
407.279296875
 20
804.8671875
 30
0.0
  0
VERTEX
  5
51D
330
519
100
AcDbEntity
  8
Ebene 1
370
     0
100
AcDbVertex
100
AcDb2dVertex
 10
407.0146484375
 20
805.75
 30
0.0
  0
VERTEX
  5
51E
330
519
100
AcDbEntity
  8
Ebene 1
370
     0
100
AcDbVertex
100
AcDb2dVertex
 10
406.6171875
 20
806.5439453125
 30
0.0
  0
VERTEX
  5
51F
330
519
100
AcDbEntity
  8
Ebene 1
370
     0
100
AcDbVertex
100
AcDb2dVertex
 10
406.17578125
 20
807.2939453125
 30
0.0
  0
VERTEX
  5
520
330
519
100
AcDbEntity
  8
Ebene 1
370
     0
100
AcDbVertex
100
AcDb2dVertex
 10
405.603515625
 20
808.0
 30
0.0
  0
VERTEX
  5
521
330
519
100
AcDbEntity
  8
Ebene 1
370
     0
100
AcDbVertex
100
AcDb2dVertex
 10
404.94140625
 20
808.6171875
 30
0.0
  0
VERTEX
  5
522
330
519
100
AcDbEntity
  8
Ebene 1
370
     0
100
AcDbVertex
100
AcDb2dVertex
 10
404.2353515625
 20
809.19140625
 30
0.0
  0
VERTEX
  5
523
330
519
100
AcDbEntity
  8
Ebene 1
370
     0
100
AcDbVertex
100
AcDb2dVertex
 10
403.4853515625
 20
809.6318359375
 30
0.0
  0
VERTEX
  5
524
330
519
100
AcDbEntity
  8
Ebene 1
370
     0
100
AcDbVertex
100
AcDb2dVertex
 10
402.646484375
 20
809.9853515625
 30
0.0
  0
VERTEX
  5
525
330
519
100
AcDbEntity
  8
Ebene 1
370
     0
100
AcDbVertex
100
AcDb2dVertex
 10
401.7646484375
 20
810.2060546875
 30
0.0
  0
VERTEX
  5
526
330
519
100
AcDbEntity
  8
Ebene 1
370
     0
100
AcDbVertex
100
AcDb2dVertex
 10
400.8828125
 20
810.337890625
 30
0.0
  0
VERTEX
  5
527
330
519
100
AcDbEntity
  8
Ebene 1
370
     0
100
AcDbVertex
100
AcDb2dVertex
 10
400.0
 20
810.3818359375
 30
0.0
  0
VERTEX
  5
528
330
519
100
AcDbEntity
  8
Ebene 1
370
     0
100
AcDbVertex
100
AcDb2dVertex
 10
399.1171875
 20
810.2939453125
 30
0.0
  0
VERTEX
  5
529
330
519
100
AcDbEntity
  8
Ebene 1
370
     0
100
AcDbVertex
100
AcDb2dVertex
 10
398.2353515625
 20
810.1171875
 30
0.0
  0
VERTEX
  5
52A
330
519
100
AcDbEntity
  8
Ebene 1
370
     0
100
AcDbVertex
100
AcDb2dVertex
 10
397.396484375
 20
809.80859375
 30
0.0
  0
VERTEX
  5
52B
330
519
100
AcDbEntity
  8
Ebene 1
370
     0
100
AcDbVertex
100
AcDb2dVertex
 10
396.603515625
 20
809.4111328125
 30
0.0
  0
VERTEX
  5
52C
330
519
100
AcDbEntity
  8
Ebene 1
370
     0
100
AcDbVertex
100
AcDb2dVertex
 10
395.853515625
 20
808.92578125
 30
0.0
  0
VERTEX
  5
52D
330
519
100
AcDbEntity
  8
Ebene 1
370
     0
100
AcDbVertex
100
AcDb2dVertex
 10
395.146484375
 20
808.30859375
 30
0.0
  0
VERTEX
  5
52E
330
519
100
AcDbEntity
  8
Ebene 1
370
     0
100
AcDbVertex
100
AcDb2dVertex
 10
394.529296875
 20
807.646484375
 30
0.0
  0
VERTEX
  5
52F
330
519
100
AcDbEntity
  8
Ebene 1
370
     0
100
AcDbVertex
100
AcDb2dVertex
 10
394.0439453125
 20
806.94140625
 30
0.0
  0
VERTEX
  5
530
330
519
100
AcDbEntity
  8
Ebene 1
370
     0
100
AcDbVertex
100
AcDb2dVertex
 10
393.603515625
 20
806.146484375
 30
0.0
  0
VERTEX
  5
531
330
519
100
AcDbEntity
  8
Ebene 1
370
     0
100
AcDbVertex
100
AcDb2dVertex
 10
393.2939453125
 20
805.30859375
 30
0.0
  0
VERTEX
  5
532
330
519
100
AcDbEntity
  8
Ebene 1
370
     0
100
AcDbVertex
100
AcDb2dVertex
 10
393.07421875
 20
804.42578125
 30
0.0
  0
VERTEX
  5
533
330
519
100
AcDbEntity
  8
Ebene 1
370
     0
100
AcDbVertex
100
AcDb2dVertex
 10
392.94140625
 20
803.5439453125
 30
0.0
  0
VERTEX
  5
534
330
519
100
AcDbEntity
  8
Ebene 1
370
     0
100
AcDbVertex
100
AcDb2dVertex
 10
392.94140625
 20
802.6611328125
 30
0.0
  0
VERTEX
  5
535
330
519
100
AcDbEntity
  8
Ebene 1
370
     0
100
AcDbVertex
100
AcDb2dVertex
 10
393.07421875
 20
801.779296875
 30
0.0
  0
VERTEX
  5
536
330
519
100
AcDbEntity
  8
Ebene 1
370
     0
100
AcDbVertex
100
AcDb2dVertex
 10
393.2939453125
 20
800.896484375
 30
0.0
  0
VERTEX
  5
537
330
519
100
AcDbEntity
  8
Ebene 1
370
     0
100
AcDbVertex
100
AcDb2dVertex
 10
393.603515625
 20
800.05859375
 30
0.0
  0
VERTEX
  5
538
330
519
100
AcDbEntity
  8
Ebene 1
370
     0
100
AcDbVertex
100
AcDb2dVertex
 10
394.0439453125
 20
799.2646484375
 30
0.0
  0
VERTEX
  5
539
330
519
100
AcDbEntity
  8
Ebene 1
370
     0
100
AcDbVertex
100
AcDb2dVertex
 10
394.529296875
 20
798.55859375
 30
0.0
  0
VERTEX
  5
53A
330
519
100
AcDbEntity
  8
Ebene 1
370
     0
100
AcDbVertex
100
AcDb2dVertex
 10
395.146484375
 20
797.896484375
 30
0.0
  0
VERTEX
  5
53B
330
519
100
AcDbEntity
  8
Ebene 1
370
     0
100
AcDbVertex
100
AcDb2dVertex
 10
395.853515625
 20
797.279296875
 30
0.0
  0
VERTEX
  5
53C
330
519
100
AcDbEntity
  8
Ebene 1
370
     0
100
AcDbVertex
100
AcDb2dVertex
 10
396.603515625
 20
796.7939453125
 30
0.0
  0
VERTEX
  5
53D
330
519
100
AcDbEntity
  8
Ebene 1
370
     0
100
AcDbVertex
100
AcDb2dVertex
 10
397.396484375
 20
796.396484375
 30
0.0
  0
VERTEX
  5
53E
330
519
100
AcDbEntity
  8
Ebene 1
370
     0
100
AcDbVertex
100
AcDb2dVertex
 10
398.2353515625
 20
796.087890625
 30
0.0
  0
VERTEX
  5
53F
330
519
100
AcDbEntity
  8
Ebene 1
370
     0
100
AcDbVertex
100
AcDb2dVertex
 10
399.1171875
 20
795.9111328125
 30
0.0
  0
VERTEX
  5
540
330
519
100
AcDbEntity
  8
Ebene 1
370
     0
100
AcDbVertex
100
AcDb2dVertex
 10
400.0
 20
795.8232421875
 30
0.0
  0
VERTEX
  5
541
330
519
100
AcDbEntity
  8
Ebene 1
370
     0
100
AcDbVertex
100
AcDb2dVertex
 10
400.8828125
 20
795.8671875
 30
0.0
  0
VERTEX
  5
542
330
519
100
AcDbEntity
  8
Ebene 1
370
     0
100
AcDbVertex
100
AcDb2dVertex
 10
401.7646484375
 20
796.0
 30
0.0
  0
VERTEX
  5
543
330
519
100
AcDbEntity
  8
Ebene 1
370
     0
100
AcDbVertex
100
AcDb2dVertex
 10
402.646484375
 20
796.220703125
 30
0.0
  0
VERTEX
  5
544
330
519
100
AcDbEntity
  8
Ebene 1
370
     0
100
AcDbVertex
100
AcDb2dVertex
 10
403.4853515625
 20
796.5732421875
 30
0.0
  0
VERTEX
  5
545
330
519
100
AcDbEntity
  8
Ebene 1
370
     0
100
AcDbVertex
100
AcDb2dVertex
 10
404.2353515625
 20
797.0146484375
 30
0.0
  0
VERTEX
  5
546
330
519
100
AcDbEntity
  8
Ebene 1
370
     0
100
AcDbVertex
100
AcDb2dVertex
 10
404.94140625
 20
797.587890625
 30
0.0
  0
VERTEX
  5
547
330
519
100
AcDbEntity
  8
Ebene 1
370
     0
100
AcDbVertex
100
AcDb2dVertex
 10
405.603515625
 20
798.2060546875
 30
0.0
  0
VERTEX
  5
548
330
519
100
AcDbEntity
  8
Ebene 1
370
     0
100
AcDbVertex
100
AcDb2dVertex
 10
406.17578125
 20
798.9111328125
 30
0.0
  0
VERTEX
  5
549
330
519
100
AcDbEntity
  8
Ebene 1
370
     0
100
AcDbVertex
100
AcDb2dVertex
 10
406.6171875
 20
799.6611328125
 30
0.0
  0
VERTEX
  5
54A
330
519
100
AcDbEntity
  8
Ebene 1
370
     0
100
AcDbVertex
100
AcDb2dVertex
 10
407.0146484375
 20
800.4560546875
 30
0.0
  0
VERTEX
  5
54B
330
519
100
AcDbEntity
  8
Ebene 1
370
     0
100
AcDbVertex
100
AcDb2dVertex
 10
407.279296875
 20
801.337890625
 30
0.0
  0
VERTEX
  5
54C
330
519
100
AcDbEntity
  8
Ebene 1
370
     0
100
AcDbVertex
100
AcDb2dVertex
 10
407.4560546875
 20
802.220703125
 30
0.0
  0
VERTEX
  5
54D
330
519
100
AcDbEntity
  8
Ebene 1
370
     0
100
AcDbVertex
100
AcDb2dVertex
 10
407.5
 20
803.1025390625
 30
0.0
  0
VERTEX
  5
54E
330
519
100
AcDbEntity
  8
Ebene 1
370
     0
100
AcDbVertex
100
AcDb2dVertex
 10
407.5
 20
803.1025390625
 30
0.0
  0
SEQEND
  5
54F
330
519
100
AcDbEntity
  8
Ebene 1
370
     0
  0
POLYLINE
  5
550
330
3C
100
AcDbEntity
  8
Ebene 1
370
     0
100
AcDb2dPolyline
 66
     1
 10
0.0
 20
0.0
 30
0.0
  0
VERTEX
  5
551
330
550
100
AcDbEntity
  8
Ebene 1
370
     0
100
AcDbVertex
100
AcDb2dVertex
 10
400.220703125
 20
803.1025390625
 30
0.0
  0
VERTEX
  5
552
330
550
100
AcDbEntity
  8
Ebene 1
370
     0
100
AcDbVertex
100
AcDb2dVertex
 10
400.220703125
 20
811.30859375
 30
0.0
  0
SEQEND
  5
553
330
550
100
AcDbEntity
  8
Ebene 1
370
     0
  0
POLYLINE
  5
554
330
3C
100
AcDbEntity
  8
Ebene 1
370
     0
100
AcDb2dPolyline
 66
     1
 10
0.0
 20
0.0
 30
0.0
  0
VERTEX
  5
555
330
554
100
AcDbEntity
  8
Ebene 1
370
     0
100
AcDbVertex
100
AcDb2dVertex
 10
400.220703125
 20
803.1025390625
 30
0.0
  0
VERTEX
  5
556
330
554
100
AcDbEntity
  8
Ebene 1
370
     0
100
AcDbVertex
100
AcDb2dVertex
 10
408.42578125
 20
803.1025390625
 30
0.0
  0
SEQEND
  5
557
330
554
100
AcDbEntity
  8
Ebene 1
370
     0
  0
POLYLINE
  5
558
330
3C
100
AcDbEntity
  8
Ebene 1
370
     0
100
AcDb2dPolyline
 66
     1
 10
0.0
 20
0.0
 30
0.0
  0
VERTEX
  5
559
330
558
100
AcDbEntity
  8
Ebene 1
370
     0
100
AcDbVertex
100
AcDb2dVertex
 10
400.220703125
 20
803.1025390625
 30
0.0
  0
VERTEX
  5
55A
330
558
100
AcDbEntity
  8
Ebene 1
370
     0
100
AcDbVertex
100
AcDb2dVertex
 10
400.220703125
 20
794.8525390625
 30
0.0
  0
SEQEND
  5
55B
330
558
100
AcDbEntity
  8
Ebene 1
370
     0
  0
POLYLINE
  5
55C
330
3C
100
AcDbEntity
  8
Ebene 1
370
     0
100
AcDb2dPolyline
 66
     1
 10
0.0
 20
0.0
 30
0.0
  0
VERTEX
  5
55D
330
55C
100
AcDbEntity
  8
Ebene 1
370
     0
100
AcDbVertex
100
AcDb2dVertex
 10
400.220703125
 20
803.1025390625
 30
0.0
  0
VERTEX
  5
55E
330
55C
100
AcDbEntity
  8
Ebene 1
370
     0
100
AcDbVertex
100
AcDb2dVertex
 10
391.970703125
 20
803.1025390625
 30
0.0
  0
SEQEND
  5
55F
330
55C
100
AcDbEntity
  8
Ebene 1
370
     0
  0
POLYLINE
  5
560
330
3C
100
AcDbEntity
  8
Ebene 1
370
     0
100
AcDb2dPolyline
 66
     1
 10
0.0
 20
0.0
 30
0.0
  0
VERTEX
  5
561
330
560
100
AcDbEntity
  8
Ebene 1
370
     0
100
AcDbVertex
100
AcDb2dVertex
 10
447.25
 20
803.1025390625
 30
0.0
  0
VERTEX
  5
562
330
560
100
AcDbEntity
  8
Ebene 1
370
     0
100
AcDbVertex
100
AcDb2dVertex
 10
447.2060546875
 20
803.9853515625
 30
0.0
  0
VERTEX
  5
563
330
560
100
AcDbEntity
  8
Ebene 1
370
     0
100
AcDbVertex
100
AcDb2dVertex
 10
447.029296875
 20
804.8671875
 30
0.0
  0
VERTEX
  5
564
330
560
100
AcDbEntity
  8
Ebene 1
370
     0
100
AcDbVertex
100
AcDb2dVertex
 10
446.7646484375
 20
805.75
 30
0.0
  0
VERTEX
  5
565
330
560
100
AcDbEntity
  8
Ebene 1
370
     0
100
AcDbVertex
100
AcDb2dVertex
 10
446.3671875
 20
806.5439453125
 30
0.0
  0
VERTEX
  5
566
330
560
100
AcDbEntity
  8
Ebene 1
370
     0
100
AcDbVertex
100
AcDb2dVertex
 10
445.92578125
 20
807.2939453125
 30
0.0
  0
VERTEX
  5
567
330
560
100
AcDbEntity
  8
Ebene 1
370
     0
100
AcDbVertex
100
AcDb2dVertex
 10
445.353515625
 20
808.0
 30
0.0
  0
VERTEX
  5
568
330
560
100
AcDbEntity
  8
Ebene 1
370
     0
100
AcDbVertex
100
AcDb2dVertex
 10
444.69140625
 20
808.6171875
 30
0.0
  0
VERTEX
  5
569
330
560
100
AcDbEntity
  8
Ebene 1
370
     0
100
AcDbVertex
100
AcDb2dVertex
 10
443.9853515625
 20
809.19140625
 30
0.0
  0
VERTEX
  5
56A
330
560
100
AcDbEntity
  8
Ebene 1
370
     0
100
AcDbVertex
100
AcDb2dVertex
 10
443.2353515625
 20
809.6318359375
 30
0.0
  0
VERTEX
  5
56B
330
560
100
AcDbEntity
  8
Ebene 1
370
     0
100
AcDbVertex
100
AcDb2dVertex
 10
442.396484375
 20
809.9853515625
 30
0.0
  0
VERTEX
  5
56C
330
560
100
AcDbEntity
  8
Ebene 1
370
     0
100
AcDbVertex
100
AcDb2dVertex
 10
441.5146484375
 20
810.2060546875
 30
0.0
  0
VERTEX
  5
56D
330
560
100
AcDbEntity
  8
Ebene 1
370
     0
100
AcDbVertex
100
AcDb2dVertex
 10
440.6328125
 20
810.337890625
 30
0.0
  0
VERTEX
  5
56E
330
560
100
AcDbEntity
  8
Ebene 1
370
     0
100
AcDbVertex
100
AcDb2dVertex
 10
439.75
 20
810.3818359375
 30
0.0
  0
VERTEX
  5
56F
330
560
100
AcDbEntity
  8
Ebene 1
370
     0
100
AcDbVertex
100
AcDb2dVertex
 10
438.8671875
 20
810.2939453125
 30
0.0
  0
VERTEX
  5
570
330
560
100
AcDbEntity
  8
Ebene 1
370
     0
100
AcDbVertex
100
AcDb2dVertex
 10
437.9853515625
 20
810.1171875
 30
0.0
  0
VERTEX
  5
571
330
560
100
AcDbEntity
  8
Ebene 1
370
     0
100
AcDbVertex
100
AcDb2dVertex
 10
437.146484375
 20
809.80859375
 30
0.0
  0
VERTEX
  5
572
330
560
100
AcDbEntity
  8
Ebene 1
370
     0
100
AcDbVertex
100
AcDb2dVertex
 10
436.353515625
 20
809.4111328125
 30
0.0
  0
VERTEX
  5
573
330
560
100
AcDbEntity
  8
Ebene 1
370
     0
100
AcDbVertex
100
AcDb2dVertex
 10
435.603515625
 20
808.92578125
 30
0.0
  0
VERTEX
  5
574
330
560
100
AcDbEntity
  8
Ebene 1
370
     0
100
AcDbVertex
100
AcDb2dVertex
 10
434.896484375
 20
808.30859375
 30
0.0
  0
VERTEX
  5
575
330
560
100
AcDbEntity
  8
Ebene 1
370
     0
100
AcDbVertex
100
AcDb2dVertex
 10
434.279296875
 20
807.646484375
 30
0.0
  0
VERTEX
  5
576
330
560
100
AcDbEntity
  8
Ebene 1
370
     0
100
AcDbVertex
100
AcDb2dVertex
 10
433.7939453125
 20
806.94140625
 30
0.0
  0
VERTEX
  5
577
330
560
100
AcDbEntity
  8
Ebene 1
370
     0
100
AcDbVertex
100
AcDb2dVertex
 10
433.353515625
 20
806.146484375
 30
0.0
  0
VERTEX
  5
578
330
560
100
AcDbEntity
  8
Ebene 1
370
     0
100
AcDbVertex
100
AcDb2dVertex
 10
433.0439453125
 20
805.30859375
 30
0.0
  0
VERTEX
  5
579
330
560
100
AcDbEntity
  8
Ebene 1
370
     0
100
AcDbVertex
100
AcDb2dVertex
 10
432.82421875
 20
804.42578125
 30
0.0
  0
VERTEX
  5
57A
330
560
100
AcDbEntity
  8
Ebene 1
370
     0
100
AcDbVertex
100
AcDb2dVertex
 10
432.69140625
 20
803.5439453125
 30
0.0
  0
VERTEX
  5
57B
330
560
100
AcDbEntity
  8
Ebene 1
370
     0
100
AcDbVertex
100
AcDb2dVertex
 10
432.69140625
 20
802.6611328125
 30
0.0
  0
VERTEX
  5
57C
330
560
100
AcDbEntity
  8
Ebene 1
370
     0
100
AcDbVertex
100
AcDb2dVertex
 10
432.82421875
 20
801.779296875
 30
0.0
  0
VERTEX
  5
57D
330
560
100
AcDbEntity
  8
Ebene 1
370
     0
100
AcDbVertex
100
AcDb2dVertex
 10
433.0439453125
 20
800.896484375
 30
0.0
  0
VERTEX
  5
57E
330
560
100
AcDbEntity
  8
Ebene 1
370
     0
100
AcDbVertex
100
AcDb2dVertex
 10
433.353515625
 20
800.05859375
 30
0.0
  0
VERTEX
  5
57F
330
560
100
AcDbEntity
  8
Ebene 1
370
     0
100
AcDbVertex
100
AcDb2dVertex
 10
433.7939453125
 20
799.2646484375
 30
0.0
  0
VERTEX
  5
580
330
560
100
AcDbEntity
  8
Ebene 1
370
     0
100
AcDbVertex
100
AcDb2dVertex
 10
434.279296875
 20
798.55859375
 30
0.0
  0
VERTEX
  5
581
330
560
100
AcDbEntity
  8
Ebene 1
370
     0
100
AcDbVertex
100
AcDb2dVertex
 10
434.896484375
 20
797.896484375
 30
0.0
  0
VERTEX
  5
582
330
560
100
AcDbEntity
  8
Ebene 1
370
     0
100
AcDbVertex
100
AcDb2dVertex
 10
435.603515625
 20
797.279296875
 30
0.0
  0
VERTEX
  5
583
330
560
100
AcDbEntity
  8
Ebene 1
370
     0
100
AcDbVertex
100
AcDb2dVertex
 10
436.353515625
 20
796.7939453125
 30
0.0
  0
VERTEX
  5
584
330
560
100
AcDbEntity
  8
Ebene 1
370
     0
100
AcDbVertex
100
AcDb2dVertex
 10
437.146484375
 20
796.396484375
 30
0.0
  0
VERTEX
  5
585
330
560
100
AcDbEntity
  8
Ebene 1
370
     0
100
AcDbVertex
100
AcDb2dVertex
 10
437.9853515625
 20
796.087890625
 30
0.0
  0
VERTEX
  5
586
330
560
100
AcDbEntity
  8
Ebene 1
370
     0
100
AcDbVertex
100
AcDb2dVertex
 10
438.8671875
 20
795.9111328125
 30
0.0
  0
VERTEX
  5
587
330
560
100
AcDbEntity
  8
Ebene 1
370
     0
100
AcDbVertex
100
AcDb2dVertex
 10
439.75
 20
795.8232421875
 30
0.0
  0
VERTEX
  5
588
330
560
100
AcDbEntity
  8
Ebene 1
370
     0
100
AcDbVertex
100
AcDb2dVertex
 10
440.6328125
 20
795.8671875
 30
0.0
  0
VERTEX
  5
589
330
560
100
AcDbEntity
  8
Ebene 1
370
     0
100
AcDbVertex
100
AcDb2dVertex
 10
441.5146484375
 20
796.0
 30
0.0
  0
VERTEX
  5
58A
330
560
100
AcDbEntity
  8
Ebene 1
370
     0
100
AcDbVertex
100
AcDb2dVertex
 10
442.396484375
 20
796.220703125
 30
0.0
  0
VERTEX
  5
58B
330
560
100
AcDbEntity
  8
Ebene 1
370
     0
100
AcDbVertex
100
AcDb2dVertex
 10
443.2353515625
 20
796.5732421875
 30
0.0
  0
VERTEX
  5
58C
330
560
100
AcDbEntity
  8
Ebene 1
370
     0
100
AcDbVertex
100
AcDb2dVertex
 10
443.9853515625
 20
797.0146484375
 30
0.0
  0
VERTEX
  5
58D
330
560
100
AcDbEntity
  8
Ebene 1
370
     0
100
AcDbVertex
100
AcDb2dVertex
 10
444.69140625
 20
797.587890625
 30
0.0
  0
VERTEX
  5
58E
330
560
100
AcDbEntity
  8
Ebene 1
370
     0
100
AcDbVertex
100
AcDb2dVertex
 10
445.353515625
 20
798.2060546875
 30
0.0
  0
VERTEX
  5
58F
330
560
100
AcDbEntity
  8
Ebene 1
370
     0
100
AcDbVertex
100
AcDb2dVertex
 10
445.92578125
 20
798.9111328125
 30
0.0
  0
VERTEX
  5
590
330
560
100
AcDbEntity
  8
Ebene 1
370
     0
100
AcDbVertex
100
AcDb2dVertex
 10
446.3671875
 20
799.6611328125
 30
0.0
  0
VERTEX
  5
591
330
560
100
AcDbEntity
  8
Ebene 1
370
     0
100
AcDbVertex
100
AcDb2dVertex
 10
446.7646484375
 20
800.4560546875
 30
0.0
  0
VERTEX
  5
592
330
560
100
AcDbEntity
  8
Ebene 1
370
     0
100
AcDbVertex
100
AcDb2dVertex
 10
447.029296875
 20
801.337890625
 30
0.0
  0
VERTEX
  5
593
330
560
100
AcDbEntity
  8
Ebene 1
370
     0
100
AcDbVertex
100
AcDb2dVertex
 10
447.2060546875
 20
802.220703125
 30
0.0
  0
VERTEX
  5
594
330
560
100
AcDbEntity
  8
Ebene 1
370
     0
100
AcDbVertex
100
AcDb2dVertex
 10
447.25
 20
803.1025390625
 30
0.0
  0
VERTEX
  5
595
330
560
100
AcDbEntity
  8
Ebene 1
370
     0
100
AcDbVertex
100
AcDb2dVertex
 10
447.25
 20
803.1025390625
 30
0.0
  0
SEQEND
  5
596
330
560
100
AcDbEntity
  8
Ebene 1
370
     0
  0
POLYLINE
  5
597
330
3C
100
AcDbEntity
  8
Ebene 1
370
     0
100
AcDb2dPolyline
 66
     1
 10
0.0
 20
0.0
 30
0.0
  0
VERTEX
  5
598
330
597
100
AcDbEntity
  8
Ebene 1
370
     0
100
AcDbVertex
100
AcDb2dVertex
 10
439.970703125
 20
803.1025390625
 30
0.0
  0
VERTEX
  5
599
330
597
100
AcDbEntity
  8
Ebene 1
370
     0
100
AcDbVertex
100
AcDb2dVertex
 10
439.970703125
 20
811.30859375
 30
0.0
  0
SEQEND
  5
59A
330
597
100
AcDbEntity
  8
Ebene 1
370
     0
  0
POLYLINE
  5
59B
330
3C
100
AcDbEntity
  8
Ebene 1
370
     0
100
AcDb2dPolyline
 66
     1
 10
0.0
 20
0.0
 30
0.0
  0
VERTEX
  5
59C
330
59B
100
AcDbEntity
  8
Ebene 1
370
     0
100
AcDbVertex
100
AcDb2dVertex
 10
439.970703125
 20
803.1025390625
 30
0.0
  0
VERTEX
  5
59D
330
59B
100
AcDbEntity
  8
Ebene 1
370
     0
100
AcDbVertex
100
AcDb2dVertex
 10
448.17578125
 20
803.1025390625
 30
0.0
  0
SEQEND
  5
59E
330
59B
100
AcDbEntity
  8
Ebene 1
370
     0
  0
POLYLINE
  5
59F
330
3C
100
AcDbEntity
  8
Ebene 1
370
     0
100
AcDb2dPolyline
 66
     1
 10
0.0
 20
0.0
 30
0.0
  0
VERTEX
  5
5A0
330
59F
100
AcDbEntity
  8
Ebene 1
370
     0
100
AcDbVertex
100
AcDb2dVertex
 10
439.970703125
 20
803.1025390625
 30
0.0
  0
VERTEX
  5
5A1
330
59F
100
AcDbEntity
  8
Ebene 1
370
     0
100
AcDbVertex
100
AcDb2dVertex
 10
439.970703125
 20
794.8525390625
 30
0.0
  0
SEQEND
  5
5A2
330
59F
100
AcDbEntity
  8
Ebene 1
370
     0
  0
POLYLINE
  5
5A3
330
3C
100
AcDbEntity
  8
Ebene 1
370
     0
100
AcDb2dPolyline
 66
     1
 10
0.0
 20
0.0
 30
0.0
  0
VERTEX
  5
5A4
330
5A3
100
AcDbEntity
  8
Ebene 1
370
     0
100
AcDbVertex
100
AcDb2dVertex
 10
439.970703125
 20
803.1025390625
 30
0.0
  0
VERTEX
  5
5A5
330
5A3
100
AcDbEntity
  8
Ebene 1
370
     0
100
AcDbVertex
100
AcDb2dVertex
 10
431.720703125
 20
803.1025390625
 30
0.0
  0
SEQEND
  5
5A6
330
5A3
100
AcDbEntity
  8
Ebene 1
370
     0
  0
POLYLINE
  5
5A7
330
3C
100
AcDbEntity
  8
Ebene 1
370
     0
100
AcDb2dPolyline
 66
     1
 10
0.0
 20
0.0
 30
0.0
  0
VERTEX
  5
5A8
330
5A7
100
AcDbEntity
  8
Ebene 1
370
     0
100
AcDbVertex
100
AcDb2dVertex
 10
407.5
 20
837.55859375
 30
0.0
  0
VERTEX
  5
5A9
330
5A7
100
AcDbEntity
  8
Ebene 1
370
     0
100
AcDbVertex
100
AcDb2dVertex
 10
407.4560546875
 20
838.44091796875
 30
0.0
  0
VERTEX
  5
5AA
330
5A7
100
AcDbEntity
  8
Ebene 1
370
     0
100
AcDbVertex
100
AcDb2dVertex
 10
407.279296875
 20
839.3232421875
 30
0.0
  0
VERTEX
  5
5AB
330
5A7
100
AcDbEntity
  8
Ebene 1
370
     0
100
AcDbVertex
100
AcDb2dVertex
 10
407.0146484375
 20
840.20556640625
 30
0.0
  0
VERTEX
  5
5AC
330
5A7
100
AcDbEntity
  8
Ebene 1
370
     0
100
AcDbVertex
100
AcDb2dVertex
 10
406.6171875
 20
841.0
 30
0.0
  0
VERTEX
  5
5AD
330
5A7
100
AcDbEntity
  8
Ebene 1
370
     0
100
AcDbVertex
100
AcDb2dVertex
 10
406.17578125
 20
841.75
 30
0.0
  0
VERTEX
  5
5AE
330
5A7
100
AcDbEntity
  8
Ebene 1
370
     0
100
AcDbVertex
100
AcDb2dVertex
 10
405.603515625
 20
842.45556640625
 30
0.0
  0
VERTEX
  5
5AF
330
5A7
100
AcDbEntity
  8
Ebene 1
370
     0
100
AcDbVertex
100
AcDb2dVertex
 10
404.94140625
 20
843.0732421875
 30
0.0
  0
VERTEX
  5
5B0
330
5A7
100
AcDbEntity
  8
Ebene 1
370
     0
100
AcDbVertex
100
AcDb2dVertex
 10
404.2353515625
 20
843.64697265625
 30
0.0
  0
VERTEX
  5
5B1
330
5A7
100
AcDbEntity
  8
Ebene 1
370
     0
100
AcDbVertex
100
AcDb2dVertex
 10
403.4853515625
 20
844.087890625
 30
0.0
  0
VERTEX
  5
5B2
330
5A7
100
AcDbEntity
  8
Ebene 1
370
     0
100
AcDbVertex
100
AcDb2dVertex
 10
402.646484375
 20
844.44091796875
 30
0.0
  0
VERTEX
  5
5B3
330
5A7
100
AcDbEntity
  8
Ebene 1
370
     0
100
AcDbVertex
100
AcDb2dVertex
 10
401.7646484375
 20
844.66162109375
 30
0.0
  0
VERTEX
  5
5B4
330
5A7
100
AcDbEntity
  8
Ebene 1
370
     0
100
AcDbVertex
100
AcDb2dVertex
 10
400.8828125
 20
844.7939453125
 30
0.0
  0
VERTEX
  5
5B5
330
5A7
100
AcDbEntity
  8
Ebene 1
370
     0
100
AcDbVertex
100
AcDb2dVertex
 10
400.0
 20
844.837890625
 30
0.0
  0
VERTEX
  5
5B6
330
5A7
100
AcDbEntity
  8
Ebene 1
370
     0
100
AcDbVertex
100
AcDb2dVertex
 10
399.1171875
 20
844.75
 30
0.0
  0
VERTEX
  5
5B7
330
5A7
100
AcDbEntity
  8
Ebene 1
370
     0
100
AcDbVertex
100
AcDb2dVertex
 10
398.2353515625
 20
844.5732421875
 30
0.0
  0
VERTEX
  5
5B8
330
5A7
100
AcDbEntity
  8
Ebene 1
370
     0
100
AcDbVertex
100
AcDb2dVertex
 10
397.396484375
 20
844.2646484375
 30
0.0
  0
VERTEX
  5
5B9
330
5A7
100
AcDbEntity
  8
Ebene 1
370
     0
100
AcDbVertex
100
AcDb2dVertex
 10
396.603515625
 20
843.8671875
 30
0.0
  0
VERTEX
  5
5BA
330
5A7
100
AcDbEntity
  8
Ebene 1
370
     0
100
AcDbVertex
100
AcDb2dVertex
 10
395.853515625
 20
843.38232421875
 30
0.0
  0
VERTEX
  5
5BB
330
5A7
100
AcDbEntity
  8
Ebene 1
370
     0
100
AcDbVertex
100
AcDb2dVertex
 10
395.146484375
 20
842.7646484375
 30
0.0
  0
VERTEX
  5
5BC
330
5A7
100
AcDbEntity
  8
Ebene 1
370
     0
100
AcDbVertex
100
AcDb2dVertex
 10
394.529296875
 20
842.1025390625
 30
0.0
  0
VERTEX
  5
5BD
330
5A7
100
AcDbEntity
  8
Ebene 1
370
     0
100
AcDbVertex
100
AcDb2dVertex
 10
394.0439453125
 20
841.39697265625
 30
0.0
  0
VERTEX
  5
5BE
330
5A7
100
AcDbEntity
  8
Ebene 1
370
     0
100
AcDbVertex
100
AcDb2dVertex
 10
393.603515625
 20
840.6025390625
 30
0.0
  0
VERTEX
  5
5BF
330
5A7
100
AcDbEntity
  8
Ebene 1
370
     0
100
AcDbVertex
100
AcDb2dVertex
 10
393.2939453125
 20
839.7646484375
 30
0.0
  0
VERTEX
  5
5C0
330
5A7
100
AcDbEntity
  8
Ebene 1
370
     0
100
AcDbVertex
100
AcDb2dVertex
 10
393.07421875
 20
838.88232421875
 30
0.0
  0
VERTEX
  5
5C1
330
5A7
100
AcDbEntity
  8
Ebene 1
370
     0
100
AcDbVertex
100
AcDb2dVertex
 10
392.94140625
 20
838.0
 30
0.0
  0
VERTEX
  5
5C2
330
5A7
100
AcDbEntity
  8
Ebene 1
370
     0
100
AcDbVertex
100
AcDb2dVertex
 10
392.94140625
 20
837.1171875
 30
0.0
  0
VERTEX
  5
5C3
330
5A7
100
AcDbEntity
  8
Ebene 1
370
     0
100
AcDbVertex
100
AcDb2dVertex
 10
393.07421875
 20
836.23486328125
 30
0.0
  0
VERTEX
  5
5C4
330
5A7
100
AcDbEntity
  8
Ebene 1
370
     0
100
AcDbVertex
100
AcDb2dVertex
 10
393.2939453125
 20
835.3525390625
 30
0.0
  0
VERTEX
  5
5C5
330
5A7
100
AcDbEntity
  8
Ebene 1
370
     0
100
AcDbVertex
100
AcDb2dVertex
 10
393.603515625
 20
834.5146484375
 30
0.0
  0
VERTEX
  5
5C6
330
5A7
100
AcDbEntity
  8
Ebene 1
370
     0
100
AcDbVertex
100
AcDb2dVertex
 10
394.0439453125
 20
833.720703125
 30
0.0
  0
VERTEX
  5
5C7
330
5A7
100
AcDbEntity
  8
Ebene 1
370
     0
100
AcDbVertex
100
AcDb2dVertex
 10
394.529296875
 20
833.0146484375
 30
0.0
  0
VERTEX
  5
5C8
330
5A7
100
AcDbEntity
  8
Ebene 1
370
     0
100
AcDbVertex
100
AcDb2dVertex
 10
395.146484375
 20
832.3525390625
 30
0.0
  0
VERTEX
  5
5C9
330
5A7
100
AcDbEntity
  8
Ebene 1
370
     0
100
AcDbVertex
100
AcDb2dVertex
 10
395.853515625
 20
831.7353515625
 30
0.0
  0
VERTEX
  5
5CA
330
5A7
100
AcDbEntity
  8
Ebene 1
370
     0
100
AcDbVertex
100
AcDb2dVertex
 10
396.603515625
 20
831.25
 30
0.0
  0
VERTEX
  5
5CB
330
5A7
100
AcDbEntity
  8
Ebene 1
370
     0
100
AcDbVertex
100
AcDb2dVertex
 10
397.396484375
 20
830.8525390625
 30
0.0
  0
VERTEX
  5
5CC
330
5A7
100
AcDbEntity
  8
Ebene 1
370
     0
100
AcDbVertex
100
AcDb2dVertex
 10
398.2353515625
 20
830.5439453125
 30
0.0
  0
VERTEX
  5
5CD
330
5A7
100
AcDbEntity
  8
Ebene 1
370
     0
100
AcDbVertex
100
AcDb2dVertex
 10
399.1171875
 20
830.3671875
 30
0.0
  0
VERTEX
  5
5CE
330
5A7
100
AcDbEntity
  8
Ebene 1
370
     0
100
AcDbVertex
100
AcDb2dVertex
 10
400.0
 20
830.279296875
 30
0.0
  0
VERTEX
  5
5CF
330
5A7
100
AcDbEntity
  8
Ebene 1
370
     0
100
AcDbVertex
100
AcDb2dVertex
 10
400.8828125
 20
830.3232421875
 30
0.0
  0
VERTEX
  5
5D0
330
5A7
100
AcDbEntity
  8
Ebene 1
370
     0
100
AcDbVertex
100
AcDb2dVertex
 10
401.7646484375
 20
830.4560546875
 30
0.0
  0
VERTEX
  5
5D1
330
5A7
100
AcDbEntity
  8
Ebene 1
370
     0
100
AcDbVertex
100
AcDb2dVertex
 10
402.646484375
 20
830.67578125
 30
0.0
  0
VERTEX
  5
5D2
330
5A7
100
AcDbEntity
  8
Ebene 1
370
     0
100
AcDbVertex
100
AcDb2dVertex
 10
403.4853515625
 20
831.029296875
 30
0.0
  0
VERTEX
  5
5D3
330
5A7
100
AcDbEntity
  8
Ebene 1
370
     0
100
AcDbVertex
100
AcDb2dVertex
 10
404.2353515625
 20
831.470703125
 30
0.0
  0
VERTEX
  5
5D4
330
5A7
100
AcDbEntity
  8
Ebene 1
370
     0
100
AcDbVertex
100
AcDb2dVertex
 10
404.94140625
 20
832.0439453125
 30
0.0
  0
VERTEX
  5
5D5
330
5A7
100
AcDbEntity
  8
Ebene 1
370
     0
100
AcDbVertex
100
AcDb2dVertex
 10
405.603515625
 20
832.6611328125
 30
0.0
  0
VERTEX
  5
5D6
330
5A7
100
AcDbEntity
  8
Ebene 1
370
     0
100
AcDbVertex
100
AcDb2dVertex
 10
406.17578125
 20
833.3671875
 30
0.0
  0
VERTEX
  5
5D7
330
5A7
100
AcDbEntity
  8
Ebene 1
370
     0
100
AcDbVertex
100
AcDb2dVertex
 10
406.6171875
 20
834.1171875
 30
0.0
  0
VERTEX
  5
5D8
330
5A7
100
AcDbEntity
  8
Ebene 1
370
     0
100
AcDbVertex
100
AcDb2dVertex
 10
407.0146484375
 20
834.9111328125
 30
0.0
  0
VERTEX
  5
5D9
330
5A7
100
AcDbEntity
  8
Ebene 1
370
     0
100
AcDbVertex
100
AcDb2dVertex
 10
407.279296875
 20
835.7939453125
 30
0.0
  0
VERTEX
  5
5DA
330
5A7
100
AcDbEntity
  8
Ebene 1
370
     0
100
AcDbVertex
100
AcDb2dVertex
 10
407.4560546875
 20
836.67626953125
 30
0.0
  0
VERTEX
  5
5DB
330
5A7
100
AcDbEntity
  8
Ebene 1
370
     0
100
AcDbVertex
100
AcDb2dVertex
 10
407.5
 20
837.55859375
 30
0.0
  0
VERTEX
  5
5DC
330
5A7
100
AcDbEntity
  8
Ebene 1
370
     0
100
AcDbVertex
100
AcDb2dVertex
 10
407.5
 20
837.55859375
 30
0.0
  0
SEQEND
  5
5DD
330
5A7
100
AcDbEntity
  8
Ebene 1
370
     0
  0
POLYLINE
  5
5DE
330
3C
100
AcDbEntity
  8
Ebene 1
370
     0
100
AcDb2dPolyline
 66
     1
 10
0.0
 20
0.0
 30
0.0
  0
VERTEX
  5
5DF
330
5DE
100
AcDbEntity
  8
Ebene 1
370
     0
100
AcDbVertex
100
AcDb2dVertex
 10
400.220703125
 20
837.55859375
 30
0.0
  0
VERTEX
  5
5E0
330
5DE
100
AcDbEntity
  8
Ebene 1
370
     0
100
AcDbVertex
100
AcDb2dVertex
 10
400.220703125
 20
845.80859375
 30
0.0
  0
SEQEND
  5
5E1
330
5DE
100
AcDbEntity
  8
Ebene 1
370
     0
  0
POLYLINE
  5
5E2
330
3C
100
AcDbEntity
  8
Ebene 1
370
     0
100
AcDb2dPolyline
 66
     1
 10
0.0
 20
0.0
 30
0.0
  0
VERTEX
  5
5E3
330
5E2
100
AcDbEntity
  8
Ebene 1
370
     0
100
AcDbVertex
100
AcDb2dVertex
 10
400.220703125
 20
837.55859375
 30
0.0
  0
VERTEX
  5
5E4
330
5E2
100
AcDbEntity
  8
Ebene 1
370
     0
100
AcDbVertex
100
AcDb2dVertex
 10
408.42578125
 20
837.55859375
 30
0.0
  0
SEQEND
  5
5E5
330
5E2
100
AcDbEntity
  8
Ebene 1
370
     0
  0
POLYLINE
  5
5E6
330
3C
100
AcDbEntity
  8
Ebene 1
370
     0
100
AcDb2dPolyline
 66
     1
 10
0.0
 20
0.0
 30
0.0
  0
VERTEX
  5
5E7
330
5E6
100
AcDbEntity
  8
Ebene 1
370
     0
100
AcDbVertex
100
AcDb2dVertex
 10
400.220703125
 20
837.55859375
 30
0.0
  0
VERTEX
  5
5E8
330
5E6
100
AcDbEntity
  8
Ebene 1
370
     0
100
AcDbVertex
100
AcDb2dVertex
 10
400.220703125
 20
829.3525390625
 30
0.0
  0
SEQEND
  5
5E9
330
5E6
100
AcDbEntity
  8
Ebene 1
370
     0
  0
POLYLINE
  5
5EA
330
3C
100
AcDbEntity
  8
Ebene 1
370
     0
100
AcDb2dPolyline
 66
     1
 10
0.0
 20
0.0
 30
0.0
  0
VERTEX
  5
5EB
330
5EA
100
AcDbEntity
  8
Ebene 1
370
     0
100
AcDbVertex
100
AcDb2dVertex
 10
400.220703125
 20
837.55859375
 30
0.0
  0
VERTEX
  5
5EC
330
5EA
100
AcDbEntity
  8
Ebene 1
370
     0
100
AcDbVertex
100
AcDb2dVertex
 10
391.970703125
 20
837.55859375
 30
0.0
  0
SEQEND
  5
5ED
330
5EA
100
AcDbEntity
  8
Ebene 1
370
     0
  0
POLYLINE
  5
5EE
330
3C
100
AcDbEntity
  8
Ebene 1
370
     0
100
AcDb2dPolyline
 66
     1
 10
0.0
 20
0.0
 30
0.0
  0
VERTEX
  5
5EF
330
5EE
100
AcDbEntity
  8
Ebene 1
370
     0
100
AcDbVertex
100
AcDb2dVertex
 10
447.25
 20
837.55859375
 30
0.0
  0
VERTEX
  5
5F0
330
5EE
100
AcDbEntity
  8
Ebene 1
370
     0
100
AcDbVertex
100
AcDb2dVertex
 10
447.2060546875
 20
838.44091796875
 30
0.0
  0
VERTEX
  5
5F1
330
5EE
100
AcDbEntity
  8
Ebene 1
370
     0
100
AcDbVertex
100
AcDb2dVertex
 10
447.029296875
 20
839.3232421875
 30
0.0
  0
VERTEX
  5
5F2
330
5EE
100
AcDbEntity
  8
Ebene 1
370
     0
100
AcDbVertex
100
AcDb2dVertex
 10
446.7646484375
 20
840.20556640625
 30
0.0
  0
VERTEX
  5
5F3
330
5EE
100
AcDbEntity
  8
Ebene 1
370
     0
100
AcDbVertex
100
AcDb2dVertex
 10
446.3671875
 20
841.0
 30
0.0
  0
VERTEX
  5
5F4
330
5EE
100
AcDbEntity
  8
Ebene 1
370
     0
100
AcDbVertex
100
AcDb2dVertex
 10
445.92578125
 20
841.75
 30
0.0
  0
VERTEX
  5
5F5
330
5EE
100
AcDbEntity
  8
Ebene 1
370
     0
100
AcDbVertex
100
AcDb2dVertex
 10
445.353515625
 20
842.45556640625
 30
0.0
  0
VERTEX
  5
5F6
330
5EE
100
AcDbEntity
  8
Ebene 1
370
     0
100
AcDbVertex
100
AcDb2dVertex
 10
444.69140625
 20
843.0732421875
 30
0.0
  0
VERTEX
  5
5F7
330
5EE
100
AcDbEntity
  8
Ebene 1
370
     0
100
AcDbVertex
100
AcDb2dVertex
 10
443.9853515625
 20
843.64697265625
 30
0.0
  0
VERTEX
  5
5F8
330
5EE
100
AcDbEntity
  8
Ebene 1
370
     0
100
AcDbVertex
100
AcDb2dVertex
 10
443.2353515625
 20
844.087890625
 30
0.0
  0
VERTEX
  5
5F9
330
5EE
100
AcDbEntity
  8
Ebene 1
370
     0
100
AcDbVertex
100
AcDb2dVertex
 10
442.396484375
 20
844.44091796875
 30
0.0
  0
VERTEX
  5
5FA
330
5EE
100
AcDbEntity
  8
Ebene 1
370
     0
100
AcDbVertex
100
AcDb2dVertex
 10
441.5146484375
 20
844.66162109375
 30
0.0
  0
VERTEX
  5
5FB
330
5EE
100
AcDbEntity
  8
Ebene 1
370
     0
100
AcDbVertex
100
AcDb2dVertex
 10
440.6328125
 20
844.7939453125
 30
0.0
  0
VERTEX
  5
5FC
330
5EE
100
AcDbEntity
  8
Ebene 1
370
     0
100
AcDbVertex
100
AcDb2dVertex
 10
439.75
 20
844.837890625
 30
0.0
  0
VERTEX
  5
5FD
330
5EE
100
AcDbEntity
  8
Ebene 1
370
     0
100
AcDbVertex
100
AcDb2dVertex
 10
438.8671875
 20
844.75
 30
0.0
  0
VERTEX
  5
5FE
330
5EE
100
AcDbEntity
  8
Ebene 1
370
     0
100
AcDbVertex
100
AcDb2dVertex
 10
437.9853515625
 20
844.5732421875
 30
0.0
  0
VERTEX
  5
5FF
330
5EE
100
AcDbEntity
  8
Ebene 1
370
     0
100
AcDbVertex
100
AcDb2dVertex
 10
437.146484375
 20
844.2646484375
 30
0.0
  0
VERTEX
  5
600
330
5EE
100
AcDbEntity
  8
Ebene 1
370
     0
100
AcDbVertex
100
AcDb2dVertex
 10
436.353515625
 20
843.8671875
 30
0.0
  0
VERTEX
  5
601
330
5EE
100
AcDbEntity
  8
Ebene 1
370
     0
100
AcDbVertex
100
AcDb2dVertex
 10
435.603515625
 20
843.38232421875
 30
0.0
  0
VERTEX
  5
602
330
5EE
100
AcDbEntity
  8
Ebene 1
370
     0
100
AcDbVertex
100
AcDb2dVertex
 10
434.896484375
 20
842.7646484375
 30
0.0
  0
VERTEX
  5
603
330
5EE
100
AcDbEntity
  8
Ebene 1
370
     0
100
AcDbVertex
100
AcDb2dVertex
 10
434.279296875
 20
842.1025390625
 30
0.0
  0
VERTEX
  5
604
330
5EE
100
AcDbEntity
  8
Ebene 1
370
     0
100
AcDbVertex
100
AcDb2dVertex
 10
433.7939453125
 20
841.39697265625
 30
0.0
  0
VERTEX
  5
605
330
5EE
100
AcDbEntity
  8
Ebene 1
370
     0
100
AcDbVertex
100
AcDb2dVertex
 10
433.353515625
 20
840.6025390625
 30
0.0
  0
VERTEX
  5
606
330
5EE
100
AcDbEntity
  8
Ebene 1
370
     0
100
AcDbVertex
100
AcDb2dVertex
 10
433.0439453125
 20
839.7646484375
 30
0.0
  0
VERTEX
  5
607
330
5EE
100
AcDbEntity
  8
Ebene 1
370
     0
100
AcDbVertex
100
AcDb2dVertex
 10
432.82421875
 20
838.88232421875
 30
0.0
  0
VERTEX
  5
608
330
5EE
100
AcDbEntity
  8
Ebene 1
370
     0
100
AcDbVertex
100
AcDb2dVertex
 10
432.69140625
 20
838.0
 30
0.0
  0
VERTEX
  5
609
330
5EE
100
AcDbEntity
  8
Ebene 1
370
     0
100
AcDbVertex
100
AcDb2dVertex
 10
432.69140625
 20
837.1171875
 30
0.0
  0
VERTEX
  5
60A
330
5EE
100
AcDbEntity
  8
Ebene 1
370
     0
100
AcDbVertex
100
AcDb2dVertex
 10
432.82421875
 20
836.23486328125
 30
0.0
  0
VERTEX
  5
60B
330
5EE
100
AcDbEntity
  8
Ebene 1
370
     0
100
AcDbVertex
100
AcDb2dVertex
 10
433.0439453125
 20
835.3525390625
 30
0.0
  0
VERTEX
  5
60C
330
5EE
100
AcDbEntity
  8
Ebene 1
370
     0
100
AcDbVertex
100
AcDb2dVertex
 10
433.353515625
 20
834.5146484375
 30
0.0
  0
VERTEX
  5
60D
330
5EE
100
AcDbEntity
  8
Ebene 1
370
     0
100
AcDbVertex
100
AcDb2dVertex
 10
433.7939453125
 20
833.720703125
 30
0.0
  0
VERTEX
  5
60E
330
5EE
100
AcDbEntity
  8
Ebene 1
370
     0
100
AcDbVertex
100
AcDb2dVertex
 10
434.279296875
 20
833.0146484375
 30
0.0
  0
VERTEX
  5
60F
330
5EE
100
AcDbEntity
  8
Ebene 1
370
     0
100
AcDbVertex
100
AcDb2dVertex
 10
434.896484375
 20
832.3525390625
 30
0.0
  0
VERTEX
  5
610
330
5EE
100
AcDbEntity
  8
Ebene 1
370
     0
100
AcDbVertex
100
AcDb2dVertex
 10
435.603515625
 20
831.7353515625
 30
0.0
  0
VERTEX
  5
611
330
5EE
100
AcDbEntity
  8
Ebene 1
370
     0
100
AcDbVertex
100
AcDb2dVertex
 10
436.353515625
 20
831.25
 30
0.0
  0
VERTEX
  5
612
330
5EE
100
AcDbEntity
  8
Ebene 1
370
     0
100
AcDbVertex
100
AcDb2dVertex
 10
437.146484375
 20
830.8525390625
 30
0.0
  0
VERTEX
  5
613
330
5EE
100
AcDbEntity
  8
Ebene 1
370
     0
100
AcDbVertex
100
AcDb2dVertex
 10
437.9853515625
 20
830.5439453125
 30
0.0
  0
VERTEX
  5
614
330
5EE
100
AcDbEntity
  8
Ebene 1
370
     0
100
AcDbVertex
100
AcDb2dVertex
 10
438.8671875
 20
830.3671875
 30
0.0
  0
VERTEX
  5
615
330
5EE
100
AcDbEntity
  8
Ebene 1
370
     0
100
AcDbVertex
100
AcDb2dVertex
 10
439.75
 20
830.279296875
 30
0.0
  0
VERTEX
  5
616
330
5EE
100
AcDbEntity
  8
Ebene 1
370
     0
100
AcDbVertex
100
AcDb2dVertex
 10
440.6328125
 20
830.3232421875
 30
0.0
  0
VERTEX
  5
617
330
5EE
100
AcDbEntity
  8
Ebene 1
370
     0
100
AcDbVertex
100
AcDb2dVertex
 10
441.5146484375
 20
830.4560546875
 30
0.0
  0
VERTEX
  5
618
330
5EE
100
AcDbEntity
  8
Ebene 1
370
     0
100
AcDbVertex
100
AcDb2dVertex
 10
442.396484375
 20
830.67578125
 30
0.0
  0
VERTEX
  5
619
330
5EE
100
AcDbEntity
  8
Ebene 1
370
     0
100
AcDbVertex
100
AcDb2dVertex
 10
443.2353515625
 20
831.029296875
 30
0.0
  0
VERTEX
  5
61A
330
5EE
100
AcDbEntity
  8
Ebene 1
370
     0
100
AcDbVertex
100
AcDb2dVertex
 10
443.9853515625
 20
831.470703125
 30
0.0
  0
VERTEX
  5
61B
330
5EE
100
AcDbEntity
  8
Ebene 1
370
     0
100
AcDbVertex
100
AcDb2dVertex
 10
444.69140625
 20
832.0439453125
 30
0.0
  0
VERTEX
  5
61C
330
5EE
100
AcDbEntity
  8
Ebene 1
370
     0
100
AcDbVertex
100
AcDb2dVertex
 10
445.353515625
 20
832.6611328125
 30
0.0
  0
VERTEX
  5
61D
330
5EE
100
AcDbEntity
  8
Ebene 1
370
     0
100
AcDbVertex
100
AcDb2dVertex
 10
445.92578125
 20
833.3671875
 30
0.0
  0
VERTEX
  5
61E
330
5EE
100
AcDbEntity
  8
Ebene 1
370
     0
100
AcDbVertex
100
AcDb2dVertex
 10
446.3671875
 20
834.1171875
 30
0.0
  0
VERTEX
  5
61F
330
5EE
100
AcDbEntity
  8
Ebene 1
370
     0
100
AcDbVertex
100
AcDb2dVertex
 10
446.7646484375
 20
834.9111328125
 30
0.0
  0
VERTEX
  5
620
330
5EE
100
AcDbEntity
  8
Ebene 1
370
     0
100
AcDbVertex
100
AcDb2dVertex
 10
447.029296875
 20
835.7939453125
 30
0.0
  0
VERTEX
  5
621
330
5EE
100
AcDbEntity
  8
Ebene 1
370
     0
100
AcDbVertex
100
AcDb2dVertex
 10
447.2060546875
 20
836.67626953125
 30
0.0
  0
VERTEX
  5
622
330
5EE
100
AcDbEntity
  8
Ebene 1
370
     0
100
AcDbVertex
100
AcDb2dVertex
 10
447.25
 20
837.55859375
 30
0.0
  0
VERTEX
  5
623
330
5EE
100
AcDbEntity
  8
Ebene 1
370
     0
100
AcDbVertex
100
AcDb2dVertex
 10
447.25
 20
837.55859375
 30
0.0
  0
SEQEND
  5
624
330
5EE
100
AcDbEntity
  8
Ebene 1
370
     0
  0
POLYLINE
  5
625
330
3C
100
AcDbEntity
  8
Ebene 1
370
     0
100
AcDb2dPolyline
 66
     1
 10
0.0
 20
0.0
 30
0.0
  0
VERTEX
  5
626
330
625
100
AcDbEntity
  8
Ebene 1
370
     0
100
AcDbVertex
100
AcDb2dVertex
 10
439.970703125
 20
837.55859375
 30
0.0
  0
VERTEX
  5
627
330
625
100
AcDbEntity
  8
Ebene 1
370
     0
100
AcDbVertex
100
AcDb2dVertex
 10
439.970703125
 20
845.80859375
 30
0.0
  0
SEQEND
  5
628
330
625
100
AcDbEntity
  8
Ebene 1
370
     0
  0
POLYLINE
  5
629
330
3C
100
AcDbEntity
  8
Ebene 1
370
     0
100
AcDb2dPolyline
 66
     1
 10
0.0
 20
0.0
 30
0.0
  0
VERTEX
  5
62A
330
629
100
AcDbEntity
  8
Ebene 1
370
     0
100
AcDbVertex
100
AcDb2dVertex
 10
439.970703125
 20
837.55859375
 30
0.0
  0
VERTEX
  5
62B
330
629
100
AcDbEntity
  8
Ebene 1
370
     0
100
AcDbVertex
100
AcDb2dVertex
 10
448.17578125
 20
837.55859375
 30
0.0
  0
SEQEND
  5
62C
330
629
100
AcDbEntity
  8
Ebene 1
370
     0
  0
POLYLINE
  5
62D
330
3C
100
AcDbEntity
  8
Ebene 1
370
     0
100
AcDb2dPolyline
 66
     1
 10
0.0
 20
0.0
 30
0.0
  0
VERTEX
  5
62E
330
62D
100
AcDbEntity
  8
Ebene 1
370
     0
100
AcDbVertex
100
AcDb2dVertex
 10
439.970703125
 20
837.55859375
 30
0.0
  0
VERTEX
  5
62F
330
62D
100
AcDbEntity
  8
Ebene 1
370
     0
100
AcDbVertex
100
AcDb2dVertex
 10
439.970703125
 20
829.3525390625
 30
0.0
  0
SEQEND
  5
630
330
62D
100
AcDbEntity
  8
Ebene 1
370
     0
  0
POLYLINE
  5
631
330
3C
100
AcDbEntity
  8
Ebene 1
370
     0
100
AcDb2dPolyline
 66
     1
 10
0.0
 20
0.0
 30
0.0
  0
VERTEX
  5
632
330
631
100
AcDbEntity
  8
Ebene 1
370
     0
100
AcDbVertex
100
AcDb2dVertex
 10
439.970703125
 20
837.55859375
 30
0.0
  0
VERTEX
  5
633
330
631
100
AcDbEntity
  8
Ebene 1
370
     0
100
AcDbVertex
100
AcDb2dVertex
 10
431.720703125
 20
837.55859375
 30
0.0
  0
SEQEND
  5
634
330
631
100
AcDbEntity
  8
Ebene 1
370
     0
  0
POLYLINE
  5
635
330
3C
100
AcDbEntity
  8
Ebene 1
370
     0
100
AcDb2dPolyline
 66
     1
 10
0.0
 20
0.0
 30
0.0
  0
VERTEX
  5
636
330
635
100
AcDbEntity
  8
Ebene 1
370
     0
100
AcDbVertex
100
AcDb2dVertex
 10
407.5
 20
870.73486328125
 30
0.0
  0
VERTEX
  5
637
330
635
100
AcDbEntity
  8
Ebene 1
370
     0
100
AcDbVertex
100
AcDb2dVertex
 10
407.4560546875
 20
871.6171875
 30
0.0
  0
VERTEX
  5
638
330
635
100
AcDbEntity
  8
Ebene 1
370
     0
100
AcDbVertex
100
AcDb2dVertex
 10
407.279296875
 20
872.5
 30
0.0
  0
VERTEX
  5
639
330
635
100
AcDbEntity
  8
Ebene 1
370
     0
100
AcDbVertex
100
AcDb2dVertex
 10
407.0146484375
 20
873.38232421875
 30
0.0
  0
VERTEX
  5
63A
330
635
100
AcDbEntity
  8
Ebene 1
370
     0
100
AcDbVertex
100
AcDb2dVertex
 10
406.6171875
 20
874.17626953125
 30
0.0
  0
VERTEX
  5
63B
330
635
100
AcDbEntity
  8
Ebene 1
370
     0
100
AcDbVertex
100
AcDb2dVertex
 10
406.17578125
 20
874.92626953125
 30
0.0
  0
VERTEX
  5
63C
330
635
100
AcDbEntity
  8
Ebene 1
370
     0
100
AcDbVertex
100
AcDb2dVertex
 10
405.603515625
 20
875.63232421875
 30
0.0
  0
VERTEX
  5
63D
330
635
100
AcDbEntity
  8
Ebene 1
370
     0
100
AcDbVertex
100
AcDb2dVertex
 10
404.94140625
 20
876.25
 30
0.0
  0
VERTEX
  5
63E
330
635
100
AcDbEntity
  8
Ebene 1
370
     0
100
AcDbVertex
100
AcDb2dVertex
 10
404.2353515625
 20
876.8232421875
 30
0.0
  0
VERTEX
  5
63F
330
635
100
AcDbEntity
  8
Ebene 1
370
     0
100
AcDbVertex
100
AcDb2dVertex
 10
403.4853515625
 20
877.2646484375
 30
0.0
  0
VERTEX
  5
640
330
635
100
AcDbEntity
  8
Ebene 1
370
     0
100
AcDbVertex
100
AcDb2dVertex
 10
402.646484375
 20
877.6171875
 30
0.0
  0
VERTEX
  5
641
330
635
100
AcDbEntity
  8
Ebene 1
370
     0
100
AcDbVertex
100
AcDb2dVertex
 10
401.7646484375
 20
877.837890625
 30
0.0
  0
VERTEX
  5
642
330
635
100
AcDbEntity
  8
Ebene 1
370
     0
100
AcDbVertex
100
AcDb2dVertex
 10
400.8828125
 20
877.97021484375
 30
0.0
  0
VERTEX
  5
643
330
635
100
AcDbEntity
  8
Ebene 1
370
     0
100
AcDbVertex
100
AcDb2dVertex
 10
400.0
 20
878.0146484375
 30
0.0
  0
VERTEX
  5
644
330
635
100
AcDbEntity
  8
Ebene 1
370
     0
100
AcDbVertex
100
AcDb2dVertex
 10
399.1171875
 20
877.92626953125
 30
0.0
  0
VERTEX
  5
645
330
635
100
AcDbEntity
  8
Ebene 1
370
     0
100
AcDbVertex
100
AcDb2dVertex
 10
398.2353515625
 20
877.75
 30
0.0
  0
VERTEX
  5
646
330
635
100
AcDbEntity
  8
Ebene 1
370
     0
100
AcDbVertex
100
AcDb2dVertex
 10
397.396484375
 20
877.44091796875
 30
0.0
  0
VERTEX
  5
647
330
635
100
AcDbEntity
  8
Ebene 1
370
     0
100
AcDbVertex
100
AcDb2dVertex
 10
396.603515625
 20
877.0439453125
 30
0.0
  0
VERTEX
  5
648
330
635
100
AcDbEntity
  8
Ebene 1
370
     0
100
AcDbVertex
100
AcDb2dVertex
 10
395.853515625
 20
876.55859375
 30
0.0
  0
VERTEX
  5
649
330
635
100
AcDbEntity
  8
Ebene 1
370
     0
100
AcDbVertex
100
AcDb2dVertex
 10
395.146484375
 20
875.94091796875
 30
0.0
  0
VERTEX
  5
64A
330
635
100
AcDbEntity
  8
Ebene 1
370
     0
100
AcDbVertex
100
AcDb2dVertex
 10
394.529296875
 20
875.279296875
 30
0.0
  0
VERTEX
  5
64B
330
635
100
AcDbEntity
  8
Ebene 1
370
     0
100
AcDbVertex
100
AcDb2dVertex
 10
394.0439453125
 20
874.5732421875
 30
0.0
  0
VERTEX
  5
64C
330
635
100
AcDbEntity
  8
Ebene 1
370
     0
100
AcDbVertex
100
AcDb2dVertex
 10
393.603515625
 20
873.779296875
 30
0.0
  0
VERTEX
  5
64D
330
635
100
AcDbEntity
  8
Ebene 1
370
     0
100
AcDbVertex
100
AcDb2dVertex
 10
393.2939453125
 20
872.94091796875
 30
0.0
  0
VERTEX
  5
64E
330
635
100
AcDbEntity
  8
Ebene 1
370
     0
100
AcDbVertex
100
AcDb2dVertex
 10
393.07421875
 20
872.05859375
 30
0.0
  0
VERTEX
  5
64F
330
635
100
AcDbEntity
  8
Ebene 1
370
     0
100
AcDbVertex
100
AcDb2dVertex
 10
392.94140625
 20
871.17626953125
 30
0.0
  0
VERTEX
  5
650
330
635
100
AcDbEntity
  8
Ebene 1
370
     0
100
AcDbVertex
100
AcDb2dVertex
 10
392.94140625
 20
870.2939453125
 30
0.0
  0
VERTEX
  5
651
330
635
100
AcDbEntity
  8
Ebene 1
370
     0
100
AcDbVertex
100
AcDb2dVertex
 10
393.07421875
 20
869.41162109375
 30
0.0
  0
VERTEX
  5
652
330
635
100
AcDbEntity
  8
Ebene 1
370
     0
100
AcDbVertex
100
AcDb2dVertex
 10
393.2939453125
 20
868.529296875
 30
0.0
  0
VERTEX
  5
653
330
635
100
AcDbEntity
  8
Ebene 1
370
     0
100
AcDbVertex
100
AcDb2dVertex
 10
393.603515625
 20
867.69091796875
 30
0.0
  0
VERTEX
  5
654
330
635
100
AcDbEntity
  8
Ebene 1
370
     0
100
AcDbVertex
100
AcDb2dVertex
 10
394.0439453125
 20
866.89697265625
 30
0.0
  0
VERTEX
  5
655
330
635
100
AcDbEntity
  8
Ebene 1
370
     0
100
AcDbVertex
100
AcDb2dVertex
 10
394.529296875
 20
866.19091796875
 30
0.0
  0
VERTEX
  5
656
330
635
100
AcDbEntity
  8
Ebene 1
370
     0
100
AcDbVertex
100
AcDb2dVertex
 10
395.146484375
 20
865.529296875
 30
0.0
  0
VERTEX
  5
657
330
635
100
AcDbEntity
  8
Ebene 1
370
     0
100
AcDbVertex
100
AcDb2dVertex
 10
395.853515625
 20
864.91162109375
 30
0.0
  0
VERTEX
  5
658
330
635
100
AcDbEntity
  8
Ebene 1
370
     0
100
AcDbVertex
100
AcDb2dVertex
 10
396.603515625
 20
864.42626953125
 30
0.0
  0
VERTEX
  5
659
330
635
100
AcDbEntity
  8
Ebene 1
370
     0
100
AcDbVertex
100
AcDb2dVertex
 10
397.396484375
 20
864.029296875
 30
0.0
  0
VERTEX
  5
65A
330
635
100
AcDbEntity
  8
Ebene 1
370
     0
100
AcDbVertex
100
AcDb2dVertex
 10
398.2353515625
 20
863.72021484375
 30
0.0
  0
VERTEX
  5
65B
330
635
100
AcDbEntity
  8
Ebene 1
370
     0
100
AcDbVertex
100
AcDb2dVertex
 10
399.1171875
 20
863.5439453125
 30
0.0
  0
VERTEX
  5
65C
330
635
100
AcDbEntity
  8
Ebene 1
370
     0
100
AcDbVertex
100
AcDb2dVertex
 10
400.0
 20
863.45556640625
 30
0.0
  0
VERTEX
  5
65D
330
635
100
AcDbEntity
  8
Ebene 1
370
     0
100
AcDbVertex
100
AcDb2dVertex
 10
400.8828125
 20
863.5
 30
0.0
  0
VERTEX
  5
65E
330
635
100
AcDbEntity
  8
Ebene 1
370
     0
100
AcDbVertex
100
AcDb2dVertex
 10
401.7646484375
 20
863.63232421875
 30
0.0
  0
VERTEX
  5
65F
330
635
100
AcDbEntity
  8
Ebene 1
370
     0
100
AcDbVertex
100
AcDb2dVertex
 10
402.646484375
 20
863.8525390625
 30
0.0
  0
VERTEX
  5
660
330
635
100
AcDbEntity
  8
Ebene 1
370
     0
100
AcDbVertex
100
AcDb2dVertex
 10
403.4853515625
 20
864.20556640625
 30
0.0
  0
VERTEX
  5
661
330
635
100
AcDbEntity
  8
Ebene 1
370
     0
100
AcDbVertex
100
AcDb2dVertex
 10
404.2353515625
 20
864.64697265625
 30
0.0
  0
VERTEX
  5
662
330
635
100
AcDbEntity
  8
Ebene 1
370
     0
100
AcDbVertex
100
AcDb2dVertex
 10
404.94140625
 20
865.22021484375
 30
0.0
  0
VERTEX
  5
663
330
635
100
AcDbEntity
  8
Ebene 1
370
     0
100
AcDbVertex
100
AcDb2dVertex
 10
405.603515625
 20
865.837890625
 30
0.0
  0
VERTEX
  5
664
330
635
100
AcDbEntity
  8
Ebene 1
370
     0
100
AcDbVertex
100
AcDb2dVertex
 10
406.17578125
 20
866.5439453125
 30
0.0
  0
VERTEX
  5
665
330
635
100
AcDbEntity
  8
Ebene 1
370
     0
100
AcDbVertex
100
AcDb2dVertex
 10
406.6171875
 20
867.2939453125
 30
0.0
  0
VERTEX
  5
666
330
635
100
AcDbEntity
  8
Ebene 1
370
     0
100
AcDbVertex
100
AcDb2dVertex
 10
407.0146484375
 20
868.087890625
 30
0.0
  0
VERTEX
  5
667
330
635
100
AcDbEntity
  8
Ebene 1
370
     0
100
AcDbVertex
100
AcDb2dVertex
 10
407.279296875
 20
868.97021484375
 30
0.0
  0
VERTEX
  5
668
330
635
100
AcDbEntity
  8
Ebene 1
370
     0
100
AcDbVertex
100
AcDb2dVertex
 10
407.4560546875
 20
869.8525390625
 30
0.0
  0
VERTEX
  5
669
330
635
100
AcDbEntity
  8
Ebene 1
370
     0
100
AcDbVertex
100
AcDb2dVertex
 10
407.5
 20
870.73486328125
 30
0.0
  0
VERTEX
  5
66A
330
635
100
AcDbEntity
  8
Ebene 1
370
     0
100
AcDbVertex
100
AcDb2dVertex
 10
407.5
 20
870.73486328125
 30
0.0
  0
SEQEND
  5
66B
330
635
100
AcDbEntity
  8
Ebene 1
370
     0
  0
POLYLINE
  5
66C
330
3C
100
AcDbEntity
  8
Ebene 1
370
     0
100
AcDb2dPolyline
 66
     1
 10
0.0
 20
0.0
 30
0.0
  0
VERTEX
  5
66D
330
66C
100
AcDbEntity
  8
Ebene 1
370
     0
100
AcDbVertex
100
AcDb2dVertex
 10
400.220703125
 20
870.73486328125
 30
0.0
  0
VERTEX
  5
66E
330
66C
100
AcDbEntity
  8
Ebene 1
370
     0
100
AcDbVertex
100
AcDb2dVertex
 10
400.220703125
 20
878.94091796875
 30
0.0
  0
SEQEND
  5
66F
330
66C
100
AcDbEntity
  8
Ebene 1
370
     0
  0
POLYLINE
  5
670
330
3C
100
AcDbEntity
  8
Ebene 1
370
     0
100
AcDb2dPolyline
 66
     1
 10
0.0
 20
0.0
 30
0.0
  0
VERTEX
  5
671
330
670
100
AcDbEntity
  8
Ebene 1
370
     0
100
AcDbVertex
100
AcDb2dVertex
 10
400.220703125
 20
870.73486328125
 30
0.0
  0
VERTEX
  5
672
330
670
100
AcDbEntity
  8
Ebene 1
370
     0
100
AcDbVertex
100
AcDb2dVertex
 10
408.42578125
 20
870.73486328125
 30
0.0
  0
SEQEND
  5
673
330
670
100
AcDbEntity
  8
Ebene 1
370
     0
  0
POLYLINE
  5
674
330
3C
100
AcDbEntity
  8
Ebene 1
370
     0
100
AcDb2dPolyline
 66
     1
 10
0.0
 20
0.0
 30
0.0
  0
VERTEX
  5
675
330
674
100
AcDbEntity
  8
Ebene 1
370
     0
100
AcDbVertex
100
AcDb2dVertex
 10
400.220703125
 20
870.73486328125
 30
0.0
  0
VERTEX
  5
676
330
674
100
AcDbEntity
  8
Ebene 1
370
     0
100
AcDbVertex
100
AcDb2dVertex
 10
400.220703125
 20
862.48486328125
 30
0.0
  0
SEQEND
  5
677
330
674
100
AcDbEntity
  8
Ebene 1
370
     0
  0
POLYLINE
  5
678
330
3C
100
AcDbEntity
  8
Ebene 1
370
     0
100
AcDb2dPolyline
 66
     1
 10
0.0
 20
0.0
 30
0.0
  0
VERTEX
  5
679
330
678
100
AcDbEntity
  8
Ebene 1
370
     0
100
AcDbVertex
100
AcDb2dVertex
 10
400.220703125
 20
870.73486328125
 30
0.0
  0
VERTEX
  5
67A
330
678
100
AcDbEntity
  8
Ebene 1
370
     0
100
AcDbVertex
100
AcDb2dVertex
 10
391.970703125
 20
870.73486328125
 30
0.0
  0
SEQEND
  5
67B
330
678
100
AcDbEntity
  8
Ebene 1
370
     0
  0
POLYLINE
  5
67C
330
3C
100
AcDbEntity
  8
Ebene 1
370
     0
100
AcDb2dPolyline
 66
     1
 10
0.0
 20
0.0
 30
0.0
  0
VERTEX
  5
67D
330
67C
100
AcDbEntity
  8
Ebene 1
370
     0
100
AcDbVertex
100
AcDb2dVertex
 10
447.25
 20
870.73486328125
 30
0.0
  0
VERTEX
  5
67E
330
67C
100
AcDbEntity
  8
Ebene 1
370
     0
100
AcDbVertex
100
AcDb2dVertex
 10
447.2060546875
 20
871.6171875
 30
0.0
  0
VERTEX
  5
67F
330
67C
100
AcDbEntity
  8
Ebene 1
370
     0
100
AcDbVertex
100
AcDb2dVertex
 10
447.029296875
 20
872.5
 30
0.0
  0
VERTEX
  5
680
330
67C
100
AcDbEntity
  8
Ebene 1
370
     0
100
AcDbVertex
100
AcDb2dVertex
 10
446.7646484375
 20
873.38232421875
 30
0.0
  0
VERTEX
  5
681
330
67C
100
AcDbEntity
  8
Ebene 1
370
     0
100
AcDbVertex
100
AcDb2dVertex
 10
446.3671875
 20
874.17626953125
 30
0.0
  0
VERTEX
  5
682
330
67C
100
AcDbEntity
  8
Ebene 1
370
     0
100
AcDbVertex
100
AcDb2dVertex
 10
445.92578125
 20
874.92626953125
 30
0.0
  0
VERTEX
  5
683
330
67C
100
AcDbEntity
  8
Ebene 1
370
     0
100
AcDbVertex
100
AcDb2dVertex
 10
445.353515625
 20
875.63232421875
 30
0.0
  0
VERTEX
  5
684
330
67C
100
AcDbEntity
  8
Ebene 1
370
     0
100
AcDbVertex
100
AcDb2dVertex
 10
444.69140625
 20
876.25
 30
0.0
  0
VERTEX
  5
685
330
67C
100
AcDbEntity
  8
Ebene 1
370
     0
100
AcDbVertex
100
AcDb2dVertex
 10
443.9853515625
 20
876.8232421875
 30
0.0
  0
VERTEX
  5
686
330
67C
100
AcDbEntity
  8
Ebene 1
370
     0
100
AcDbVertex
100
AcDb2dVertex
 10
443.2353515625
 20
877.2646484375
 30
0.0
  0
VERTEX
  5
687
330
67C
100
AcDbEntity
  8
Ebene 1
370
     0
100
AcDbVertex
100
AcDb2dVertex
 10
442.396484375
 20
877.6171875
 30
0.0
  0
VERTEX
  5
688
330
67C
100
AcDbEntity
  8
Ebene 1
370
     0
100
AcDbVertex
100
AcDb2dVertex
 10
441.5146484375
 20
877.837890625
 30
0.0
  0
VERTEX
  5
689
330
67C
100
AcDbEntity
  8
Ebene 1
370
     0
100
AcDbVertex
100
AcDb2dVertex
 10
440.6328125
 20
877.97021484375
 30
0.0
  0
VERTEX
  5
68A
330
67C
100
AcDbEntity
  8
Ebene 1
370
     0
100
AcDbVertex
100
AcDb2dVertex
 10
439.75
 20
878.0146484375
 30
0.0
  0
VERTEX
  5
68B
330
67C
100
AcDbEntity
  8
Ebene 1
370
     0
100
AcDbVertex
100
AcDb2dVertex
 10
438.8671875
 20
877.92626953125
 30
0.0
  0
VERTEX
  5
68C
330
67C
100
AcDbEntity
  8
Ebene 1
370
     0
100
AcDbVertex
100
AcDb2dVertex
 10
437.9853515625
 20
877.75
 30
0.0
  0
VERTEX
  5
68D
330
67C
100
AcDbEntity
  8
Ebene 1
370
     0
100
AcDbVertex
100
AcDb2dVertex
 10
437.146484375
 20
877.44091796875
 30
0.0
  0
VERTEX
  5
68E
330
67C
100
AcDbEntity
  8
Ebene 1
370
     0
100
AcDbVertex
100
AcDb2dVertex
 10
436.353515625
 20
877.0439453125
 30
0.0
  0
VERTEX
  5
68F
330
67C
100
AcDbEntity
  8
Ebene 1
370
     0
100
AcDbVertex
100
AcDb2dVertex
 10
435.603515625
 20
876.55859375
 30
0.0
  0
VERTEX
  5
690
330
67C
100
AcDbEntity
  8
Ebene 1
370
     0
100
AcDbVertex
100
AcDb2dVertex
 10
434.896484375
 20
875.94091796875
 30
0.0
  0
VERTEX
  5
691
330
67C
100
AcDbEntity
  8
Ebene 1
370
     0
100
AcDbVertex
100
AcDb2dVertex
 10
434.279296875
 20
875.279296875
 30
0.0
  0
VERTEX
  5
692
330
67C
100
AcDbEntity
  8
Ebene 1
370
     0
100
AcDbVertex
100
AcDb2dVertex
 10
433.7939453125
 20
874.5732421875
 30
0.0
  0
VERTEX
  5
693
330
67C
100
AcDbEntity
  8
Ebene 1
370
     0
100
AcDbVertex
100
AcDb2dVertex
 10
433.353515625
 20
873.779296875
 30
0.0
  0
VERTEX
  5
694
330
67C
100
AcDbEntity
  8
Ebene 1
370
     0
100
AcDbVertex
100
AcDb2dVertex
 10
433.0439453125
 20
872.94091796875
 30
0.0
  0
VERTEX
  5
695
330
67C
100
AcDbEntity
  8
Ebene 1
370
     0
100
AcDbVertex
100
AcDb2dVertex
 10
432.82421875
 20
872.05859375
 30
0.0
  0
VERTEX
  5
696
330
67C
100
AcDbEntity
  8
Ebene 1
370
     0
100
AcDbVertex
100
AcDb2dVertex
 10
432.69140625
 20
871.17626953125
 30
0.0
  0
VERTEX
  5
697
330
67C
100
AcDbEntity
  8
Ebene 1
370
     0
100
AcDbVertex
100
AcDb2dVertex
 10
432.69140625
 20
870.2939453125
 30
0.0
  0
VERTEX
  5
698
330
67C
100
AcDbEntity
  8
Ebene 1
370
     0
100
AcDbVertex
100
AcDb2dVertex
 10
432.82421875
 20
869.41162109375
 30
0.0
  0
VERTEX
  5
699
330
67C
100
AcDbEntity
  8
Ebene 1
370
     0
100
AcDbVertex
100
AcDb2dVertex
 10
433.0439453125
 20
868.529296875
 30
0.0
  0
VERTEX
  5
69A
330
67C
100
AcDbEntity
  8
Ebene 1
370
     0
100
AcDbVertex
100
AcDb2dVertex
 10
433.353515625
 20
867.69091796875
 30
0.0
  0
VERTEX
  5
69B
330
67C
100
AcDbEntity
  8
Ebene 1
370
     0
100
AcDbVertex
100
AcDb2dVertex
 10
433.7939453125
 20
866.89697265625
 30
0.0
  0
VERTEX
  5
69C
330
67C
100
AcDbEntity
  8
Ebene 1
370
     0
100
AcDbVertex
100
AcDb2dVertex
 10
434.279296875
 20
866.19091796875
 30
0.0
  0
VERTEX
  5
69D
330
67C
100
AcDbEntity
  8
Ebene 1
370
     0
100
AcDbVertex
100
AcDb2dVertex
 10
434.896484375
 20
865.529296875
 30
0.0
  0
VERTEX
  5
69E
330
67C
100
AcDbEntity
  8
Ebene 1
370
     0
100
AcDbVertex
100
AcDb2dVertex
 10
435.603515625
 20
864.91162109375
 30
0.0
  0
VERTEX
  5
69F
330
67C
100
AcDbEntity
  8
Ebene 1
370
     0
100
AcDbVertex
100
AcDb2dVertex
 10
436.353515625
 20
864.42626953125
 30
0.0
  0
VERTEX
  5
6A0
330
67C
100
AcDbEntity
  8
Ebene 1
370
     0
100
AcDbVertex
100
AcDb2dVertex
 10
437.146484375
 20
864.029296875
 30
0.0
  0
VERTEX
  5
6A1
330
67C
100
AcDbEntity
  8
Ebene 1
370
     0
100
AcDbVertex
100
AcDb2dVertex
 10
437.9853515625
 20
863.72021484375
 30
0.0
  0
VERTEX
  5
6A2
330
67C
100
AcDbEntity
  8
Ebene 1
370
     0
100
AcDbVertex
100
AcDb2dVertex
 10
438.8671875
 20
863.5439453125
 30
0.0
  0
VERTEX
  5
6A3
330
67C
100
AcDbEntity
  8
Ebene 1
370
     0
100
AcDbVertex
100
AcDb2dVertex
 10
439.75
 20
863.45556640625
 30
0.0
  0
VERTEX
  5
6A4
330
67C
100
AcDbEntity
  8
Ebene 1
370
     0
100
AcDbVertex
100
AcDb2dVertex
 10
440.6328125
 20
863.5
 30
0.0
  0
VERTEX
  5
6A5
330
67C
100
AcDbEntity
  8
Ebene 1
370
     0
100
AcDbVertex
100
AcDb2dVertex
 10
441.5146484375
 20
863.63232421875
 30
0.0
  0
VERTEX
  5
6A6
330
67C
100
AcDbEntity
  8
Ebene 1
370
     0
100
AcDbVertex
100
AcDb2dVertex
 10
442.396484375
 20
863.8525390625
 30
0.0
  0
VERTEX
  5
6A7
330
67C
100
AcDbEntity
  8
Ebene 1
370
     0
100
AcDbVertex
100
AcDb2dVertex
 10
443.2353515625
 20
864.20556640625
 30
0.0
  0
VERTEX
  5
6A8
330
67C
100
AcDbEntity
  8
Ebene 1
370
     0
100
AcDbVertex
100
AcDb2dVertex
 10
443.9853515625
 20
864.64697265625
 30
0.0
  0
VERTEX
  5
6A9
330
67C
100
AcDbEntity
  8
Ebene 1
370
     0
100
AcDbVertex
100
AcDb2dVertex
 10
444.69140625
 20
865.22021484375
 30
0.0
  0
VERTEX
  5
6AA
330
67C
100
AcDbEntity
  8
Ebene 1
370
     0
100
AcDbVertex
100
AcDb2dVertex
 10
445.353515625
 20
865.837890625
 30
0.0
  0
VERTEX
  5
6AB
330
67C
100
AcDbEntity
  8
Ebene 1
370
     0
100
AcDbVertex
100
AcDb2dVertex
 10
445.92578125
 20
866.5439453125
 30
0.0
  0
VERTEX
  5
6AC
330
67C
100
AcDbEntity
  8
Ebene 1
370
     0
100
AcDbVertex
100
AcDb2dVertex
 10
446.3671875
 20
867.2939453125
 30
0.0
  0
VERTEX
  5
6AD
330
67C
100
AcDbEntity
  8
Ebene 1
370
     0
100
AcDbVertex
100
AcDb2dVertex
 10
446.7646484375
 20
868.087890625
 30
0.0
  0
VERTEX
  5
6AE
330
67C
100
AcDbEntity
  8
Ebene 1
370
     0
100
AcDbVertex
100
AcDb2dVertex
 10
447.029296875
 20
868.97021484375
 30
0.0
  0
VERTEX
  5
6AF
330
67C
100
AcDbEntity
  8
Ebene 1
370
     0
100
AcDbVertex
100
AcDb2dVertex
 10
447.2060546875
 20
869.8525390625
 30
0.0
  0
VERTEX
  5
6B0
330
67C
100
AcDbEntity
  8
Ebene 1
370
     0
100
AcDbVertex
100
AcDb2dVertex
 10
447.25
 20
870.73486328125
 30
0.0
  0
VERTEX
  5
6B1
330
67C
100
AcDbEntity
  8
Ebene 1
370
     0
100
AcDbVertex
100
AcDb2dVertex
 10
447.25
 20
870.73486328125
 30
0.0
  0
SEQEND
  5
6B2
330
67C
100
AcDbEntity
  8
Ebene 1
370
     0
  0
POLYLINE
  5
6B3
330
3C
100
AcDbEntity
  8
Ebene 1
370
     0
100
AcDb2dPolyline
 66
     1
 10
0.0
 20
0.0
 30
0.0
  0
VERTEX
  5
6B4
330
6B3
100
AcDbEntity
  8
Ebene 1
370
     0
100
AcDbVertex
100
AcDb2dVertex
 10
439.970703125
 20
870.73486328125
 30
0.0
  0
VERTEX
  5
6B5
330
6B3
100
AcDbEntity
  8
Ebene 1
370
     0
100
AcDbVertex
100
AcDb2dVertex
 10
439.970703125
 20
878.94091796875
 30
0.0
  0
SEQEND
  5
6B6
330
6B3
100
AcDbEntity
  8
Ebene 1
370
     0
  0
POLYLINE
  5
6B7
330
3C
100
AcDbEntity
  8
Ebene 1
370
     0
100
AcDb2dPolyline
 66
     1
 10
0.0
 20
0.0
 30
0.0
  0
VERTEX
  5
6B8
330
6B7
100
AcDbEntity
  8
Ebene 1
370
     0
100
AcDbVertex
100
AcDb2dVertex
 10
439.970703125
 20
870.73486328125
 30
0.0
  0
VERTEX
  5
6B9
330
6B7
100
AcDbEntity
  8
Ebene 1
370
     0
100
AcDbVertex
100
AcDb2dVertex
 10
448.17578125
 20
870.73486328125
 30
0.0
  0
SEQEND
  5
6BA
330
6B7
100
AcDbEntity
  8
Ebene 1
370
     0
  0
POLYLINE
  5
6BB
330
3C
100
AcDbEntity
  8
Ebene 1
370
     0
100
AcDb2dPolyline
 66
     1
 10
0.0
 20
0.0
 30
0.0
  0
VERTEX
  5
6BC
330
6BB
100
AcDbEntity
  8
Ebene 1
370
     0
100
AcDbVertex
100
AcDb2dVertex
 10
439.970703125
 20
870.73486328125
 30
0.0
  0
VERTEX
  5
6BD
330
6BB
100
AcDbEntity
  8
Ebene 1
370
     0
100
AcDbVertex
100
AcDb2dVertex
 10
439.970703125
 20
862.48486328125
 30
0.0
  0
SEQEND
  5
6BE
330
6BB
100
AcDbEntity
  8
Ebene 1
370
     0
  0
POLYLINE
  5
6BF
330
3C
100
AcDbEntity
  8
Ebene 1
370
     0
100
AcDb2dPolyline
 66
     1
 10
0.0
 20
0.0
 30
0.0
  0
VERTEX
  5
6C0
330
6BF
100
AcDbEntity
  8
Ebene 1
370
     0
100
AcDbVertex
100
AcDb2dVertex
 10
439.970703125
 20
870.73486328125
 30
0.0
  0
VERTEX
  5
6C1
330
6BF
100
AcDbEntity
  8
Ebene 1
370
     0
100
AcDbVertex
100
AcDb2dVertex
 10
431.720703125
 20
870.73486328125
 30
0.0
  0
SEQEND
  5
6C2
330
6BF
100
AcDbEntity
  8
Ebene 1
370
     0
  0
POLYLINE
  5
6C3
330
3C
100
AcDbEntity
  8
Ebene 1
370
     0
100
AcDb2dPolyline
 66
     1
 10
0.0
 20
0.0
 30
0.0
  0
VERTEX
  5
6C4
330
6C3
100
AcDbEntity
  8
Ebene 1
370
     0
100
AcDbVertex
100
AcDb2dVertex
 10
457.17578125
 20
856.13232421875
 30
0.0
  0
VERTEX
  5
6C5
330
6C3
100
AcDbEntity
  8
Ebene 1
370
     0
100
AcDbVertex
100
AcDb2dVertex
 10
457.17578125
 20
883.97021484375
 30
0.0
  0
SEQEND
  5
6C6
330
6C3
100
AcDbEntity
  8
Ebene 1
370
     0
  0
POLYLINE
  5
6C7
330
3C
100
AcDbEntity
  8
Ebene 1
370
     0
100
AcDb2dPolyline
 66
     1
 10
0.0
 20
0.0
 30
0.0
  0
VERTEX
  5
6C8
330
6C7
100
AcDbEntity
  8
Ebene 1
370
     0
100
AcDbVertex
100
AcDb2dVertex
 10
485.587890625
 20
805.75
 30
0.0
  0
VERTEX
  5
6C9
330
6C7
100
AcDbEntity
  8
Ebene 1
370
     0
100
AcDbVertex
100
AcDb2dVertex
 10
471.2060546875
 20
805.75
 30
0.0
  0
SEQEND
  5
6CA
330
6C7
100
AcDbEntity
  8
Ebene 1
370
     0
  0
POLYLINE
  5
6CB
330
3C
100
AcDbEntity
  8
Ebene 1
370
     0
100
AcDb2dPolyline
 66
     1
 10
0.0
 20
0.0
 30
0.0
  0
VERTEX
  5
6CC
330
6CB
100
AcDbEntity
  8
Ebene 1
370
     0
100
AcDbVertex
100
AcDb2dVertex
 10
473.103515625
 20
790.8818359375
 30
0.0
  0
VERTEX
  5
6CD
330
6CB
100
AcDbEntity
  8
Ebene 1
370
     0
100
AcDbVertex
100
AcDb2dVertex
 10
483.69140625
 20
790.8818359375
 30
0.0
  0
SEQEND
  5
6CE
330
6CB
100
AcDbEntity
  8
Ebene 1
370
     0
  0
POLYLINE
  5
6CF
330
3C
100
AcDbEntity
  8
Ebene 1
370
     0
100
AcDb2dPolyline
 66
     1
 10
0.0
 20
0.0
 30
0.0
  0
VERTEX
  5
6D0
330
6CF
100
AcDbEntity
  8
Ebene 1
370
     0
100
AcDbVertex
100
AcDb2dVertex
 10
457.220703125
 20
856.13232421875
 30
0.0
  0
VERTEX
  5
6D1
330
6CF
100
AcDbEntity
  8
Ebene 1
370
     0
100
AcDbVertex
100
AcDb2dVertex
 10
457.2646484375
 20
855.2939453125
 30
0.0
  0
VERTEX
  5
6D2
330
6CF
100
AcDbEntity
  8
Ebene 1
370
     0
100
AcDbVertex
100
AcDb2dVertex
 10
457.4853515625
 20
854.5
 30
0.0
  0
VERTEX
  5
6D3
330
6CF
100
AcDbEntity
  8
Ebene 1
370
     0
100
AcDbVertex
100
AcDb2dVertex
 10
457.7939453125
 20
853.75
 30
0.0
  0
VERTEX
  5
6D4
330
6CF
100
AcDbEntity
  8
Ebene 1
370
     0
100
AcDbVertex
100
AcDb2dVertex
 10
458.2353515625
 20
853.0
 30
0.0
  0
VERTEX
  5
6D5
330
6CF
100
AcDbEntity
  8
Ebene 1
370
     0
100
AcDbVertex
100
AcDb2dVertex
 10
458.7646484375
 20
852.38232421875
 30
0.0
  0
VERTEX
  5
6D6
330
6CF
100
AcDbEntity
  8
Ebene 1
370
     0
100
AcDbVertex
100
AcDb2dVertex
 10
459.3828125
 20
851.8525390625
 30
0.0
  0
VERTEX
  5
6D7
330
6CF
100
AcDbEntity
  8
Ebene 1
370
     0
100
AcDbVertex
100
AcDb2dVertex
 10
460.1328125
 20
851.41162109375
 30
0.0
  0
VERTEX
  5
6D8
330
6CF
100
AcDbEntity
  8
Ebene 1
370
     0
100
AcDbVertex
100
AcDb2dVertex
 10
460.8828125
 20
851.1025390625
 30
0.0
  0
VERTEX
  5
6D9
330
6CF
100
AcDbEntity
  8
Ebene 1
370
     0
100
AcDbVertex
100
AcDb2dVertex
 10
461.67578125
 20
850.88232421875
 30
0.0
  0
VERTEX
  5
6DA
330
6CF
100
AcDbEntity
  8
Ebene 1
370
     0
100
AcDbVertex
100
AcDb2dVertex
 10
462.5146484375
 20
850.837890625
 30
0.0
  0
SEQEND
  5
6DB
330
6CF
100
AcDbEntity
  8
Ebene 1
370
     0
  0
POLYLINE
  5
6DC
330
3C
100
AcDbEntity
  8
Ebene 1
370
     0
100
AcDb2dPolyline
 66
     1
 10
0.0
 20
0.0
 30
0.0
  0
VERTEX
  5
6DD
330
6DC
100
AcDbEntity
  8
Ebene 1
370
     0
100
AcDbVertex
100
AcDb2dVertex
 10
483.69140625
 20
826.970703125
 30
0.0
  0
VERTEX
  5
6DE
330
6DC
100
AcDbEntity
  8
Ebene 1
370
     0
100
AcDbVertex
100
AcDb2dVertex
 10
473.103515625
 20
826.970703125
 30
0.0
  0
SEQEND
  5
6DF
330
6DC
100
AcDbEntity
  8
Ebene 1
370
     0
  0
POLYLINE
  5
6E0
330
3C
100
AcDbEntity
  8
Ebene 1
370
     0
100
AcDb2dPolyline
 66
     1
 10
0.0
 20
0.0
 30
0.0
  0
VERTEX
  5
6E1
330
6E0
100
AcDbEntity
  8
Ebene 1
370
     0
100
AcDbVertex
100
AcDb2dVertex
 10
483.69140625
 20
832.1318359375
 30
0.0
  0
VERTEX
  5
6E2
330
6E0
100
AcDbEntity
  8
Ebene 1
370
     0
100
AcDbVertex
100
AcDb2dVertex
 10
473.103515625
 20
832.1318359375
 30
0.0
  0
SEQEND
  5
6E3
330
6E0
100
AcDbEntity
  8
Ebene 1
370
     0
  0
POLYLINE
  5
6E4
330
3C
100
AcDbEntity
  8
Ebene 1
370
     0
100
AcDb2dPolyline
 66
     1
 10
0.0
 20
0.0
 30
0.0
  0
VERTEX
  5
6E5
330
6E4
100
AcDbEntity
  8
Ebene 1
370
     0
100
AcDbVertex
100
AcDb2dVertex
 10
483.69140625
 20
848.19091796875
 30
0.0
  0
VERTEX
  5
6E6
330
6E4
100
AcDbEntity
  8
Ebene 1
370
     0
100
AcDbVertex
100
AcDb2dVertex
 10
473.103515625
 20
848.19091796875
 30
0.0
  0
SEQEND
  5
6E7
330
6E4
100
AcDbEntity
  8
Ebene 1
370
     0
  0
POLYLINE
  5
6E8
330
3C
100
AcDbEntity
  8
Ebene 1
370
     0
100
AcDb2dPolyline
 66
     1
 10
0.0
 20
0.0
 30
0.0
  0
VERTEX
  5
6E9
330
6E8
100
AcDbEntity
  8
Ebene 1
370
     0
100
AcDbVertex
100
AcDb2dVertex
 10
591.69140625
 20
1040.279296875
 30
0.0
  0
VERTEX
  5
6EA
330
6E8
100
AcDbEntity
  8
Ebene 1
370
     0
100
AcDbVertex
100
AcDb2dVertex
 10
602.279296875
 20
1040.279296875
 30
0.0
  0
VERTEX
  5
6EB
330
6E8
100
AcDbEntity
  8
Ebene 1
370
     0
100
AcDbVertex
100
AcDb2dVertex
 10
602.279296875
 20
958.0439453125
 30
0.0
  0
SEQEND
  5
6EC
330
6E8
100
AcDbEntity
  8
Ebene 1
370
     0
  0
POLYLINE
  5
6ED
330
3C
100
AcDbEntity
  8
Ebene 1
370
     0
100
AcDb2dPolyline
 66
     1
 10
0.0
 20
0.0
 30
0.0
  0
VERTEX
  5
6EE
330
6ED
100
AcDbEntity
  8
Ebene 1
370
     0
100
AcDbVertex
100
AcDb2dVertex
 10
591.69140625
 20
958.0439453125
 30
0.0
  0
VERTEX
  5
6EF
330
6ED
100
AcDbEntity
  8
Ebene 1
370
     0
100
AcDbVertex
100
AcDb2dVertex
 10
591.69140625
 20
1040.279296875
 30
0.0
  0
SEQEND
  5
6F0
330
6ED
100
AcDbEntity
  8
Ebene 1
370
     0
  0
POLYLINE
  5
6F1
330
3C
100
AcDbEntity
  8
Ebene 1
370
     0
100
AcDb2dPolyline
 66
     1
 10
0.0
 20
0.0
 30
0.0
  0
VERTEX
  5
6F2
330
6F1
100
AcDbEntity
  8
Ebene 1
370
     0
100
AcDbVertex
100
AcDb2dVertex
 10
602.279296875
 20
958.0439453125
 30
0.0
  0
VERTEX
  5
6F3
330
6F1
100
AcDbEntity
  8
Ebene 1
370
     0
100
AcDbVertex
100
AcDb2dVertex
 10
602.3232421875
 20
956.94091796875
 30
0.0
  0
VERTEX
  5
6F4
330
6F1
100
AcDbEntity
  8
Ebene 1
370
     0
100
AcDbVertex
100
AcDb2dVertex
 10
602.5
 20
955.837890625
 30
0.0
  0
VERTEX
  5
6F5
330
6F1
100
AcDbEntity
  8
Ebene 1
370
     0
100
AcDbVertex
100
AcDb2dVertex
 10
602.80859375
 20
954.779296875
 30
0.0
  0
VERTEX
  5
6F6
330
6F1
100
AcDbEntity
  8
Ebene 1
370
     0
100
AcDbVertex
100
AcDb2dVertex
 10
603.2060546875
 20
953.72021484375
 30
0.0
  0
VERTEX
  5
6F7
330
6F1
100
AcDbEntity
  8
Ebene 1
370
     0
100
AcDbVertex
100
AcDb2dVertex
 10
603.69140625
 20
952.75
 30
0.0
  0
VERTEX
  5
6F8
330
6F1
100
AcDbEntity
  8
Ebene 1
370
     0
100
AcDbVertex
100
AcDb2dVertex
 10
604.30859375
 20
951.8232421875
 30
0.0
  0
VERTEX
  5
6F9
330
6F1
100
AcDbEntity
  8
Ebene 1
370
     0
100
AcDbVertex
100
AcDb2dVertex
 10
605.0146484375
 20
950.94091796875
 30
0.0
  0
VERTEX
  5
6FA
330
6F1
100
AcDbEntity
  8
Ebene 1
370
     0
100
AcDbVertex
100
AcDb2dVertex
 10
605.7646484375
 20
950.19091796875
 30
0.0
  0
VERTEX
  5
6FB
330
6F1
100
AcDbEntity
  8
Ebene 1
370
     0
100
AcDbVertex
100
AcDb2dVertex
 10
606.6474609375
 20
949.48486328125
 30
0.0
  0
VERTEX
  5
6FC
330
6F1
100
AcDbEntity
  8
Ebene 1
370
     0
100
AcDbVertex
100
AcDb2dVertex
 10
607.5732421875
 20
948.8671875
 30
0.0
  0
VERTEX
  5
6FD
330
6F1
100
AcDbEntity
  8
Ebene 1
370
     0
100
AcDbVertex
100
AcDb2dVertex
 10
608.5439453125
 20
948.38232421875
 30
0.0
  0
VERTEX
  5
6FE
330
6F1
100
AcDbEntity
  8
Ebene 1
370
     0
100
AcDbVertex
100
AcDb2dVertex
 10
609.6025390625
 20
947.98486328125
 30
0.0
  0
VERTEX
  5
6FF
330
6F1
100
AcDbEntity
  8
Ebene 1
370
     0
100
AcDbVertex
100
AcDb2dVertex
 10
610.662109375
 20
947.67626953125
 30
0.0
  0
VERTEX
  5
700
330
6F1
100
AcDbEntity
  8
Ebene 1
370
     0
100
AcDbVertex
100
AcDb2dVertex
 10
611.7646484375
 20
947.5
 30
0.0
  0
VERTEX
  5
701
330
6F1
100
AcDbEntity
  8
Ebene 1
370
     0
100
AcDbVertex
100
AcDb2dVertex
 10
612.8671875
 20
947.45556640625
 30
0.0
  0
SEQEND
  5
702
330
6F1
100
AcDbEntity
  8
Ebene 1
370
     0
  0
POLYLINE
  5
703
330
3C
100
AcDbEntity
  8
Ebene 1
370
     0
100
AcDb2dPolyline
 66
     1
 10
0.0
 20
0.0
 30
0.0
  0
VERTEX
  5
704
330
703
100
AcDbEntity
  8
Ebene 1
370
     0
100
AcDbVertex
100
AcDb2dVertex
 10
591.69140625
 20
958.0439453125
 30
0.0
  0
VERTEX
  5
705
330
703
100
AcDbEntity
  8
Ebene 1
370
     0
100
AcDbVertex
100
AcDb2dVertex
 10
591.7353515625
 20
956.45556640625
 30
0.0
  0
VERTEX
  5
706
330
703
100
AcDbEntity
  8
Ebene 1
370
     0
100
AcDbVertex
100
AcDb2dVertex
 10
591.912109375
 20
954.8671875
 30
0.0
  0
VERTEX
  5
707
330
703
100
AcDbEntity
  8
Ebene 1
370
     0
100
AcDbVertex
100
AcDb2dVertex
 10
592.220703125
 20
953.3232421875
 30
0.0
  0
VERTEX
  5
708
330
703
100
AcDbEntity
  8
Ebene 1
370
     0
100
AcDbVertex
100
AcDb2dVertex
 10
592.6171875
 20
951.8232421875
 30
0.0
  0
VERTEX
  5
709
330
703
100
AcDbEntity
  8
Ebene 1
370
     0
100
AcDbVertex
100
AcDb2dVertex
 10
593.1474609375
 20
950.3232421875
 30
0.0
  0
VERTEX
  5
70A
330
703
100
AcDbEntity
  8
Ebene 1
370
     0
100
AcDbVertex
100
AcDb2dVertex
 10
593.80859375
 20
948.8671875
 30
0.0
  0
VERTEX
  5
70B
330
703
100
AcDbEntity
  8
Ebene 1
370
     0
100
AcDbVertex
100
AcDb2dVertex
 10
594.5146484375
 20
947.45556640625
 30
0.0
  0
VERTEX
  5
70C
330
703
100
AcDbEntity
  8
Ebene 1
370
     0
100
AcDbVertex
100
AcDb2dVertex
 10
595.3525390625
 20
946.13232421875
 30
0.0
  0
VERTEX
  5
70D
330
703
100
AcDbEntity
  8
Ebene 1
370
     0
100
AcDbVertex
100
AcDb2dVertex
 10
596.3232421875
 20
944.8525390625
 30
0.0
  0
VERTEX
  5
70E
330
703
100
AcDbEntity
  8
Ebene 1
370
     0
100
AcDbVertex
100
AcDb2dVertex
 10
597.337890625
 20
943.66162109375
 30
0.0
  0
VERTEX
  5
70F
330
703
100
AcDbEntity
  8
Ebene 1
370
     0
100
AcDbVertex
100
AcDb2dVertex
 10
598.4853515625
 20
942.5146484375
 30
0.0
  0
VERTEX
  5
710
330
703
100
AcDbEntity
  8
Ebene 1
370
     0
100
AcDbVertex
100
AcDb2dVertex
 10
599.6767578125
 20
941.5
 30
0.0
  0
VERTEX
  5
711
330
703
100
AcDbEntity
  8
Ebene 1
370
     0
100
AcDbVertex
100
AcDb2dVertex
 10
600.9560546875
 20
940.529296875
 30
0.0
  0
VERTEX
  5
712
330
703
100
AcDbEntity
  8
Ebene 1
370
     0
100
AcDbVertex
100
AcDb2dVertex
 10
602.279296875
 20
939.69091796875
 30
0.0
  0
VERTEX
  5
713
330
703
100
AcDbEntity
  8
Ebene 1
370
     0
100
AcDbVertex
100
AcDb2dVertex
 10
603.69140625
 20
938.98486328125
 30
0.0
  0
VERTEX
  5
714
330
703
100
AcDbEntity
  8
Ebene 1
370
     0
100
AcDbVertex
100
AcDb2dVertex
 10
605.1474609375
 20
938.3232421875
 30
0.0
  0
VERTEX
  5
715
330
703
100
AcDbEntity
  8
Ebene 1
370
     0
100
AcDbVertex
100
AcDb2dVertex
 10
606.6474609375
 20
937.7939453125
 30
0.0
  0
VERTEX
  5
716
330
703
100
AcDbEntity
  8
Ebene 1
370
     0
100
AcDbVertex
100
AcDb2dVertex
 10
608.1474609375
 20
937.39697265625
 30
0.0
  0
VERTEX
  5
717
330
703
100
AcDbEntity
  8
Ebene 1
370
     0
100
AcDbVertex
100
AcDb2dVertex
 10
609.69140625
 20
937.087890625
 30
0.0
  0
VERTEX
  5
718
330
703
100
AcDbEntity
  8
Ebene 1
370
     0
100
AcDbVertex
100
AcDb2dVertex
 10
611.279296875
 20
936.91162109375
 30
0.0
  0
VERTEX
  5
719
330
703
100
AcDbEntity
  8
Ebene 1
370
     0
100
AcDbVertex
100
AcDb2dVertex
 10
612.8671875
 20
936.8671875
 30
0.0
  0
SEQEND
  5
71A
330
703
100
AcDbEntity
  8
Ebene 1
370
     0
  0
POLYLINE
  5
71B
330
3C
100
AcDbEntity
  8
Ebene 1
370
     0
100
AcDb2dPolyline
 66
     1
 10
0.0
 20
0.0
 30
0.0
  0
VERTEX
  5
71C
330
71B
100
AcDbEntity
  8
Ebene 1
370
     0
100
AcDbVertex
100
AcDb2dVertex
 10
671.19140625
 20
936.8232421875
 30
0.0
  0
VERTEX
  5
71D
330
71B
100
AcDbEntity
  8
Ebene 1
370
     0
100
AcDbVertex
100
AcDb2dVertex
 10
671.19140625
 20
947.45556640625
 30
0.0
  0
VERTEX
  5
71E
330
71B
100
AcDbEntity
  8
Ebene 1
370
     0
100
AcDbVertex
100
AcDb2dVertex
 10
612.8671875
 20
947.45556640625
 30
0.0
  0
SEQEND
  5
71F
330
71B
100
AcDbEntity
  8
Ebene 1
370
     0
  0
POLYLINE
  5
720
330
3C
100
AcDbEntity
  8
Ebene 1
370
     0
100
AcDb2dPolyline
 66
     1
 10
0.0
 20
0.0
 30
0.0
  0
VERTEX
  5
721
330
720
100
AcDbEntity
  8
Ebene 1
370
     0
100
AcDbVertex
100
AcDb2dVertex
 10
612.8671875
 20
936.8232421875
 30
0.0
  0
VERTEX
  5
722
330
720
100
AcDbEntity
  8
Ebene 1
370
     0
100
AcDbVertex
100
AcDb2dVertex
 10
671.19140625
 20
936.8232421875
 30
0.0
  0
SEQEND
  5
723
330
720
100
AcDbEntity
  8
Ebene 1
370
     0
  0
POLYLINE
  5
724
330
3C
100
AcDbEntity
  8
Ebene 1
370
     0
100
AcDb2dPolyline
 66
     1
 10
0.0
 20
0.0
 30
0.0
  0
VERTEX
  5
725
330
724
100
AcDbEntity
  8
Ebene 1
370
     0
100
AcDbVertex
100
AcDb2dVertex
 10
604.1767578125
 20
1020.38232421875
 30
0.0
  0
VERTEX
  5
726
330
724
100
AcDbEntity
  8
Ebene 1
370
     0
100
AcDbVertex
100
AcDb2dVertex
 10
589.7939453125
 20
1020.38232421875
 30
0.0
  0
SEQEND
  5
727
330
724
100
AcDbEntity
  8
Ebene 1
370
     0
  0
POLYLINE
  5
728
330
3C
100
AcDbEntity
  8
Ebene 1
370
     0
100
AcDb2dPolyline
 66
     1
 10
0.0
 20
0.0
 30
0.0
  0
VERTEX
  5
729
330
728
100
AcDbEntity
  8
Ebene 1
370
     0
100
AcDbVertex
100
AcDb2dVertex
 10
604.1767578125
 20
980.587890625
 30
0.0
  0
VERTEX
  5
72A
330
728
100
AcDbEntity
  8
Ebene 1
370
     0
100
AcDbVertex
100
AcDb2dVertex
 10
589.7939453125
 20
980.587890625
 30
0.0
  0
SEQEND
  5
72B
330
728
100
AcDbEntity
  8
Ebene 1
370
     0
  0
POLYLINE
  5
72C
330
3C
100
AcDbEntity
  8
Ebene 1
370
     0
100
AcDb2dPolyline
 66
     1
 10
0.0
 20
0.0
 30
0.0
  0
VERTEX
  5
72D
330
72C
100
AcDbEntity
  8
Ebene 1
370
     0
100
AcDbVertex
100
AcDb2dVertex
 10
649.970703125
 20
934.97021484375
 30
0.0
  0
VERTEX
  5
72E
330
72C
100
AcDbEntity
  8
Ebene 1
370
     0
100
AcDbVertex
100
AcDb2dVertex
 10
649.970703125
 20
949.30859375
 30
0.0
  0
SEQEND
  5
72F
330
72C
100
AcDbEntity
  8
Ebene 1
370
     0
  0
ENDBLK
  5
3F
330
3C
100
AcDbEntity
  8
0
100
AcDbBlockEnd
  0
ENDSEC
  0
SECTION
  2
ENTITIES
  0
INSERT
  5
3D
330
1F
100
AcDbEntity
  8
Ebene 1
100
AcDbBlockReference
  2
block 2
 10
0.0
 20
0.0
 30
0.0
  0
ENDSEC
  0
SECTION
  2
OBJECTS
  0
DICTIONARY
  5
C
330
0
100
AcDbDictionary
281
     1
  3
ACAD_GROUP
350
D
  3
ACAD_LAYOUT
350
1A
  3
ACAD_MLINESTYLE
350
17
  3
ACAD_PLOTSETTINGS
350
19
  3
ACAD_PLOTSTYLENAME
350
E
  3
ACAD_TABLESTYLE
350
730
  3
ACAD_VISUALSTYLE
350
2A
  0
DICTIONARY
  5
D
102
{ACAD_REACTORS
330
C
102
}
330
C
100
AcDbDictionary
281
     1
  0
DICTIONARY
  5
1A
102
{ACAD_REACTORS
330
C
102
}
330
C
100
AcDbDictionary
281
     1
  3
Layout1
350
1E
  3
Layout2
350
26
  3
Model
350
22
  0
DICTIONARY
  5
17
102
{ACAD_REACTORS
330
C
102
}
330
C
100
AcDbDictionary
281
     1
  3
Standard
350
18
  0
DICTIONARY
  5
19
102
{ACAD_REACTORS
330
C
102
}
330
C
100
AcDbDictionary
281
     1
  0
ACDBDICTIONARYWDFLT
  5
E
102
{ACAD_REACTORS
330
C
102
}
330
C
100
AcDbDictionary
281
     1
  3
Normal
350
F
100
AcDbDictionaryWithDefault
340
F
  0
DICTIONARY
  5
730
102
{ACAD_REACTORS
330
C
102
}
330
C
100
AcDbDictionary
281
     1
  0
DICTIONARY
  5
2A
102
{ACAD_REACTORS
330
C
102
}
330
C
100
AcDbDictionary
281
     1
  3
2dWireframe
350
2F
  3
3D Hidden
350
31
  3
3dWireframe
350
30
  3
Basic
350
32
  3
Brighten
350
36
  3
ColorChange
350
3A
  3
Conceptual
350
34
  3
Dim
350
35
  3
Facepattern
350
39
  3
Flat
350
2B
  3
FlatWithEdges
350
2C
  3
Gouraud
350
2D
  3
GouraudWithEdges
350
2E
  3
Linepattern
350
38
  3
Realistic
350
33
  3
Thicken
350
37
  0
LAYOUT
  5
1E
102
{ACAD_REACTORS
330
1A
102
}
330
1A
100
AcDbPlotSettings
  1

  2
none_device
  4

  6

 40
0.0
 41
0.0
 42
0.0
 43
0.0
 44
0.0
 45
0.0
 46
0.0
 47
0.0
 48
0.0
 49
0.0
140
0.0
141
0.0
142
1.0
143
1.0
 70
   688
 72
     0
 73
     0
 74
     5
  7

 75
    16
 76
     0
 77
     2
 78
   300
147
1.0
148
0.0
149
0.0
100
AcDbLayout
  1
Layout1
 70
     1
 71
     1
 10
0.0
 20
0.0
 11
12.0
 21
9.0
 12
0.0
 22
0.0
 32
0.0
 14
1.000000000000000E+20
 24
1.000000000000000E+20
 34
1.000000000000000E+20
 15
-1.000000000000000E+20
 25
-1.000000000000000E+20
 35
-1.000000000000000E+20
146
0.0
 13
0.0
 23
0.0
 33
0.0
 16
1.0
 26
0.0
 36
0.0
 17
0.0
 27
1.0
 37
0.0
 76
     0
330
1B
  0
LAYOUT
  5
26
102
{ACAD_REACTORS
330
1A
102
}
330
1A
100
AcDbPlotSettings
  1

  2
none_device
  4

  6

 40
0.0
 41
0.0
 42
0.0
 43
0.0
 44
0.0
 45
0.0
 46
0.0
 47
0.0
 48
0.0
 49
0.0
140
0.0
141
0.0
142
1.0
143
1.0
 70
   688
 72
     0
 73
     0
 74
     5
  7

 75
    16
 76
     0
 77
     2
 78
   300
147
1.0
148
0.0
149
0.0
100
AcDbLayout
  1
Layout2
 70
     1
 71
     2
 10
0.0
 20
0.0
 11
0.0
 21
0.0
 12
0.0
 22
0.0
 32
0.0
 14
0.0
 24
0.0
 34
0.0
 15
0.0
 25
0.0
 35
0.0
146
0.0
 13
0.0
 23
0.0
 33
0.0
 16
1.0
 26
0.0
 36
0.0
 17
0.0
 27
1.0
 37
0.0
 76
     0
330
23
  0
LAYOUT
  5
22
102
{ACAD_REACTORS
330
1A
102
}
330
1A
100
AcDbPlotSettings
  1

  2
none_device
  4

  6

 40
0.0
 41
0.0
 42
0.0
 43
0.0
 44
0.0
 45
0.0
 46
0.0
 47
0.0
 48
0.0
 49
0.0
140
0.0
141
0.0
142
1.0
143
1.0
 70
  1712
 72
     0
 73
     0
 74
     0
  7

 75
     0
 76
     0
 77
     2
 78
   300
147
1.0
148
0.0
149
0.0
100
AcDbLayout
  1
Model
 70
     1
 71
     0
 10
0.0
 20
0.0
 11
12.0
 21
9.0
 12
0.0
 22
0.0
 32
0.0
 14
1.000000000000000E+20
 24
1.000000000000000E+20
 34
1.000000000000000E+20
 15
-1.000000000000000E+20
 25
-1.000000000000000E+20
 35
-1.000000000000000E+20
146
0.0
 13
0.0
 23
0.0
 33
0.0
 16
1.0
 26
0.0
 36
0.0
 17
0.0
 27
1.0
 37
0.0
 76
     0
330
1F
331
29
  0
MLINESTYLE
  5
18
102
{ACAD_REACTORS
330
17
102
}
330
17
100
AcDbMlineStyle
  2
Standard
 70
     0
  3

 62
   256
 51
90.0
 52
90.0
 71
     2
 49
0.5
 62
   256
  6
BYLAYER
 49
-0.5
 62
   256
  6
BYLAYER
  0
ACDBPLACEHOLDER
  5
F
102
{ACAD_REACTORS
330
E
102
}
330
E
  0
VISUALSTYLE
  5
2F
102
{ACAD_REACTORS
330
2A
102
}
330
2A
100
AcDbVisualStyle
  2
2dWireframe
 70
     4
 71
     0
 72
     2
 73
     0
 90
        0
 40
-0.6
 41
-30.0
 62
     5
 63
     7
421
 16777215
 74
     1
 91
        4
 64
     7
 65
   257
 75
     1
175
     1
 42
1.0
 92
        0
 66
   257
 43
1.0
 76
     1
 77
     6
 78
     2
 67
     7
 79
     5
170
     0
171
     0
290
     0
174
     0
 93
        1
 44
0.0
173
     0
291
     0
 45
0.0
1001
ACAD
1000
AcDbSavedByObjectVersion
1070
     0
  0
VISUALSTYLE
  5
31
102
{ACAD_REACTORS
330
2A
102
}
330
2A
100
AcDbVisualStyle
  2
3D Hidden
 70
     6
 71
     1
 72
     2
 73
     2
 90
        0
 40
-0.6
 41
-30.0
 62
     5
 63
     7
421
 16777215
 74
     2
 91
        2
 64
     7
 65
   257
 75
     2
175
     1
 42
40.0
 92
        0
 66
   257
 43
1.0
 76
     1
 77
     6
 78
     2
 67
     7
 79
     3
170
     0
171
     0
290
     0
174
     0
 93
        1
 44
0.0
173
     0
291
     0
 45
0.0
1001
ACAD
1000
AcDbSavedByObjectVersion
1070
     0
  0
VISUALSTYLE
  5
30
102
{ACAD_REACTORS
330
2A
102
}
330
2A
100
AcDbVisualStyle
  2
3dWireframe
 70
     5
 71
     0
 72
     2
 73
     0
 90
        0
 40
-0.6
 41
-30.0
 62
     5
 63
     7
421
 16777215
 74
     1
 91
        4
 64
     7
 65
   257
 75
     1
175
     1
 42
1.0
 92
        0
 66
   257
 43
1.0
 76
     1
 77
     6
 78
     2
 67
     7
 79
     5
170
     0
171
     0
290
     0
174
     0
 93
        1
 44
0.0
173
     0
291
     0
 45
0.0
1001
ACAD
1000
AcDbSavedByObjectVersion
1070
     0
  0
VISUALSTYLE
  5
32
102
{ACAD_REACTORS
330
2A
102
}
330
2A
100
AcDbVisualStyle
  2
Basic
 70
     7
 71
     1
 72
     0
 73
     1
 90
        0
 40
-0.6
 41
-30.0
 62
     5
 63
     7
421
 16777215
 74
     0
 91
        4
 64
     7
 65
   257
 75
     1
175
     1
 42
1.0
 92
        8
 66
     7
 43
1.0
 76
     1
 77
     6
 78
     2
 67
     7
 79
     5
170
     0
171
     0
290
     0
174
     0
 93
        1
 44
0.0
173
     0
291
     1
 45
0.0
1001
ACAD
1000
AcDbSavedByObjectVersion
1070
     0
  0
VISUALSTYLE
  5
36
102
{ACAD_REACTORS
330
2A
102
}
330
2A
100
AcDbVisualStyle
  2
Brighten
 70
    12
 71
     2
 72
     2
 73
     0
 90
        0
 40
-0.6
 41
-30.0
 62
     5
 63
     7
421
 16777215
 74
     1
 91
        4
 64
     7
 65
   257
 75
     1
175
     1
 42
1.0
 92
        8
 66
     7
 43
1.0
 76
     1
 77
     6
 78
     2
 67
     7
 79
     5
170
     0
171
     0
290
     0
174
     0
 93
        1
 44
50.0
173
     0
291
     1
 45
0.0
1001
ACAD
1000
AcDbSavedByObjectVersion
1070
     0
  0
VISUALSTYLE
  5
3A
102
{ACAD_REACTORS
330
2A
102
}
330
2A
100
AcDbVisualStyle
  2
ColorChange
 70
    16
 71
     2
 72
     2
 73
     3
 90
        0
 40
-0.6
 41
-30.0
 62
     5
 63
     8
421
  8421504
 74
     1
 91
        4
 64
     7
 65
   257
 75
     1
175
     1
 42
1.0
 92
        8
 66
     8
424
  8421504
 43
1.0
 76
     1
 77
     6
 78
     2
 67
     7
 79
     5
170
     0
171
     0
290
     0
174
     0
 93
        1
 44
0.0
173
     0
291
     1
 45
0.0
1001
ACAD
1000
AcDbSavedByObjectVersion
1070
     0
  0
VISUALSTYLE
  5
34
102
{ACAD_REACTORS
330
2A
102
}
330
2A
100
AcDbVisualStyle
  2
Conceptual
 70
     9
 71
     3
 72
     2
 73
     0
 90
        0
 40
-0.6
 41
-30.0
 62
     5
 63
     7
421
 16777215
 74
     2
 91
        2
 64
     7
 65
   257
 75
     1
175
     1
 42
40.0
 92
        8
 66
     7
 43
1.0
 76
     1
 77
     6
 78
     2
 67
     7
 79
     3
170
     0
171
     0
290
     0
174
     0
 93
        1
 44
0.0
173
     0
291
     0
 45
0.0
1001
ACAD
1000
AcDbSavedByObjectVersion
1070
     0
  0
VISUALSTYLE
  5
35
102
{ACAD_REACTORS
330
2A
102
}
330
2A
100
AcDbVisualStyle
  2
Dim
 70
    11
 71
     2
 72
     2
 73
     0
 90
        0
 40
-0.6
 41
-30.0
 62
     5
 63
     7
421
 16777215
 74
     1
 91
        4
 64
     7
 65
   257
 75
     1
175
     1
 42
1.0
 92
        8
 66
     7
 43
1.0
 76
     1
 77
     6
 78
     2
 67
     7
 79
     5
170
     0
171
     0
290
     0
174
     0
 93
        1
 44
-50.0
173
     0
291
     1
 45
0.0
1001
ACAD
1000
AcDbSavedByObjectVersion
1070
     0
  0
VISUALSTYLE
  5
39
102
{ACAD_REACTORS
330
2A
102
}
330
2A
100
AcDbVisualStyle
  2
Facepattern
 70
    15
 71
     2
 72
     2
 73
     0
 90
        0
 40
-0.6
 41
-30.0
 62
     5
 63
     7
421
 16777215
 74
     1
 91
        4
 64
     7
 65
   257
 75
     1
175
     1
 42
1.0
 92
        8
 66
     7
 43
1.0
 76
     1
 77
     6
 78
     2
 67
     7
 79
     5
170
     0
171
     0
290
     0
174
     0
 93
        1
 44
0.0
173
     0
291
     1
 45
0.0
1001
ACAD
1000
AcDbSavedByObjectVersion
1070
     0
  0
VISUALSTYLE
  5
2B
102
{ACAD_REACTORS
330
2A
102
}
330
2A
100
AcDbVisualStyle
  2
Flat
 70
     0
 71
     2
 72
     1
 73
     1
 90
        2
 40
-0.6
 41
30.0
 62
     5
 63
     7
421
 16777215
 74
     0
 91
        4
 64
     7
 65
   257
 75
     1
175
     1
 42
1.0
 92
        8
 66
     7
 43
1.0
 76
     1
 77
     6
 78
     2
 67
     7
 79
     5
170
     0
171
     0
290
     0
174
     0
 93
       13
 44
0.0
173
     0
291
     1
 45
0.0
1001
ACAD
1000
AcDbSavedByObjectVersion
1070
     0
  0
VISUALSTYLE
  5
2C
102
{ACAD_REACTORS
330
2A
102
}
330
2A
100
AcDbVisualStyle
  2
FlatWithEdges
 70
     1
 71
     2
 72
     1
 73
     1
 90
        2
 40
-0.6
 41
30.0
 62
     5
 63
     7
421
 16777215
 74
     1
 91
        4
 64
     7
 65
   257
 75
     1
175
     1
 42
1.0
 92
        0
 66
   257
 43
1.0
 76
     1
 77
     6
 78
     2
 67
     7
 79
     5
170
     0
171
     0
290
     0
174
     0
 93
       13
 44
0.0
173
     0
291
     1
 45
0.0
1001
ACAD
1000
AcDbSavedByObjectVersion
1070
     0
  0
VISUALSTYLE
  5
2D
102
{ACAD_REACTORS
330
2A
102
}
330
2A
100
AcDbVisualStyle
  2
Gouraud
 70
     2
 71
     2
 72
     2
 73
     1
 90
        2
 40
-0.6
 41
30.0
 62
     5
 63
     7
421
 16777215
 74
     0
 91
        4
 64
     7
 65
   257
 75
     1
175
     1
 42
1.0
 92
        0
 66
     7
 43
1.0
 76
     1
 77
     6
 78
     2
 67
     7
 79
     5
170
     0
171
     0
290
     0
174
     0
 93
       13
 44
0.0
173
     0
291
     1
 45
0.0
1001
ACAD
1000
AcDbSavedByObjectVersion
1070
     0
  0
VISUALSTYLE
  5
2E
102
{ACAD_REACTORS
330
2A
102
}
330
2A
100
AcDbVisualStyle
  2
GouraudWithEdges
 70
     3
 71
     2
 72
     2
 73
     1
 90
        2
 40
-0.6
 41
30.0
 62
     5
 63
     7
421
 16777215
 74
     1
 91
        4
 64
     7
 65
   257
 75
     1
175
     1
 42
1.0
 92
        0
 66
   257
 43
1.0
 76
     1
 77
     6
 78
     2
 67
     7
 79
     5
170
     0
171
     0
290
     0
174
     0
 93
       13
 44
0.0
173
     0
291
     1
 45
0.0
1001
ACAD
1000
AcDbSavedByObjectVersion
1070
     0
  0
VISUALSTYLE
  5
38
102
{ACAD_REACTORS
330
2A
102
}
330
2A
100
AcDbVisualStyle
  2
Linepattern
 70
    14
 71
     2
 72
     2
 73
     0
 90
        0
 40
-0.6
 41
-30.0
 62
     5
 63
     7
421
 16777215
 74
     1
 91
        4
 64
     7
 65
   257
 75
     7
175
     7
 42
1.0
 92
        8
 66
     7
 43
1.0
 76
     1
 77
     6
 78
     2
 67
     7
 79
     5
170
     0
171
     0
290
     0
174
     0
 93
        1
 44
0.0
173
     0
291
     1
 45
0.0
1001
ACAD
1000
AcDbSavedByObjectVersion
1070
     0
  0
VISUALSTYLE
  5
33
102
{ACAD_REACTORS
330
2A
102
}
330
2A
100
AcDbVisualStyle
  2
Realistic
 70
     8
 71
     2
 72
     2
 73
     0
 90
        0
 40
-0.6
 41
-30.0
 62
     5
 63
     7
421
 16777215
 74
     1
 91
        0
 64
     7
 65
   257
 75
     1
175
     1
 42
1.0
 92
        8
 66
     8
424
  7895160
 43
1.0
 76
     1
 77
     6
 78
     2
 67
     7
 79
     5
170
     0
171
     0
290
     0
174
     0
 93
       13
 44
0.0
173
     0
291
     0
 45
0.0
1001
ACAD
1000
AcDbSavedByObjectVersion
1070
     0
  0
VISUALSTYLE
  5
37
102
{ACAD_REACTORS
330
2A
102
}
330
2A
100
AcDbVisualStyle
  2
Thicken
 70
    13
 71
     2
 72
     2
 73
     0
 90
        0
 40
-0.6
 41
-30.0
 62
     5
 63
     7
421
 16777215
 74
     1
 91
        4
 64
     7
 65
   257
 75
     1
175
     1
 42
1.0
 92
       12
 66
     7
 43
1.0
 76
     1
 77
     6
 78
     2
 67
     7
 79
     5
170
     0
171
     0
290
     0
174
     0
 93
        1
 44
0.0
173
     0
291
     1
 45
0.0
1001
ACAD
1000
AcDbSavedByObjectVersion
1070
     0
  0
ENDSEC
  0
EOF
