  0
SECTION
  2
HEADER
  9
$ACADVER
  1
AC1018
  9
$ACADMAINTVER
 70
     0
  9
$DWGCODEPAGE
  3
ANSI_1252
  9
$INSBASE
 10
0.0
 20
0.0
 30
0.0
  9
$EXTMIN
 10
1.000000000000000E+20
 20
1.000000000000000E+20
 30
1.000000000000000E+20
  9
$EXTMAX
 10
-1.000000000000000E+20
 20
-1.000000000000000E+20
 30
-1.000000000000000E+20
  9
$LIMMIN
 10
0.0
 20
0.0
  9
$LIMMAX
 10
12.0
 20
9.0
  9
$ORTHOMODE
 70
     0
  9
$REGENMODE
 70
     1
  9
$FILLMODE
 70
     1
  9
$QTEXTMODE
 70
     0
  9
$MIRRTEXT
 70
     1
  9
$LTSCALE
 40
1.0
  9
$ATTMODE
 70
     1
  9
$TEXTSIZE
 40
0.2
  9
$TRACEWID
 40
0.05
  9
$TEXTSTYLE
  7
Standard
  9
$CLAYER
  8
0
  9
$CELTYPE
  6
ByLayer
  9
$CECOLOR
 62
   256
  9
$CELTSCALE
 40
1.0
  9
$DISPSILH
 70
     0
  9
$DIMSCALE
 40
1.0
  9
$DIMASZ
 40
0.18
  9
$DIMEXO
 40
0.0625
  9
$DIMDLI
 40
0.38
  9
$DIMRND
 40
0.0
  9
$DIMDLE
 40
0.0
  9
$DIMEXE
 40
0.18
  9
$DIMTP
 40
0.0
  9
$DIMTM
 40
0.0
  9
$DIMTXT
 40
0.18
  9
$DIMCEN
 40
0.09
  9
$DIMTSZ
 40
0.0
  9
$DIMTOL
 70
     0
  9
$DIMLIM
 70
     0
  9
$DIMTIH
 70
     1
  9
$DIMTOH
 70
     1
  9
$DIMSE1
 70
     0
  9
$DIMSE2
 70
     0
  9
$DIMTAD
 70
     0
  9
$DIMZIN
 70
     0
  9
$DIMBLK
  1

  9
$DIMASO
 70
     1
  9
$DIMSHO
 70
     1
  9
$DIMPOST
  1

  9
$DIMAPOST
  1

  9
$DIMALT
 70
     0
  9
$DIMALTD
 70
     2
  9
$DIMALTF
 40
25.4
  9
$DIMLFAC
 40
1.0
  9
$DIMTOFL
 70
     0
  9
$DIMTVP
 40
0.0
  9
$DIMTIX
 70
     0
  9
$DIMSOXD
 70
     0
  9
$DIMSAH
 70
     0
  9
$DIMBLK1
  1

  9
$DIMBLK2
  1

  9
$DIMSTYLE
  2
Standard
  9
$DIMCLRD
 70
     0
  9
$DIMCLRE
 70
     0
  9
$DIMCLRT
 70
     0
  9
$DIMTFAC
 40
1.0
  9
$DIMGAP
 40
0.09
  9
$DIMJUST
 70
     0
  9
$DIMSD1
 70
     0
  9
$DIMSD2
 70
     0
  9
$DIMTOLJ
 70
     1
  9
$DIMTZIN
 70
     0
  9
$DIMALTZ
 70
     0
  9
$DIMALTTZ
 70
     0
  9
$DIMUPT
 70
     0
  9
$DIMDEC
 70
     4
  9
$DIMTDEC
 70
     4
  9
$DIMALTU
 70
     2
  9
$DIMALTTD
 70
     2
  9
$DIMTXSTY
  7
Standard
  9
$DIMAUNIT
 70
     0
  9
$DIMADEC
 70
     0
  9
$DIMALTRND
 40
0.0
  9
$DIMAZIN
 70
     0
  9
$DIMDSEP
 70
    46
  9
$DIMATFIT
 70
     3
  9
$DIMFRAC
 70
     0
  9
$DIMLDRBLK
  1

  9
$DIMLUNIT
 70
     2
  9
$DIMLWD
 70
    -2
  9
$DIMLWE
 70
    -2
  9
$DIMTMOVE
 70
     0
  9
$LUNITS
 70
     2
  9
$LUPREC
 70
     4
  9
$SKETCHINC
 40
0.1
  9
$FILLETRAD
 40
0.5
  9
$AUNITS
 70
     0
  9
$AUPREC
 70
     0
  9
$MENU
  1
.
  9
$ELEVATION
 40
0.0
  9
$PELEVATION
 40
0.0
  9
$THICKNESS
 40
0.0
  9
$LIMCHECK
 70
     0
  9
$CHAMFERA
 40
0.5
  9
$CHAMFERB
 40
0.5
  9
$CHAMFERC
 40
1.0
  9
$CHAMFERD
 40
0.0
  9
$SKPOLY
 70
     0
  9
$TDCREATE
 40
2458374.445491076
  9
$TDUCREATE
 40
2458374.362157743
  9
$TDUPDATE
 40
2458374.445491088
  9
$TDUUPDATE
 40
2458374.362157755
  9
$TDINDWG
 40
0.0000000116
  9
$TDUSRTIMER
 40
0.0000000116
  9
$USRTIMER
 70
     1
  9
$ANGBASE
 50
0.0
  9
$ANGDIR
 70
     0
  9
$PDMODE
 70
     0
  9
$PDSIZE
 40
0.0
  9
$PLINEWID
 40
0.0
  9
$SPLFRAME
 70
     0
  9
$SPLINETYPE
 70
     6
  9
$SPLINESEGS
 70
     8
  9
$HANDSEED
  5
86D
  9
$SURFTAB1
 70
     6
  9
$SURFTAB2
 70
     6
  9
$SURFTYPE
 70
     6
  9
$SURFU
 70
     6
  9
$SURFV
 70
     6
  9
$UCSBASE
  2

  9
$UCSNAME
  2

  9
$UCSORG
 10
0.0
 20
0.0
 30
0.0
  9
$UCSXDIR
 10
1.0
 20
0.0
 30
0.0
  9
$UCSYDIR
 10
0.0
 20
1.0
 30
0.0
  9
$UCSORTHOREF
  2

  9
$UCSORTHOVIEW
 70
     0
  9
$UCSORGTOP
 10
0.0
 20
0.0
 30
0.0
  9
$UCSORGBOTTOM
 10
0.0
 20
0.0
 30
0.0
  9
$UCSORGLEFT
 10
0.0
 20
0.0
 30
0.0
  9
$UCSORGRIGHT
 10
0.0
 20
0.0
 30
0.0
  9
$UCSORGFRONT
 10
0.0
 20
0.0
 30
0.0
  9
$UCSORGBACK
 10
0.0
 20
0.0
 30
0.0
  9
$PUCSBASE
  2

  9
$PUCSNAME
  2

  9
$PUCSORG
 10
0.0
 20
0.0
 30
0.0
  9
$PUCSXDIR
 10
1.0
 20
0.0
 30
0.0
  9
$PUCSYDIR
 10
0.0
 20
1.0
 30
0.0
  9
$PUCSORTHOREF
  2

  9
$PUCSORTHOVIEW
 70
     0
  9
$PUCSORGTOP
 10
0.0
 20
0.0
 30
0.0
  9
$PUCSORGBOTTOM
 10
0.0
 20
0.0
 30
0.0
  9
$PUCSORGLEFT
 10
0.0
 20
0.0
 30
0.0
  9
$PUCSORGRIGHT
 10
0.0
 20
0.0
 30
0.0
  9
$PUCSORGFRONT
 10
0.0
 20
0.0
 30
0.0
  9
$PUCSORGBACK
 10
0.0
 20
0.0
 30
0.0
  9
$USERI1
 70
     0
  9
$USERI2
 70
     0
  9
$USERI3
 70
     0
  9
$USERI4
 70
     0
  9
$USERI5
 70
     0
  9
$USERR1
 40
0.0
  9
$USERR2
 40
0.0
  9
$USERR3
 40
0.0
  9
$USERR4
 40
0.0
  9
$USERR5
 40
0.0
  9
$WORLDVIEW
 70
     1
  9
$SHADEDGE
 70
     3
  9
$SHADEDIF
 70
    70
  9
$TILEMODE
 70
     1
  9
$MAXACTVP
 70
    64
  9
$PINSBASE
 10
0.0
 20
0.0
 30
0.0
  9
$PLIMCHECK
 70
     0
  9
$PEXTMIN
 10
1.000000000000000E+20
 20
1.000000000000000E+20
 30
1.000000000000000E+20
  9
$PEXTMAX
 10
-1.000000000000000E+20
 20
-1.000000000000000E+20
 30
-1.000000000000000E+20
  9
$PLIMMIN
 10
0.0
 20
0.0
  9
$PLIMMAX
 10
12.0
 20
9.0
  9
$UNITMODE
 70
     0
  9
$VISRETAIN
 70
     1
  9
$PLINEGEN
 70
     0
  9
$PSLTSCALE
 70
     1
  9
$TREEDEPTH
 70
  3020
  9
$CMLSTYLE
  2
Standard
  9
$CMLJUST
 70
     0
  9
$CMLSCALE
 40
1.0
  9
$PROXYGRAPHICS
 70
     1
  9
$MEASUREMENT
 70
     0
  9
$CELWEIGHT
370
    -1
  9
$ENDCAPS
280
     0
  9
$JOINSTYLE
280
     0
  9
$LWDISPLAY
290
     1
  9
$INSUNITS
 70
     1
  9
$HYPERLINKBASE
  1

  9
$STYLESHEET
  1

  9
$XEDIT
290
     1
  9
$CEPSNTYPE
380
     0
  9
$PSTYLEMODE
290
     1
  9
$FINGERPRINTGUID
  2
{009AE750-4830-4196-B147-20AB901C10B1}
  9
$VERSIONGUID
  2
{FAEB1C32-E019-11D5-929B-00C0DF256EC4}
  9
$EXTNAMES
290
     1
  9
$PSVPSCALE
 40
0.0
  9
$OLESTARTUP
290
     0
  9
$SORTENTS
280
   127
  9
$INDEXCTL
280
     0
  9
$HIDETEXT
280
     1
  9
$XCLIPFRAME
290
     0
  9
$HALOGAP
280
     0
  9
$OBSCOLOR
 70
   257
  9
$OBSLTYPE
280
     0
  9
$INTERSECTIONDISPLAY
280
     0
  9
$INTERSECTIONCOLOR
 70
   257
  9
$DIMASSOC
280
     2
  9
$PROJECTNAME
  1

  0
ENDSEC
  0
SECTION
  2
CLASSES
  0
CLASS
  1
ACDBDICTIONARYWDFLT
  2
AcDbDictionaryWithDefault
  3
ObjectDBX Classes
 90
        0
 91
        3
280
     0
281
     0
  0
CLASS
  1
VISUALSTYLE
  2
AcDbVisualStyle
  3
ObjectDBX Classes
 90
     4095
 91
        3
280
     0
281
     0
  0
ENDSEC
  0
SECTION
  2
TABLES
  0
TABLE
  2
VPORT
  5
8
330
0
100
AcDbSymbolTable
 70
     1
  0
VPORT
  5
29
330
8
100
AcDbSymbolTableRecord
100
AcDbViewportTableRecord
  2
*Active
 70
     0
 10
0.0
 20
0.0
 11
1.0
 21
1.0
 12
0.0
 22
0.0
 13
0.0
 23
0.0
 14
0.5
 24
0.5
 15
0.5
 25
0.5
 16
0.0
 26
0.0
 36
1.0
 17
306.0
 27
396.0
 37
0.0
 40
792.0
 41
0.7727272727272727
 42
50.0
 43
0.0
 44
0.0
 50
0.0
 51
0.0
 71
     0
 72
   100
 73
     1
 74
     3
 75
     0
 76
     0
 77
     0
 78
     0
281
     0
 65
     1
110
0.0
120
0.0
130
0.0
111
1.0
121
0.0
131
0.0
112
0.0
122
1.0
132
0.0
 79
     0
146
0.0
  0
ENDTAB
  0
TABLE
  2
LTYPE
  5
5
330
0
100
AcDbSymbolTable
 70
     1
  0
LTYPE
  5
14
330
5
100
AcDbSymbolTableRecord
100
AcDbLinetypeTableRecord
  2
ByBlock
 70
     0
  3

 72
    65
 73
     0
 40
0.0
  0
LTYPE
  5
15
330
5
100
AcDbSymbolTableRecord
100
AcDbLinetypeTableRecord
  2
ByLayer
 70
     0
  3

 72
    65
 73
     0
 40
0.0
  0
LTYPE
  5
16
330
5
100
AcDbSymbolTableRecord
100
AcDbLinetypeTableRecord
  2
Continuous
 70
     0
  3
Solid line
 72
    65
 73
     0
 40
0.0
  0
ENDTAB
  0
TABLE
  2
LAYER
  5
2
330
0
100
AcDbSymbolTable
 70
     2
  0
LAYER
  5
10
330
2
100
AcDbSymbolTableRecord
100
AcDbLayerTableRecord
  2
0
 70
     0
 62
     7
  6
Continuous
370
    -3
390
F
  0
LAYER
  5
3B
330
2
100
AcDbSymbolTableRecord
100
AcDbLayerTableRecord
  2
Ebene 1
 70
     0
 62
     7
  6
Continuous
370
    -3
390
F
  0
ENDTAB
  0
TABLE
  2
STYLE
  5
3
330
0
100
AcDbSymbolTable
 70
     1
  0
STYLE
  5
11
330
3
100
AcDbSymbolTableRecord
100
AcDbTextStyleTableRecord
  2
Standard
 70
     0
 40
0.0
 41
1.0
 50
0.0
 71
     0
 42
0.2
  3
txt
  4

  0
ENDTAB
  0
TABLE
  2
VIEW
  5
6
330
0
100
AcDbSymbolTable
 70
     0
  0
ENDTAB
  0
TABLE
  2
UCS
  5
7
330
0
100
AcDbSymbolTable
 70
     0
  0
ENDTAB
  0
TABLE
  2
APPID
  5
9
330
0
100
AcDbSymbolTable
 70
     1
  0
APPID
  5
12
330
9
100
AcDbSymbolTableRecord
100
AcDbRegAppTableRecord
  2
ACAD
 70
     0
  0
ENDTAB
  0
TABLE
  2
DIMSTYLE
  5
A
330
0
100
AcDbSymbolTable
 70
     1
100
AcDbDimStyleTable
  0
DIMSTYLE
105
27
330
A
100
AcDbSymbolTableRecord
100
AcDbDimStyleTableRecord
  2
Standard
 70
     0
340
11
  0
ENDTAB
  0
TABLE
  2
BLOCK_RECORD
  5
1
330
0
100
AcDbSymbolTable
 70
     2
  0
BLOCK_RECORD
  5
1F
330
1
100
AcDbSymbolTableRecord
100
AcDbBlockTableRecord
  2
*Model_Space
340
22
  0
BLOCK_RECORD
  5
1B
330
1
100
AcDbSymbolTableRecord
100
AcDbBlockTableRecord
  2
*Paper_Space
340
1E
  0
BLOCK_RECORD
  5
23
330
1
100
AcDbSymbolTableRecord
100
AcDbBlockTableRecord
  2
*Paper_Space0
340
26
  0
BLOCK_RECORD
  5
3C
330
1
100
AcDbSymbolTableRecord
100
AcDbBlockTableRecord
  2
block 2
340
0
102
{BLKREFS
331
3D
102
}
  0
ENDTAB
  0
ENDSEC
  0
SECTION
  2
BLOCKS
  0
BLOCK
  5
20
330
1F
100
AcDbEntity
  8
0
100
AcDbBlockBegin
  2
*Model_Space
 70
     0
 71
     0
 10
0.0
 20
0.0
 30
0.0
  3
*Model_Space
  1

  0
ENDBLK
  5
21
330
1F
100
AcDbEntity
  8
0
100
AcDbBlockEnd
  0
BLOCK
  5
1C
330
1B
100
AcDbEntity
 67
     1
  8
0
100
AcDbBlockBegin
  2
*Paper_Space
 70
     0
 71
     0
 10
0.0
 20
0.0
 30
0.0
  3
*Paper_Space
  1

  0
ENDBLK
  5
1D
330
1B
100
AcDbEntity
 67
     1
  8
0
100
AcDbBlockEnd
  0
BLOCK
  5
24
330
23
100
AcDbEntity
  8
0
100
AcDbBlockBegin
  2
*Paper_Space0
 70
     0
 71
     0
 10
0.0
 20
0.0
 30
0.0
  3
*Paper_Space0
  1

  0
ENDBLK
  5
25
330
23
100
AcDbEntity
  8
0
100
AcDbBlockEnd
  0
BLOCK
  5
3E
330
3C
100
AcDbEntity
  8
0
100
AcDbBlockBegin
  2
block 2
 70
     0
 71
     0
 10
0.0
 20
0.0
 30
0.0
  3
block 2
  1

  0
POLYLINE
  5
40
330
3C
100
AcDbEntity
  8
Ebene 1
370
     0
100
AcDb2dPolyline
 66
     1
 10
0.0
 20
0.0
 30
0.0
  0
VERTEX
  5
41
330
40
100
AcDbEntity
  8
Ebene 1
370
     0
100
AcDbVertex
100
AcDb2dVertex
 10
466.720703125
 20
95.67578125
 30
0.0
  0
VERTEX
  5
42
330
40
100
AcDbEntity
  8
Ebene 1
370
     0
100
AcDbVertex
100
AcDb2dVertex
 10
466.720703125
 20
103.6171875
 30
0.0
  0
SEQEND
  5
43
330
40
100
AcDbEntity
  8
Ebene 1
370
     0
  0
POLYLINE
  5
44
330
3C
100
AcDbEntity
  8
Ebene 1
370
     0
100
AcDb2dPolyline
 66
     1
 10
0.0
 20
0.0
 30
0.0
  0
VERTEX
  5
45
330
44
100
AcDbEntity
  8
Ebene 1
370
     0
100
AcDbVertex
100
AcDb2dVertex
 10
464.912109375
 20
93.25
 30
0.0
  0
VERTEX
  5
46
330
44
100
AcDbEntity
  8
Ebene 1
370
     0
100
AcDbVertex
100
AcDb2dVertex
 10
464.912109375
 20
103.6171875
 30
0.0
  0
SEQEND
  5
47
330
44
100
AcDbEntity
  8
Ebene 1
370
     0
  0
POLYLINE
  5
48
330
3C
100
AcDbEntity
  8
Ebene 1
370
     0
100
AcDb2dPolyline
 66
     1
 10
0.0
 20
0.0
 30
0.0
  0
VERTEX
  5
49
330
48
100
AcDbEntity
  8
Ebene 1
370
     0
100
AcDbVertex
100
AcDb2dVertex
 10
464.07421875
 20
92.4560546875
 30
0.0
  0
VERTEX
  5
4A
330
48
100
AcDbEntity
  8
Ebene 1
370
     0
100
AcDbVertex
100
AcDb2dVertex
 10
464.3828125
 20
92.5
 30
0.0
  0
VERTEX
  5
4B
330
48
100
AcDbEntity
  8
Ebene 1
370
     0
100
AcDbVertex
100
AcDb2dVertex
 10
464.646484375
 20
92.67578125
 30
0.0
  0
VERTEX
  5
4C
330
48
100
AcDbEntity
  8
Ebene 1
370
     0
100
AcDbVertex
100
AcDb2dVertex
 10
464.82421875
 20
92.94140625
 30
0.0
  0
VERTEX
  5
4D
330
48
100
AcDbEntity
  8
Ebene 1
370
     0
100
AcDbVertex
100
AcDb2dVertex
 10
464.8671875
 20
93.25
 30
0.0
  0
SEQEND
  5
4E
330
48
100
AcDbEntity
  8
Ebene 1
370
     0
  0
POLYLINE
  5
4F
330
3C
100
AcDbEntity
  8
Ebene 1
370
     0
100
AcDb2dPolyline
 66
     1
 10
0.0
 20
0.0
 30
0.0
  0
VERTEX
  5
50
330
4F
100
AcDbEntity
  8
Ebene 1
370
     0
100
AcDbVertex
100
AcDb2dVertex
 10
494.69140625
 20
92.412109375
 30
0.0
  0
VERTEX
  5
51
330
4F
100
AcDbEntity
  8
Ebene 1
370
     0
100
AcDbVertex
100
AcDb2dVertex
 10
494.8671875
 20
92.4560546875
 30
0.0
  0
VERTEX
  5
52
330
4F
100
AcDbEntity
  8
Ebene 1
370
     0
100
AcDbVertex
100
AcDb2dVertex
 10
495.0
 20
92.4560546875
 30
0.0
  0
SEQEND
  5
53
330
4F
100
AcDbEntity
  8
Ebene 1
370
     0
  0
POLYLINE
  5
54
330
3C
100
AcDbEntity
  8
Ebene 1
370
     0
100
AcDb2dPolyline
 66
     1
 10
0.0
 20
0.0
 30
0.0
  0
VERTEX
  5
55
330
54
100
AcDbEntity
  8
Ebene 1
370
     0
100
AcDbVertex
100
AcDb2dVertex
 10
441.4853515625
 20
93.25
 30
0.0
  0
VERTEX
  5
56
330
54
100
AcDbEntity
  8
Ebene 1
370
     0
100
AcDbVertex
100
AcDb2dVertex
 10
441.4853515625
 20
103.6171875
 30
0.0
  0
SEQEND
  5
57
330
54
100
AcDbEntity
  8
Ebene 1
370
     0
  0
POLYLINE
  5
58
330
3C
100
AcDbEntity
  8
Ebene 1
370
     0
100
AcDb2dPolyline
 66
     1
 10
0.0
 20
0.0
 30
0.0
  0
VERTEX
  5
59
330
58
100
AcDbEntity
  8
Ebene 1
370
     0
100
AcDbVertex
100
AcDb2dVertex
 10
397.146484375
 20
103.6171875
 30
0.0
  0
VERTEX
  5
5A
330
58
100
AcDbEntity
  8
Ebene 1
370
     0
100
AcDbVertex
100
AcDb2dVertex
 10
397.146484375
 20
93.25
 30
0.0
  0
SEQEND
  5
5B
330
58
100
AcDbEntity
  8
Ebene 1
370
     0
  0
POLYLINE
  5
5C
330
3C
100
AcDbEntity
  8
Ebene 1
370
     0
100
AcDb2dPolyline
 66
     1
 10
0.0
 20
0.0
 30
0.0
  0
VERTEX
  5
5D
330
5C
100
AcDbEntity
  8
Ebene 1
370
     0
100
AcDbVertex
100
AcDb2dVertex
 10
440.646484375
 20
92.4560546875
 30
0.0
  0
VERTEX
  5
5E
330
5C
100
AcDbEntity
  8
Ebene 1
370
     0
100
AcDbVertex
100
AcDb2dVertex
 10
440.9560546875
 20
92.5
 30
0.0
  0
VERTEX
  5
5F
330
5C
100
AcDbEntity
  8
Ebene 1
370
     0
100
AcDbVertex
100
AcDb2dVertex
 10
441.220703125
 20
92.67578125
 30
0.0
  0
VERTEX
  5
60
330
5C
100
AcDbEntity
  8
Ebene 1
370
     0
100
AcDbVertex
100
AcDb2dVertex
 10
441.396484375
 20
92.94140625
 30
0.0
  0
VERTEX
  5
61
330
5C
100
AcDbEntity
  8
Ebene 1
370
     0
100
AcDbVertex
100
AcDb2dVertex
 10
441.44140625
 20
93.25
 30
0.0
  0
SEQEND
  5
62
330
5C
100
AcDbEntity
  8
Ebene 1
370
     0
  0
POLYLINE
  5
63
330
3C
100
AcDbEntity
  8
Ebene 1
370
     0
100
AcDb2dPolyline
 66
     1
 10
0.0
 20
0.0
 30
0.0
  0
VERTEX
  5
64
330
63
100
AcDbEntity
  8
Ebene 1
370
     0
100
AcDbVertex
100
AcDb2dVertex
 10
397.19140625
 20
93.25
 30
0.0
  0
VERTEX
  5
65
330
63
100
AcDbEntity
  8
Ebene 1
370
     0
100
AcDbVertex
100
AcDb2dVertex
 10
397.2353515625
 20
92.94140625
 30
0.0
  0
VERTEX
  5
66
330
63
100
AcDbEntity
  8
Ebene 1
370
     0
100
AcDbVertex
100
AcDb2dVertex
 10
397.412109375
 20
92.67578125
 30
0.0
  0
VERTEX
  5
67
330
63
100
AcDbEntity
  8
Ebene 1
370
     0
100
AcDbVertex
100
AcDb2dVertex
 10
397.67578125
 20
92.5
 30
0.0
  0
VERTEX
  5
68
330
63
100
AcDbEntity
  8
Ebene 1
370
     0
100
AcDbVertex
100
AcDb2dVertex
 10
397.9853515625
 20
92.4560546875
 30
0.0
  0
SEQEND
  5
69
330
63
100
AcDbEntity
  8
Ebene 1
370
     0
  0
POLYLINE
  5
6A
330
3C
100
AcDbEntity
  8
Ebene 1
370
     0
100
AcDb2dPolyline
 66
     1
 10
0.0
 20
0.0
 30
0.0
  0
VERTEX
  5
6B
330
6A
100
AcDbEntity
  8
Ebene 1
370
     0
100
AcDbVertex
100
AcDb2dVertex
 10
461.2939453125
 20
17.720703125
 30
0.0
  0
VERTEX
  5
6C
330
6A
100
AcDbEntity
  8
Ebene 1
370
     0
100
AcDbVertex
100
AcDb2dVertex
 10
461.55859375
 20
17.720703125
 30
0.0
  0
SEQEND
  5
6D
330
6A
100
AcDbEntity
  8
Ebene 1
370
     0
  0
POLYLINE
  5
6E
330
3C
100
AcDbEntity
  8
Ebene 1
370
     0
100
AcDb2dPolyline
 66
     1
 10
0.0
 20
0.0
 30
0.0
  0
VERTEX
  5
6F
330
6E
100
AcDbEntity
  8
Ebene 1
370
     0
100
AcDbVertex
100
AcDb2dVertex
 10
460.0146484375
 20
14.5439453125
 30
0.0
  0
VERTEX
  5
70
330
6E
100
AcDbEntity
  8
Ebene 1
370
     0
100
AcDbVertex
100
AcDb2dVertex
 10
461.2939453125
 20
14.5439453125
 30
0.0
  0
SEQEND
  5
71
330
6E
100
AcDbEntity
  8
Ebene 1
370
     0
  0
POLYLINE
  5
72
330
3C
100
AcDbEntity
  8
Ebene 1
370
     0
100
AcDb2dPolyline
 66
     1
 10
0.0
 20
0.0
 30
0.0
  0
VERTEX
  5
73
330
72
100
AcDbEntity
  8
Ebene 1
370
     0
100
AcDbVertex
100
AcDb2dVertex
 10
451.7646484375
 20
14.5439453125
 30
0.0
  0
VERTEX
  5
74
330
72
100
AcDbEntity
  8
Ebene 1
370
     0
100
AcDbVertex
100
AcDb2dVertex
 10
459.92578125
 20
14.5439453125
 30
0.0
  0
SEQEND
  5
75
330
72
100
AcDbEntity
  8
Ebene 1
370
     0
  0
POLYLINE
  5
76
330
3C
100
AcDbEntity
  8
Ebene 1
370
     0
100
AcDb2dPolyline
 66
     1
 10
0.0
 20
0.0
 30
0.0
  0
VERTEX
  5
77
330
76
100
AcDbEntity
  8
Ebene 1
370
     0
100
AcDbVertex
100
AcDb2dVertex
 10
476.9560546875
 20
69.25
 30
0.0
  0
VERTEX
  5
78
330
76
100
AcDbEntity
  8
Ebene 1
370
     0
100
AcDbVertex
100
AcDb2dVertex
 10
476.9560546875
 20
69.6025390625
 30
0.0
  0
SEQEND
  5
79
330
76
100
AcDbEntity
  8
Ebene 1
370
     0
  0
POLYLINE
  5
7A
330
3C
100
AcDbEntity
  8
Ebene 1
370
     0
100
AcDb2dPolyline
 66
     1
 10
0.0
 20
0.0
 30
0.0
  0
VERTEX
  5
7B
330
7A
100
AcDbEntity
  8
Ebene 1
370
     0
100
AcDbVertex
100
AcDb2dVertex
 10
476.9560546875
 20
92.412109375
 30
0.0
  0
VERTEX
  5
7C
330
7A
100
AcDbEntity
  8
Ebene 1
370
     0
100
AcDbVertex
100
AcDb2dVertex
 10
476.9560546875
 20
95.67578125
 30
0.0
  0
SEQEND
  5
7D
330
7A
100
AcDbEntity
  8
Ebene 1
370
     0
  0
POLYLINE
  5
7E
330
3C
100
AcDbEntity
  8
Ebene 1
370
     0
100
AcDb2dPolyline
 66
     1
 10
0.0
 20
0.0
 30
0.0
  0
VERTEX
  5
7F
330
7E
100
AcDbEntity
  8
Ebene 1
370
     0
100
AcDbVertex
100
AcDb2dVertex
 10
466.146484375
 20
0.470703125
 30
0.0
  0
VERTEX
  5
80
330
7E
100
AcDbEntity
  8
Ebene 1
370
     0
100
AcDbVertex
100
AcDb2dVertex
 10
466.146484375
 20
2.279296875
 30
0.0
  0
SEQEND
  5
81
330
7E
100
AcDbEntity
  8
Ebene 1
370
     0
  0
POLYLINE
  5
82
330
3C
100
AcDbEntity
  8
Ebene 1
370
     0
100
AcDb2dPolyline
 66
     1
 10
0.0
 20
0.0
 30
0.0
  0
VERTEX
  5
83
330
82
100
AcDbEntity
  8
Ebene 1
370
     0
100
AcDbVertex
100
AcDb2dVertex
 10
462.57421875
 20
-3.1025390625
 30
0.0
  0
VERTEX
  5
84
330
82
100
AcDbEntity
  8
Ebene 1
370
     0
100
AcDbVertex
100
AcDb2dVertex
 10
466.146484375
 20
0.470703125
 30
0.0
  0
SEQEND
  5
85
330
82
100
AcDbEntity
  8
Ebene 1
370
     0
  0
POLYLINE
  5
86
330
3C
100
AcDbEntity
  8
Ebene 1
370
     0
100
AcDb2dPolyline
 66
     1
 10
0.0
 20
0.0
 30
0.0
  0
VERTEX
  5
87
330
86
100
AcDbEntity
  8
Ebene 1
370
     0
100
AcDbVertex
100
AcDb2dVertex
 10
458.9560546875
 20
13.087890625
 30
0.0
  0
VERTEX
  5
88
330
86
100
AcDbEntity
  8
Ebene 1
370
     0
100
AcDbVertex
100
AcDb2dVertex
 10
458.9560546875
 20
14.5439453125
 30
0.0
  0
SEQEND
  5
89
330
86
100
AcDbEntity
  8
Ebene 1
370
     0
  0
POLYLINE
  5
8A
330
3C
100
AcDbEntity
  8
Ebene 1
370
     0
100
AcDb2dPolyline
 66
     1
 10
0.0
 20
0.0
 30
0.0
  0
VERTEX
  5
8B
330
8A
100
AcDbEntity
  8
Ebene 1
370
     0
100
AcDbVertex
100
AcDb2dVertex
 10
458.9560546875
 20
103.6171875
 30
0.0
  0
VERTEX
  5
8C
330
8A
100
AcDbEntity
  8
Ebene 1
370
     0
100
AcDbVertex
100
AcDb2dVertex
 10
458.9560546875
 20
110.4560546875
 30
0.0
  0
SEQEND
  5
8D
330
8A
100
AcDbEntity
  8
Ebene 1
370
     0
  0
POLYLINE
  5
8E
330
3C
100
AcDbEntity
  8
Ebene 1
370
     0
100
AcDb2dPolyline
 66
     1
 10
0.0
 20
0.0
 30
0.0
  0
VERTEX
  5
8F
330
8E
100
AcDbEntity
  8
Ebene 1
370
     0
100
AcDbVertex
100
AcDb2dVertex
 10
430.146484375
 20
110.4560546875
 30
0.0
  0
VERTEX
  5
90
330
8E
100
AcDbEntity
  8
Ebene 1
370
     0
100
AcDbVertex
100
AcDb2dVertex
 10
430.146484375
 20
103.6171875
 30
0.0
  0
SEQEND
  5
91
330
8E
100
AcDbEntity
  8
Ebene 1
370
     0
  0
POLYLINE
  5
92
330
3C
100
AcDbEntity
  8
Ebene 1
370
     0
100
AcDb2dPolyline
 66
     1
 10
0.0
 20
0.0
 30
0.0
  0
VERTEX
  5
93
330
92
100
AcDbEntity
  8
Ebene 1
370
     0
100
AcDbVertex
100
AcDb2dVertex
 10
430.146484375
 20
14.8974609375
 30
0.0
  0
VERTEX
  5
94
330
92
100
AcDbEntity
  8
Ebene 1
370
     0
100
AcDbVertex
100
AcDb2dVertex
 10
430.146484375
 20
13.087890625
 30
0.0
  0
SEQEND
  5
95
330
92
100
AcDbEntity
  8
Ebene 1
370
     0
  0
POLYLINE
  5
96
330
3C
100
AcDbEntity
  8
Ebene 1
370
     0
100
AcDb2dPolyline
 66
     1
 10
0.0
 20
0.0
 30
0.0
  0
VERTEX
  5
97
330
96
100
AcDbEntity
  8
Ebene 1
370
     0
100
AcDbVertex
100
AcDb2dVertex
 10
431.029296875
 20
-2.220703125
 30
0.0
  0
VERTEX
  5
98
330
96
100
AcDbEntity
  8
Ebene 1
370
     0
100
AcDbVertex
100
AcDb2dVertex
 10
431.912109375
 20
-3.1025390625
 30
0.0
  0
SEQEND
  5
99
330
96
100
AcDbEntity
  8
Ebene 1
370
     0
  0
POLYLINE
  5
9A
330
3C
100
AcDbEntity
  8
Ebene 1
370
     0
100
AcDb2dPolyline
 66
     1
 10
0.0
 20
0.0
 30
0.0
  0
VERTEX
  5
9B
330
9A
100
AcDbEntity
  8
Ebene 1
370
     0
100
AcDbVertex
100
AcDb2dVertex
 10
453.529296875
 20
-3.1025390625
 30
0.0
  0
VERTEX
  5
9C
330
9A
100
AcDbEntity
  8
Ebene 1
370
     0
100
AcDbVertex
100
AcDb2dVertex
 10
457.146484375
 20
0.470703125
 30
0.0
  0
VERTEX
  5
9D
330
9A
100
AcDbEntity
  8
Ebene 1
370
     0
100
AcDbVertex
100
AcDb2dVertex
 10
457.146484375
 20
2.279296875
 30
0.0
  0
SEQEND
  5
9E
330
9A
100
AcDbEntity
  8
Ebene 1
370
     0
  0
POLYLINE
  5
9F
330
3C
100
AcDbEntity
  8
Ebene 1
370
     0
100
AcDb2dPolyline
 66
     1
 10
0.0
 20
0.0
 30
0.0
  0
VERTEX
  5
A0
330
9F
100
AcDbEntity
  8
Ebene 1
370
     0
100
AcDbVertex
100
AcDb2dVertex
 10
451.7646484375
 20
13.087890625
 30
0.0
  0
VERTEX
  5
A1
330
9F
100
AcDbEntity
  8
Ebene 1
370
     0
100
AcDbVertex
100
AcDb2dVertex
 10
451.7646484375
 20
14.8974609375
 30
0.0
  0
SEQEND
  5
A2
330
9F
100
AcDbEntity
  8
Ebene 1
370
     0
  0
POLYLINE
  5
A3
330
3C
100
AcDbEntity
  8
Ebene 1
370
     0
100
AcDb2dPolyline
 66
     1
 10
0.0
 20
0.0
 30
0.0
  0
VERTEX
  5
A4
330
A3
100
AcDbEntity
  8
Ebene 1
370
     0
100
AcDbVertex
100
AcDb2dVertex
 10
451.7646484375
 20
38.3671875
 30
0.0
  0
VERTEX
  5
A5
330
A3
100
AcDbEntity
  8
Ebene 1
370
     0
100
AcDbVertex
100
AcDb2dVertex
 10
451.7646484375
 20
56.3671875
 30
0.0
  0
SEQEND
  5
A6
330
A3
100
AcDbEntity
  8
Ebene 1
370
     0
  0
POLYLINE
  5
A7
330
3C
100
AcDbEntity
  8
Ebene 1
370
     0
100
AcDb2dPolyline
 66
     1
 10
0.0
 20
0.0
 30
0.0
  0
VERTEX
  5
A8
330
A7
100
AcDbEntity
  8
Ebene 1
370
     0
100
AcDbVertex
100
AcDb2dVertex
 10
451.7646484375
 20
103.6171875
 30
0.0
  0
VERTEX
  5
A9
330
A7
100
AcDbEntity
  8
Ebene 1
370
     0
100
AcDbVertex
100
AcDb2dVertex
 10
451.7646484375
 20
110.4560546875
 30
0.0
  0
SEQEND
  5
AA
330
A7
100
AcDbEntity
  8
Ebene 1
370
     0
  0
POLYLINE
  5
AB
330
3C
100
AcDbEntity
  8
Ebene 1
370
     0
100
AcDb2dPolyline
 66
     1
 10
0.0
 20
0.0
 30
0.0
  0
VERTEX
  5
AC
330
AB
100
AcDbEntity
  8
Ebene 1
370
     0
100
AcDbVertex
100
AcDb2dVertex
 10
433.720703125
 20
110.4560546875
 30
0.0
  0
VERTEX
  5
AD
330
AB
100
AcDbEntity
  8
Ebene 1
370
     0
100
AcDbVertex
100
AcDb2dVertex
 10
433.720703125
 20
103.6171875
 30
0.0
  0
SEQEND
  5
AE
330
AB
100
AcDbEntity
  8
Ebene 1
370
     0
  0
POLYLINE
  5
AF
330
3C
100
AcDbEntity
  8
Ebene 1
370
     0
100
AcDb2dPolyline
 66
     1
 10
0.0
 20
0.0
 30
0.0
  0
VERTEX
  5
B0
330
AF
100
AcDbEntity
  8
Ebene 1
370
     0
100
AcDbVertex
100
AcDb2dVertex
 10
433.720703125
 20
14.8974609375
 30
0.0
  0
VERTEX
  5
B1
330
AF
100
AcDbEntity
  8
Ebene 1
370
     0
100
AcDbVertex
100
AcDb2dVertex
 10
433.720703125
 20
13.087890625
 30
0.0
  0
SEQEND
  5
B2
330
AF
100
AcDbEntity
  8
Ebene 1
370
     0
  0
POLYLINE
  5
B3
330
3C
100
AcDbEntity
  8
Ebene 1
370
     0
100
AcDb2dPolyline
 66
     1
 10
0.0
 20
0.0
 30
0.0
  0
VERTEX
  5
B4
330
B3
100
AcDbEntity
  8
Ebene 1
370
     0
100
AcDbVertex
100
AcDb2dVertex
 10
404.912109375
 20
2.279296875
 30
0.0
  0
VERTEX
  5
B5
330
B3
100
AcDbEntity
  8
Ebene 1
370
     0
100
AcDbVertex
100
AcDb2dVertex
 10
404.912109375
 20
0.470703125
 30
0.0
  0
SEQEND
  5
B6
330
B3
100
AcDbEntity
  8
Ebene 1
370
     0
  0
POLYLINE
  5
B7
330
3C
100
AcDbEntity
  8
Ebene 1
370
     0
100
AcDb2dPolyline
 66
     1
 10
0.0
 20
0.0
 30
0.0
  0
VERTEX
  5
B8
330
B7
100
AcDbEntity
  8
Ebene 1
370
     0
100
AcDbVertex
100
AcDb2dVertex
 10
433.720703125
 20
0.470703125
 30
0.0
  0
VERTEX
  5
B9
330
B7
100
AcDbEntity
  8
Ebene 1
370
     0
100
AcDbVertex
100
AcDb2dVertex
 10
433.720703125
 20
2.279296875
 30
0.0
  0
SEQEND
  5
BA
330
B7
100
AcDbEntity
  8
Ebene 1
370
     0
  0
POLYLINE
  5
BB
330
3C
100
AcDbEntity
  8
Ebene 1
370
     0
100
AcDb2dPolyline
 66
     1
 10
0.0
 20
0.0
 30
0.0
  0
VERTEX
  5
BC
330
BB
100
AcDbEntity
  8
Ebene 1
370
     0
100
AcDbVertex
100
AcDb2dVertex
 10
404.912109375
 20
0.470703125
 30
0.0
  0
VERTEX
  5
BD
330
BB
100
AcDbEntity
  8
Ebene 1
370
     0
100
AcDbVertex
100
AcDb2dVertex
 10
408.529296875
 20
-3.1025390625
 30
0.0
  0
SEQEND
  5
BE
330
BB
100
AcDbEntity
  8
Ebene 1
370
     0
  0
POLYLINE
  5
BF
330
3C
100
AcDbEntity
  8
Ebene 1
370
     0
100
AcDb2dPolyline
 66
     1
 10
0.0
 20
0.0
 30
0.0
  0
VERTEX
  5
C0
330
BF
100
AcDbEntity
  8
Ebene 1
370
     0
100
AcDbVertex
100
AcDb2dVertex
 10
430.146484375
 20
-3.1025390625
 30
0.0
  0
VERTEX
  5
C1
330
BF
100
AcDbEntity
  8
Ebene 1
370
     0
100
AcDbVertex
100
AcDb2dVertex
 10
433.720703125
 20
0.470703125
 30
0.0
  0
SEQEND
  5
C2
330
BF
100
AcDbEntity
  8
Ebene 1
370
     0
  0
POLYLINE
  5
C3
330
3C
100
AcDbEntity
  8
Ebene 1
370
     0
100
AcDb2dPolyline
 66
     1
 10
0.0
 20
0.0
 30
0.0
  0
VERTEX
  5
C4
330
C3
100
AcDbEntity
  8
Ebene 1
370
     0
100
AcDbVertex
100
AcDb2dVertex
 10
428.337890625
 20
13.087890625
 30
0.0
  0
VERTEX
  5
C5
330
C3
100
AcDbEntity
  8
Ebene 1
370
     0
100
AcDbVertex
100
AcDb2dVertex
 10
428.337890625
 20
14.8974609375
 30
0.0
  0
SEQEND
  5
C6
330
C3
100
AcDbEntity
  8
Ebene 1
370
     0
  0
POLYLINE
  5
C7
330
3C
100
AcDbEntity
  8
Ebene 1
370
     0
100
AcDb2dPolyline
 66
     1
 10
0.0
 20
0.0
 30
0.0
  0
VERTEX
  5
C8
330
C7
100
AcDbEntity
  8
Ebene 1
370
     0
100
AcDbVertex
100
AcDb2dVertex
 10
428.337890625
 20
79.7939453125
 30
0.0
  0
VERTEX
  5
C9
330
C7
100
AcDbEntity
  8
Ebene 1
370
     0
100
AcDbVertex
100
AcDb2dVertex
 10
428.337890625
 20
81.603515625
 30
0.0
  0
SEQEND
  5
CA
330
C7
100
AcDbEntity
  8
Ebene 1
370
     0
  0
POLYLINE
  5
CB
330
3C
100
AcDbEntity
  8
Ebene 1
370
     0
100
AcDb2dPolyline
 66
     1
 10
0.0
 20
0.0
 30
0.0
  0
VERTEX
  5
CC
330
CB
100
AcDbEntity
  8
Ebene 1
370
     0
100
AcDbVertex
100
AcDb2dVertex
 10
428.337890625
 20
103.6171875
 30
0.0
  0
VERTEX
  5
CD
330
CB
100
AcDbEntity
  8
Ebene 1
370
     0
100
AcDbVertex
100
AcDb2dVertex
 10
428.337890625
 20
110.4560546875
 30
0.0
  0
SEQEND
  5
CE
330
CB
100
AcDbEntity
  8
Ebene 1
370
     0
  0
POLYLINE
  5
CF
330
3C
100
AcDbEntity
  8
Ebene 1
370
     0
100
AcDb2dPolyline
 66
     1
 10
0.0
 20
0.0
 30
0.0
  0
VERTEX
  5
D0
330
CF
100
AcDbEntity
  8
Ebene 1
370
     0
100
AcDbVertex
100
AcDb2dVertex
 10
410.2939453125
 20
110.4560546875
 30
0.0
  0
VERTEX
  5
D1
330
CF
100
AcDbEntity
  8
Ebene 1
370
     0
100
AcDbVertex
100
AcDb2dVertex
 10
410.2939453125
 20
103.6171875
 30
0.0
  0
SEQEND
  5
D2
330
CF
100
AcDbEntity
  8
Ebene 1
370
     0
  0
POLYLINE
  5
D3
330
3C
100
AcDbEntity
  8
Ebene 1
370
     0
100
AcDb2dPolyline
 66
     1
 10
0.0
 20
0.0
 30
0.0
  0
VERTEX
  5
D4
330
D3
100
AcDbEntity
  8
Ebene 1
370
     0
100
AcDbVertex
100
AcDb2dVertex
 10
410.2939453125
 20
81.603515625
 30
0.0
  0
VERTEX
  5
D5
330
D3
100
AcDbEntity
  8
Ebene 1
370
     0
100
AcDbVertex
100
AcDb2dVertex
 10
410.2939453125
 20
79.7939453125
 30
0.0
  0
SEQEND
  5
D6
330
D3
100
AcDbEntity
  8
Ebene 1
370
     0
  0
POLYLINE
  5
D7
330
3C
100
AcDbEntity
  8
Ebene 1
370
     0
100
AcDb2dPolyline
 66
     1
 10
0.0
 20
0.0
 30
0.0
  0
VERTEX
  5
D8
330
D7
100
AcDbEntity
  8
Ebene 1
370
     0
100
AcDbVertex
100
AcDb2dVertex
 10
410.2939453125
 20
14.8974609375
 30
0.0
  0
VERTEX
  5
D9
330
D7
100
AcDbEntity
  8
Ebene 1
370
     0
100
AcDbVertex
100
AcDb2dVertex
 10
410.2939453125
 20
13.087890625
 30
0.0
  0
SEQEND
  5
DA
330
D7
100
AcDbEntity
  8
Ebene 1
370
     0
  0
POLYLINE
  5
DB
330
3C
100
AcDbEntity
  8
Ebene 1
370
     0
100
AcDb2dPolyline
 66
     1
 10
0.0
 20
0.0
 30
0.0
  0
VERTEX
  5
DC
330
DB
100
AcDbEntity
  8
Ebene 1
370
     0
100
AcDbVertex
100
AcDb2dVertex
 10
484.19140625
 20
-3.1025390625
 30
0.0
  0
VERTEX
  5
DD
330
DB
100
AcDbEntity
  8
Ebene 1
370
     0
100
AcDbVertex
100
AcDb2dVertex
 10
487.7646484375
 20
0.470703125
 30
0.0
  0
VERTEX
  5
DE
330
DB
100
AcDbEntity
  8
Ebene 1
370
     0
100
AcDbVertex
100
AcDb2dVertex
 10
487.7646484375
 20
2.279296875
 30
0.0
  0
SEQEND
  5
DF
330
DB
100
AcDbEntity
  8
Ebene 1
370
     0
  0
POLYLINE
  5
E0
330
3C
100
AcDbEntity
  8
Ebene 1
370
     0
100
AcDb2dPolyline
 66
     1
 10
0.0
 20
0.0
 30
0.0
  0
VERTEX
  5
E1
330
E0
100
AcDbEntity
  8
Ebene 1
370
     0
100
AcDbVertex
100
AcDb2dVertex
 10
482.3828125
 20
13.087890625
 30
0.0
  0
VERTEX
  5
E2
330
E0
100
AcDbEntity
  8
Ebene 1
370
     0
100
AcDbVertex
100
AcDb2dVertex
 10
482.3828125
 20
13.4853515625
 30
0.0
  0
SEQEND
  5
E3
330
E0
100
AcDbEntity
  8
Ebene 1
370
     0
  0
POLYLINE
  5
E4
330
3C
100
AcDbEntity
  8
Ebene 1
370
     0
100
AcDb2dPolyline
 66
     1
 10
0.0
 20
0.0
 30
0.0
  0
VERTEX
  5
E5
330
E4
100
AcDbEntity
  8
Ebene 1
370
     0
100
AcDbVertex
100
AcDb2dVertex
 10
482.3828125
 20
103.6171875
 30
0.0
  0
VERTEX
  5
E6
330
E4
100
AcDbEntity
  8
Ebene 1
370
     0
100
AcDbVertex
100
AcDb2dVertex
 10
482.3828125
 20
110.4560546875
 30
0.0
  0
SEQEND
  5
E7
330
E4
100
AcDbEntity
  8
Ebene 1
370
     0
  0
POLYLINE
  5
E8
330
3C
100
AcDbEntity
  8
Ebene 1
370
     0
100
AcDb2dPolyline
 66
     1
 10
0.0
 20
0.0
 30
0.0
  0
VERTEX
  5
E9
330
E8
100
AcDbEntity
  8
Ebene 1
370
     0
100
AcDbVertex
100
AcDb2dVertex
 10
464.337890625
 20
110.4560546875
 30
0.0
  0
VERTEX
  5
EA
330
E8
100
AcDbEntity
  8
Ebene 1
370
     0
100
AcDbVertex
100
AcDb2dVertex
 10
464.337890625
 20
103.6171875
 30
0.0
  0
SEQEND
  5
EB
330
E8
100
AcDbEntity
  8
Ebene 1
370
     0
  0
POLYLINE
  5
EC
330
3C
100
AcDbEntity
  8
Ebene 1
370
     0
100
AcDb2dPolyline
 66
     1
 10
0.0
 20
0.0
 30
0.0
  0
VERTEX
  5
ED
330
EC
100
AcDbEntity
  8
Ebene 1
370
     0
100
AcDbVertex
100
AcDb2dVertex
 10
464.337890625
 20
14.6767578125
 30
0.0
  0
VERTEX
  5
EE
330
EC
100
AcDbEntity
  8
Ebene 1
370
     0
100
AcDbVertex
100
AcDb2dVertex
 10
464.337890625
 20
13.087890625
 30
0.0
  0
SEQEND
  5
EF
330
EC
100
AcDbEntity
  8
Ebene 1
370
     0
  0
POLYLINE
  5
F0
330
3C
100
AcDbEntity
  8
Ebene 1
370
     0
100
AcDb2dPolyline
 66
     1
 10
0.0
 20
0.0
 30
0.0
  0
VERTEX
  5
F1
330
F0
100
AcDbEntity
  8
Ebene 1
370
     0
100
AcDbVertex
100
AcDb2dVertex
 10
383.337890625
 20
59.9853515625
 30
0.0
  0
VERTEX
  5
F2
330
F0
100
AcDbEntity
  8
Ebene 1
370
     0
100
AcDbVertex
100
AcDb2dVertex
 10
383.42578125
 20
59.279296875
 30
0.0
  0
VERTEX
  5
F3
330
F0
100
AcDbEntity
  8
Ebene 1
370
     0
100
AcDbVertex
100
AcDb2dVertex
 10
383.603515625
 20
58.6171875
 30
0.0
  0
VERTEX
  5
F4
330
F0
100
AcDbEntity
  8
Ebene 1
370
     0
100
AcDbVertex
100
AcDb2dVertex
 10
383.9560546875
 20
58.0
 30
0.0
  0
VERTEX
  5
F5
330
F0
100
AcDbEntity
  8
Ebene 1
370
     0
100
AcDbVertex
100
AcDb2dVertex
 10
384.396484375
 20
57.470703125
 30
0.0
  0
VERTEX
  5
F6
330
F0
100
AcDbEntity
  8
Ebene 1
370
     0
100
AcDbVertex
100
AcDb2dVertex
 10
384.92578125
 20
57.029296875
 30
0.0
  0
VERTEX
  5
F7
330
F0
100
AcDbEntity
  8
Ebene 1
370
     0
100
AcDbVertex
100
AcDb2dVertex
 10
385.5439453125
 20
56.6767578125
 30
0.0
  0
VERTEX
  5
F8
330
F0
100
AcDbEntity
  8
Ebene 1
370
     0
100
AcDbVertex
100
AcDb2dVertex
 10
386.2060546875
 20
56.5
 30
0.0
  0
VERTEX
  5
F9
330
F0
100
AcDbEntity
  8
Ebene 1
370
     0
100
AcDbVertex
100
AcDb2dVertex
 10
386.912109375
 20
56.412109375
 30
0.0
  0
SEQEND
  5
FA
330
F0
100
AcDbEntity
  8
Ebene 1
370
     0
  0
POLYLINE
  5
FB
330
3C
100
AcDbEntity
  8
Ebene 1
370
     0
100
AcDb2dPolyline
 66
     1
 10
0.0
 20
0.0
 30
0.0
  0
VERTEX
  5
FC
330
FB
100
AcDbEntity
  8
Ebene 1
370
     0
100
AcDbVertex
100
AcDb2dVertex
 10
451.7646484375
 20
56.412109375
 30
0.0
  0
VERTEX
  5
FD
330
FB
100
AcDbEntity
  8
Ebene 1
370
     0
100
AcDbVertex
100
AcDb2dVertex
 10
452.3828125
 20
56.4560546875
 30
0.0
  0
VERTEX
  5
FE
330
FB
100
AcDbEntity
  8
Ebene 1
370
     0
100
AcDbVertex
100
AcDb2dVertex
 10
453.0
 20
56.6328125
 30
0.0
  0
VERTEX
  5
FF
330
FB
100
AcDbEntity
  8
Ebene 1
370
     0
100
AcDbVertex
100
AcDb2dVertex
 10
453.57421875
 20
56.8974609375
 30
0.0
  0
VERTEX
  5
100
330
FB
100
AcDbEntity
  8
Ebene 1
370
     0
100
AcDbVertex
100
AcDb2dVertex
 10
454.05859375
 20
57.25
 30
0.0
  0
VERTEX
  5
101
330
FB
100
AcDbEntity
  8
Ebene 1
370
     0
100
AcDbVertex
100
AcDb2dVertex
 10
454.5
 20
57.69140625
 30
0.0
  0
VERTEX
  5
102
330
FB
100
AcDbEntity
  8
Ebene 1
370
     0
100
AcDbVertex
100
AcDb2dVertex
 10
454.853515625
 20
58.220703125
 30
0.0
  0
VERTEX
  5
103
330
FB
100
AcDbEntity
  8
Ebene 1
370
     0
100
AcDbVertex
100
AcDb2dVertex
 10
455.1171875
 20
58.75
 30
0.0
  0
VERTEX
  5
104
330
FB
100
AcDbEntity
  8
Ebene 1
370
     0
100
AcDbVertex
100
AcDb2dVertex
 10
455.2939453125
 20
59.3671875
 30
0.0
  0
VERTEX
  5
105
330
FB
100
AcDbEntity
  8
Ebene 1
370
     0
100
AcDbVertex
100
AcDb2dVertex
 10
455.337890625
 20
59.9853515625
 30
0.0
  0
SEQEND
  5
106
330
FB
100
AcDbEntity
  8
Ebene 1
370
     0
  0
POLYLINE
  5
107
330
3C
100
AcDbEntity
  8
Ebene 1
370
     0
100
AcDb2dPolyline
 66
     1
 10
0.0
 20
0.0
 30
0.0
  0
VERTEX
  5
108
330
107
100
AcDbEntity
  8
Ebene 1
370
     0
100
AcDbVertex
100
AcDb2dVertex
 10
455.337890625
 20
18.5146484375
 30
0.0
  0
VERTEX
  5
109
330
107
100
AcDbEntity
  8
Ebene 1
370
     0
100
AcDbVertex
100
AcDb2dVertex
 10
455.337890625
 20
34.75
 30
0.0
  0
SEQEND
  5
10A
330
107
100
AcDbEntity
  8
Ebene 1
370
     0
  0
POLYLINE
  5
10B
330
3C
100
AcDbEntity
  8
Ebene 1
370
     0
100
AcDb2dPolyline
 66
     1
 10
0.0
 20
0.0
 30
0.0
  0
VERTEX
  5
10C
330
10B
100
AcDbEntity
  8
Ebene 1
370
     0
100
AcDbVertex
100
AcDb2dVertex
 10
383.2939453125
 20
34.75
 30
0.0
  0
VERTEX
  5
10D
330
10B
100
AcDbEntity
  8
Ebene 1
370
     0
100
AcDbVertex
100
AcDb2dVertex
 10
383.2939453125
 20
18.5146484375
 30
0.0
  0
SEQEND
  5
10E
330
10B
100
AcDbEntity
  8
Ebene 1
370
     0
  0
POLYLINE
  5
10F
330
3C
100
AcDbEntity
  8
Ebene 1
370
     0
100
AcDb2dPolyline
 66
     1
 10
0.0
 20
0.0
 30
0.0
  0
VERTEX
  5
110
330
10F
100
AcDbEntity
  8
Ebene 1
370
     0
100
AcDbVertex
100
AcDb2dVertex
 10
455.337890625
 20
59.9853515625
 30
0.0
  0
VERTEX
  5
111
330
10F
100
AcDbEntity
  8
Ebene 1
370
     0
100
AcDbVertex
100
AcDb2dVertex
 10
455.337890625
 20
76.220703125
 30
0.0
  0
SEQEND
  5
112
330
10F
100
AcDbEntity
  8
Ebene 1
370
     0
  0
POLYLINE
  5
113
330
3C
100
AcDbEntity
  8
Ebene 1
370
     0
100
AcDb2dPolyline
 66
     1
 10
0.0
 20
0.0
 30
0.0
  0
VERTEX
  5
114
330
113
100
AcDbEntity
  8
Ebene 1
370
     0
100
AcDbVertex
100
AcDb2dVertex
 10
383.2939453125
 20
76.220703125
 30
0.0
  0
VERTEX
  5
115
330
113
100
AcDbEntity
  8
Ebene 1
370
     0
100
AcDbVertex
100
AcDb2dVertex
 10
383.2939453125
 20
59.9853515625
 30
0.0
  0
SEQEND
  5
116
330
113
100
AcDbEntity
  8
Ebene 1
370
     0
  0
POLYLINE
  5
117
330
3C
100
AcDbEntity
  8
Ebene 1
370
     0
100
AcDb2dPolyline
 66
     1
 10
0.0
 20
0.0
 30
0.0
  0
VERTEX
  5
118
330
117
100
AcDbEntity
  8
Ebene 1
370
     0
100
AcDbVertex
100
AcDb2dVertex
 10
455.337890625
 20
34.75
 30
0.0
  0
VERTEX
  5
119
330
117
100
AcDbEntity
  8
Ebene 1
370
     0
100
AcDbVertex
100
AcDb2dVertex
 10
455.2939453125
 20
35.3671875
 30
0.0
  0
VERTEX
  5
11A
330
117
100
AcDbEntity
  8
Ebene 1
370
     0
100
AcDbVertex
100
AcDb2dVertex
 10
455.1171875
 20
35.9853515625
 30
0.0
  0
VERTEX
  5
11B
330
117
100
AcDbEntity
  8
Ebene 1
370
     0
100
AcDbVertex
100
AcDb2dVertex
 10
454.853515625
 20
36.55859375
 30
0.0
  0
VERTEX
  5
11C
330
117
100
AcDbEntity
  8
Ebene 1
370
     0
100
AcDbVertex
100
AcDb2dVertex
 10
454.5
 20
37.0439453125
 30
0.0
  0
VERTEX
  5
11D
330
117
100
AcDbEntity
  8
Ebene 1
370
     0
100
AcDbVertex
100
AcDb2dVertex
 10
454.05859375
 20
37.4853515625
 30
0.0
  0
VERTEX
  5
11E
330
117
100
AcDbEntity
  8
Ebene 1
370
     0
100
AcDbVertex
100
AcDb2dVertex
 10
453.57421875
 20
37.837890625
 30
0.0
  0
VERTEX
  5
11F
330
117
100
AcDbEntity
  8
Ebene 1
370
     0
100
AcDbVertex
100
AcDb2dVertex
 10
453.0
 20
38.1025390625
 30
0.0
  0
VERTEX
  5
120
330
117
100
AcDbEntity
  8
Ebene 1
370
     0
100
AcDbVertex
100
AcDb2dVertex
 10
452.3828125
 20
38.279296875
 30
0.0
  0
VERTEX
  5
121
330
117
100
AcDbEntity
  8
Ebene 1
370
     0
100
AcDbVertex
100
AcDb2dVertex
 10
451.7646484375
 20
38.3232421875
 30
0.0
  0
SEQEND
  5
122
330
117
100
AcDbEntity
  8
Ebene 1
370
     0
  0
POLYLINE
  5
123
330
3C
100
AcDbEntity
  8
Ebene 1
370
     0
100
AcDb2dPolyline
 66
     1
 10
0.0
 20
0.0
 30
0.0
  0
VERTEX
  5
124
330
123
100
AcDbEntity
  8
Ebene 1
370
     0
100
AcDbVertex
100
AcDb2dVertex
 10
386.912109375
 20
38.3232421875
 30
0.0
  0
VERTEX
  5
125
330
123
100
AcDbEntity
  8
Ebene 1
370
     0
100
AcDbVertex
100
AcDb2dVertex
 10
386.2939453125
 20
38.279296875
 30
0.0
  0
VERTEX
  5
126
330
123
100
AcDbEntity
  8
Ebene 1
370
     0
100
AcDbVertex
100
AcDb2dVertex
 10
385.67578125
 20
38.1025390625
 30
0.0
  0
VERTEX
  5
127
330
123
100
AcDbEntity
  8
Ebene 1
370
     0
100
AcDbVertex
100
AcDb2dVertex
 10
385.146484375
 20
37.837890625
 30
0.0
  0
VERTEX
  5
128
330
123
100
AcDbEntity
  8
Ebene 1
370
     0
100
AcDbVertex
100
AcDb2dVertex
 10
384.6171875
 20
37.4853515625
 30
0.0
  0
VERTEX
  5
129
330
123
100
AcDbEntity
  8
Ebene 1
370
     0
100
AcDbVertex
100
AcDb2dVertex
 10
384.17578125
 20
37.0439453125
 30
0.0
  0
VERTEX
  5
12A
330
123
100
AcDbEntity
  8
Ebene 1
370
     0
100
AcDbVertex
100
AcDb2dVertex
 10
383.82421875
 20
36.55859375
 30
0.0
  0
VERTEX
  5
12B
330
123
100
AcDbEntity
  8
Ebene 1
370
     0
100
AcDbVertex
100
AcDb2dVertex
 10
383.55859375
 20
35.9853515625
 30
0.0
  0
VERTEX
  5
12C
330
123
100
AcDbEntity
  8
Ebene 1
370
     0
100
AcDbVertex
100
AcDb2dVertex
 10
383.3828125
 20
35.3671875
 30
0.0
  0
VERTEX
  5
12D
330
123
100
AcDbEntity
  8
Ebene 1
370
     0
100
AcDbVertex
100
AcDb2dVertex
 10
383.337890625
 20
34.75
 30
0.0
  0
SEQEND
  5
12E
330
123
100
AcDbEntity
  8
Ebene 1
370
     0
  0
POLYLINE
  5
12F
330
3C
100
AcDbEntity
  8
Ebene 1
370
     0
100
AcDb2dPolyline
 66
     1
 10
0.0
 20
0.0
 30
0.0
  0
VERTEX
  5
130
330
12F
100
AcDbEntity
  8
Ebene 1
370
     0
100
AcDbVertex
100
AcDb2dVertex
 10
383.337890625
 20
18.5146484375
 30
0.0
  0
VERTEX
  5
131
330
12F
100
AcDbEntity
  8
Ebene 1
370
     0
100
AcDbVertex
100
AcDb2dVertex
 10
383.42578125
 20
17.80859375
 30
0.0
  0
VERTEX
  5
132
330
12F
100
AcDbEntity
  8
Ebene 1
370
     0
100
AcDbVertex
100
AcDb2dVertex
 10
383.603515625
 20
17.1474609375
 30
0.0
  0
VERTEX
  5
133
330
12F
100
AcDbEntity
  8
Ebene 1
370
     0
100
AcDbVertex
100
AcDb2dVertex
 10
383.9560546875
 20
16.529296875
 30
0.0
  0
VERTEX
  5
134
330
12F
100
AcDbEntity
  8
Ebene 1
370
     0
100
AcDbVertex
100
AcDb2dVertex
 10
384.396484375
 20
16.0
 30
0.0
  0
VERTEX
  5
135
330
12F
100
AcDbEntity
  8
Ebene 1
370
     0
100
AcDbVertex
100
AcDb2dVertex
 10
384.92578125
 20
15.55859375
 30
0.0
  0
VERTEX
  5
136
330
12F
100
AcDbEntity
  8
Ebene 1
370
     0
100
AcDbVertex
100
AcDb2dVertex
 10
385.5439453125
 20
15.2060546875
 30
0.0
  0
VERTEX
  5
137
330
12F
100
AcDbEntity
  8
Ebene 1
370
     0
100
AcDbVertex
100
AcDb2dVertex
 10
386.2060546875
 20
15.029296875
 30
0.0
  0
VERTEX
  5
138
330
12F
100
AcDbEntity
  8
Ebene 1
370
     0
100
AcDbVertex
100
AcDb2dVertex
 10
386.912109375
 20
14.94140625
 30
0.0
  0
SEQEND
  5
139
330
12F
100
AcDbEntity
  8
Ebene 1
370
     0
  0
POLYLINE
  5
13A
330
3C
100
AcDbEntity
  8
Ebene 1
370
     0
100
AcDb2dPolyline
 66
     1
 10
0.0
 20
0.0
 30
0.0
  0
VERTEX
  5
13B
330
13A
100
AcDbEntity
  8
Ebene 1
370
     0
100
AcDbVertex
100
AcDb2dVertex
 10
451.7646484375
 20
14.94140625
 30
0.0
  0
VERTEX
  5
13C
330
13A
100
AcDbEntity
  8
Ebene 1
370
     0
100
AcDbVertex
100
AcDb2dVertex
 10
452.3828125
 20
14.9853515625
 30
0.0
  0
VERTEX
  5
13D
330
13A
100
AcDbEntity
  8
Ebene 1
370
     0
100
AcDbVertex
100
AcDb2dVertex
 10
453.0
 20
15.162109375
 30
0.0
  0
VERTEX
  5
13E
330
13A
100
AcDbEntity
  8
Ebene 1
370
     0
100
AcDbVertex
100
AcDb2dVertex
 10
453.57421875
 20
15.4267578125
 30
0.0
  0
VERTEX
  5
13F
330
13A
100
AcDbEntity
  8
Ebene 1
370
     0
100
AcDbVertex
100
AcDb2dVertex
 10
454.05859375
 20
15.779296875
 30
0.0
  0
VERTEX
  5
140
330
13A
100
AcDbEntity
  8
Ebene 1
370
     0
100
AcDbVertex
100
AcDb2dVertex
 10
454.5
 20
16.220703125
 30
0.0
  0
VERTEX
  5
141
330
13A
100
AcDbEntity
  8
Ebene 1
370
     0
100
AcDbVertex
100
AcDb2dVertex
 10
454.853515625
 20
16.75
 30
0.0
  0
VERTEX
  5
142
330
13A
100
AcDbEntity
  8
Ebene 1
370
     0
100
AcDbVertex
100
AcDb2dVertex
 10
455.1171875
 20
17.279296875
 30
0.0
  0
VERTEX
  5
143
330
13A
100
AcDbEntity
  8
Ebene 1
370
     0
100
AcDbVertex
100
AcDb2dVertex
 10
455.2939453125
 20
17.8974609375
 30
0.0
  0
VERTEX
  5
144
330
13A
100
AcDbEntity
  8
Ebene 1
370
     0
100
AcDbVertex
100
AcDb2dVertex
 10
455.337890625
 20
18.5146484375
 30
0.0
  0
SEQEND
  5
145
330
13A
100
AcDbEntity
  8
Ebene 1
370
     0
  0
POLYLINE
  5
146
330
3C
100
AcDbEntity
  8
Ebene 1
370
     0
100
AcDb2dPolyline
 66
     1
 10
0.0
 20
0.0
 30
0.0
  0
VERTEX
  5
147
330
146
100
AcDbEntity
  8
Ebene 1
370
     0
100
AcDbVertex
100
AcDb2dVertex
 10
386.912109375
 20
79.7939453125
 30
0.0
  0
VERTEX
  5
148
330
146
100
AcDbEntity
  8
Ebene 1
370
     0
100
AcDbVertex
100
AcDb2dVertex
 10
386.2939453125
 20
79.75
 30
0.0
  0
VERTEX
  5
149
330
146
100
AcDbEntity
  8
Ebene 1
370
     0
100
AcDbVertex
100
AcDb2dVertex
 10
385.67578125
 20
79.5732421875
 30
0.0
  0
VERTEX
  5
14A
330
146
100
AcDbEntity
  8
Ebene 1
370
     0
100
AcDbVertex
100
AcDb2dVertex
 10
385.146484375
 20
79.30859375
 30
0.0
  0
VERTEX
  5
14B
330
146
100
AcDbEntity
  8
Ebene 1
370
     0
100
AcDbVertex
100
AcDb2dVertex
 10
384.6171875
 20
78.9560546875
 30
0.0
  0
VERTEX
  5
14C
330
146
100
AcDbEntity
  8
Ebene 1
370
     0
100
AcDbVertex
100
AcDb2dVertex
 10
384.17578125
 20
78.5146484375
 30
0.0
  0
VERTEX
  5
14D
330
146
100
AcDbEntity
  8
Ebene 1
370
     0
100
AcDbVertex
100
AcDb2dVertex
 10
383.82421875
 20
78.029296875
 30
0.0
  0
VERTEX
  5
14E
330
146
100
AcDbEntity
  8
Ebene 1
370
     0
100
AcDbVertex
100
AcDb2dVertex
 10
383.55859375
 20
77.4560546875
 30
0.0
  0
VERTEX
  5
14F
330
146
100
AcDbEntity
  8
Ebene 1
370
     0
100
AcDbVertex
100
AcDb2dVertex
 10
383.3828125
 20
76.837890625
 30
0.0
  0
VERTEX
  5
150
330
146
100
AcDbEntity
  8
Ebene 1
370
     0
100
AcDbVertex
100
AcDb2dVertex
 10
383.337890625
 20
76.220703125
 30
0.0
  0
SEQEND
  5
151
330
146
100
AcDbEntity
  8
Ebene 1
370
     0
  0
POLYLINE
  5
152
330
3C
100
AcDbEntity
  8
Ebene 1
370
     0
100
AcDb2dPolyline
 66
     1
 10
0.0
 20
0.0
 30
0.0
  0
VERTEX
  5
153
330
152
100
AcDbEntity
  8
Ebene 1
370
     0
100
AcDbVertex
100
AcDb2dVertex
 10
455.337890625
 20
76.220703125
 30
0.0
  0
VERTEX
  5
154
330
152
100
AcDbEntity
  8
Ebene 1
370
     0
100
AcDbVertex
100
AcDb2dVertex
 10
455.2939453125
 20
76.837890625
 30
0.0
  0
VERTEX
  5
155
330
152
100
AcDbEntity
  8
Ebene 1
370
     0
100
AcDbVertex
100
AcDb2dVertex
 10
455.1171875
 20
77.4560546875
 30
0.0
  0
VERTEX
  5
156
330
152
100
AcDbEntity
  8
Ebene 1
370
     0
100
AcDbVertex
100
AcDb2dVertex
 10
454.853515625
 20
78.029296875
 30
0.0
  0
VERTEX
  5
157
330
152
100
AcDbEntity
  8
Ebene 1
370
     0
100
AcDbVertex
100
AcDb2dVertex
 10
454.5
 20
78.5146484375
 30
0.0
  0
VERTEX
  5
158
330
152
100
AcDbEntity
  8
Ebene 1
370
     0
100
AcDbVertex
100
AcDb2dVertex
 10
454.05859375
 20
78.9560546875
 30
0.0
  0
VERTEX
  5
159
330
152
100
AcDbEntity
  8
Ebene 1
370
     0
100
AcDbVertex
100
AcDb2dVertex
 10
453.57421875
 20
79.30859375
 30
0.0
  0
VERTEX
  5
15A
330
152
100
AcDbEntity
  8
Ebene 1
370
     0
100
AcDbVertex
100
AcDb2dVertex
 10
453.0
 20
79.5732421875
 30
0.0
  0
VERTEX
  5
15B
330
152
100
AcDbEntity
  8
Ebene 1
370
     0
100
AcDbVertex
100
AcDb2dVertex
 10
452.3828125
 20
79.75
 30
0.0
  0
VERTEX
  5
15C
330
152
100
AcDbEntity
  8
Ebene 1
370
     0
100
AcDbVertex
100
AcDb2dVertex
 10
451.7646484375
 20
79.7939453125
 30
0.0
  0
SEQEND
  5
15D
330
152
100
AcDbEntity
  8
Ebene 1
370
     0
  0
POLYLINE
  5
15E
330
3C
100
AcDbEntity
  8
Ebene 1
370
     0
100
AcDb2dPolyline
 66
     1
 10
0.0
 20
0.0
 30
0.0
  0
VERTEX
  5
15F
330
15E
100
AcDbEntity
  8
Ebene 1
370
     0
100
AcDbVertex
100
AcDb2dVertex
 10
439.19140625
 20
40.1328125
 30
0.0
  0
VERTEX
  5
160
330
15E
100
AcDbEntity
  8
Ebene 1
370
     0
100
AcDbVertex
100
AcDb2dVertex
 10
439.2353515625
 20
39.69140625
 30
0.0
  0
VERTEX
  5
161
330
15E
100
AcDbEntity
  8
Ebene 1
370
     0
100
AcDbVertex
100
AcDb2dVertex
 10
439.412109375
 20
39.25
 30
0.0
  0
VERTEX
  5
162
330
15E
100
AcDbEntity
  8
Ebene 1
370
     0
100
AcDbVertex
100
AcDb2dVertex
 10
439.720703125
 20
38.8974609375
 30
0.0
  0
VERTEX
  5
163
330
15E
100
AcDbEntity
  8
Ebene 1
370
     0
100
AcDbVertex
100
AcDb2dVertex
 10
440.07421875
 20
38.587890625
 30
0.0
  0
VERTEX
  5
164
330
15E
100
AcDbEntity
  8
Ebene 1
370
     0
100
AcDbVertex
100
AcDb2dVertex
 10
440.5146484375
 20
38.412109375
 30
0.0
  0
VERTEX
  5
165
330
15E
100
AcDbEntity
  8
Ebene 1
370
     0
100
AcDbVertex
100
AcDb2dVertex
 10
440.9560546875
 20
38.3671875
 30
0.0
  0
SEQEND
  5
166
330
15E
100
AcDbEntity
  8
Ebene 1
370
     0
  0
POLYLINE
  5
167
330
3C
100
AcDbEntity
  8
Ebene 1
370
     0
100
AcDb2dPolyline
 66
     1
 10
0.0
 20
0.0
 30
0.0
  0
VERTEX
  5
168
330
167
100
AcDbEntity
  8
Ebene 1
370
     0
100
AcDbVertex
100
AcDb2dVertex
 10
397.720703125
 20
38.3671875
 30
0.0
  0
VERTEX
  5
169
330
167
100
AcDbEntity
  8
Ebene 1
370
     0
100
AcDbVertex
100
AcDb2dVertex
 10
398.162109375
 20
38.412109375
 30
0.0
  0
VERTEX
  5
16A
330
167
100
AcDbEntity
  8
Ebene 1
370
     0
100
AcDbVertex
100
AcDb2dVertex
 10
398.603515625
 20
38.587890625
 30
0.0
  0
VERTEX
  5
16B
330
167
100
AcDbEntity
  8
Ebene 1
370
     0
100
AcDbVertex
100
AcDb2dVertex
 10
398.9560546875
 20
38.8974609375
 30
0.0
  0
VERTEX
  5
16C
330
167
100
AcDbEntity
  8
Ebene 1
370
     0
100
AcDbVertex
100
AcDb2dVertex
 10
399.2646484375
 20
39.25
 30
0.0
  0
VERTEX
  5
16D
330
167
100
AcDbEntity
  8
Ebene 1
370
     0
100
AcDbVertex
100
AcDb2dVertex
 10
399.44140625
 20
39.69140625
 30
0.0
  0
VERTEX
  5
16E
330
167
100
AcDbEntity
  8
Ebene 1
370
     0
100
AcDbVertex
100
AcDb2dVertex
 10
399.4853515625
 20
40.1328125
 30
0.0
  0
SEQEND
  5
16F
330
167
100
AcDbEntity
  8
Ebene 1
370
     0
  0
POLYLINE
  5
170
330
3C
100
AcDbEntity
  8
Ebene 1
370
     0
100
AcDb2dPolyline
 66
     1
 10
0.0
 20
0.0
 30
0.0
  0
VERTEX
  5
171
330
170
100
AcDbEntity
  8
Ebene 1
370
     0
100
AcDbVertex
100
AcDb2dVertex
 10
399.4853515625
 20
54.55859375
 30
0.0
  0
VERTEX
  5
172
330
170
100
AcDbEntity
  8
Ebene 1
370
     0
100
AcDbVertex
100
AcDb2dVertex
 10
399.44140625
 20
55.0
 30
0.0
  0
VERTEX
  5
173
330
170
100
AcDbEntity
  8
Ebene 1
370
     0
100
AcDbVertex
100
AcDb2dVertex
 10
399.2646484375
 20
55.44140625
 30
0.0
  0
VERTEX
  5
174
330
170
100
AcDbEntity
  8
Ebene 1
370
     0
100
AcDbVertex
100
AcDb2dVertex
 10
398.9560546875
 20
55.7939453125
 30
0.0
  0
VERTEX
  5
175
330
170
100
AcDbEntity
  8
Ebene 1
370
     0
100
AcDbVertex
100
AcDb2dVertex
 10
398.603515625
 20
56.1025390625
 30
0.0
  0
VERTEX
  5
176
330
170
100
AcDbEntity
  8
Ebene 1
370
     0
100
AcDbVertex
100
AcDb2dVertex
 10
398.162109375
 20
56.279296875
 30
0.0
  0
VERTEX
  5
177
330
170
100
AcDbEntity
  8
Ebene 1
370
     0
100
AcDbVertex
100
AcDb2dVertex
 10
397.720703125
 20
56.3232421875
 30
0.0
  0
SEQEND
  5
178
330
170
100
AcDbEntity
  8
Ebene 1
370
     0
  0
POLYLINE
  5
179
330
3C
100
AcDbEntity
  8
Ebene 1
370
     0
100
AcDb2dPolyline
 66
     1
 10
0.0
 20
0.0
 30
0.0
  0
VERTEX
  5
17A
330
179
100
AcDbEntity
  8
Ebene 1
370
     0
100
AcDbVertex
100
AcDb2dVertex
 10
440.9560546875
 20
56.3232421875
 30
0.0
  0
VERTEX
  5
17B
330
179
100
AcDbEntity
  8
Ebene 1
370
     0
100
AcDbVertex
100
AcDb2dVertex
 10
440.5146484375
 20
56.279296875
 30
0.0
  0
VERTEX
  5
17C
330
179
100
AcDbEntity
  8
Ebene 1
370
     0
100
AcDbVertex
100
AcDb2dVertex
 10
440.07421875
 20
56.1025390625
 30
0.0
  0
VERTEX
  5
17D
330
179
100
AcDbEntity
  8
Ebene 1
370
     0
100
AcDbVertex
100
AcDb2dVertex
 10
439.720703125
 20
55.7939453125
 30
0.0
  0
VERTEX
  5
17E
330
179
100
AcDbEntity
  8
Ebene 1
370
     0
100
AcDbVertex
100
AcDb2dVertex
 10
439.412109375
 20
55.44140625
 30
0.0
  0
VERTEX
  5
17F
330
179
100
AcDbEntity
  8
Ebene 1
370
     0
100
AcDbVertex
100
AcDb2dVertex
 10
439.2353515625
 20
55.0
 30
0.0
  0
VERTEX
  5
180
330
179
100
AcDbEntity
  8
Ebene 1
370
     0
100
AcDbVertex
100
AcDb2dVertex
 10
439.19140625
 20
54.55859375
 30
0.0
  0
SEQEND
  5
181
330
179
100
AcDbEntity
  8
Ebene 1
370
     0
  0
POLYLINE
  5
182
330
3C
100
AcDbEntity
  8
Ebene 1
370
     0
100
AcDb2dPolyline
 66
     1
 10
0.0
 20
0.0
 30
0.0
  0
VERTEX
  5
183
330
182
100
AcDbEntity
  8
Ebene 1
370
     0
100
AcDbVertex
100
AcDb2dVertex
 10
399.4853515625
 20
54.55859375
 30
0.0
  0
VERTEX
  5
184
330
182
100
AcDbEntity
  8
Ebene 1
370
     0
100
AcDbVertex
100
AcDb2dVertex
 10
399.4853515625
 20
40.1328125
 30
0.0
  0
SEQEND
  5
185
330
182
100
AcDbEntity
  8
Ebene 1
370
     0
  0
POLYLINE
  5
186
330
3C
100
AcDbEntity
  8
Ebene 1
370
     0
100
AcDb2dPolyline
 66
     1
 10
0.0
 20
0.0
 30
0.0
  0
VERTEX
  5
187
330
186
100
AcDbEntity
  8
Ebene 1
370
     0
100
AcDbVertex
100
AcDb2dVertex
 10
439.146484375
 20
40.1328125
 30
0.0
  0
VERTEX
  5
188
330
186
100
AcDbEntity
  8
Ebene 1
370
     0
100
AcDbVertex
100
AcDb2dVertex
 10
439.146484375
 20
54.55859375
 30
0.0
  0
SEQEND
  5
189
330
186
100
AcDbEntity
  8
Ebene 1
370
     0
  0
POLYLINE
  5
18A
330
3C
100
AcDbEntity
  8
Ebene 1
370
     0
100
AcDb2dPolyline
 66
     1
 10
0.0
 20
0.0
 30
0.0
  0
VERTEX
  5
18B
330
18A
100
AcDbEntity
  8
Ebene 1
370
     0
100
AcDbVertex
100
AcDb2dVertex
 10
472.4560546875
 20
61.3974609375
 30
0.0
  0
VERTEX
  5
18C
330
18A
100
AcDbEntity
  8
Ebene 1
370
     0
100
AcDbVertex
100
AcDb2dVertex
 10
472.19140625
 20
61.3525390625
 30
0.0
  0
VERTEX
  5
18D
330
18A
100
AcDbEntity
  8
Ebene 1
370
     0
100
AcDbVertex
100
AcDb2dVertex
 10
471.970703125
 20
61.1767578125
 30
0.0
  0
VERTEX
  5
18E
330
18A
100
AcDbEntity
  8
Ebene 1
370
     0
100
AcDbVertex
100
AcDb2dVertex
 10
471.7939453125
 20
60.9560546875
 30
0.0
  0
VERTEX
  5
18F
330
18A
100
AcDbEntity
  8
Ebene 1
370
     0
100
AcDbVertex
100
AcDb2dVertex
 10
471.75
 20
60.69140625
 30
0.0
  0
SEQEND
  5
190
330
18A
100
AcDbEntity
  8
Ebene 1
370
     0
  0
POLYLINE
  5
191
330
3C
100
AcDbEntity
  8
Ebene 1
370
     0
100
AcDb2dPolyline
 66
     1
 10
0.0
 20
0.0
 30
0.0
  0
VERTEX
  5
192
330
191
100
AcDbEntity
  8
Ebene 1
370
     0
100
AcDbVertex
100
AcDb2dVertex
 10
471.75
 20
48.25
 30
0.0
  0
VERTEX
  5
193
330
191
100
AcDbEntity
  8
Ebene 1
370
     0
100
AcDbVertex
100
AcDb2dVertex
 10
471.837890625
 20
47.8974609375
 30
0.0
  0
VERTEX
  5
194
330
191
100
AcDbEntity
  8
Ebene 1
370
     0
100
AcDbVertex
100
AcDb2dVertex
 10
472.103515625
 20
47.6328125
 30
0.0
  0
VERTEX
  5
195
330
191
100
AcDbEntity
  8
Ebene 1
370
     0
100
AcDbVertex
100
AcDb2dVertex
 10
472.4560546875
 20
47.5439453125
 30
0.0
  0
SEQEND
  5
196
330
191
100
AcDbEntity
  8
Ebene 1
370
     0
  0
POLYLINE
  5
197
330
3C
100
AcDbEntity
  8
Ebene 1
370
     0
100
AcDb2dPolyline
 66
     1
 10
0.0
 20
0.0
 30
0.0
  0
VERTEX
  5
198
330
197
100
AcDbEntity
  8
Ebene 1
370
     0
100
AcDbVertex
100
AcDb2dVertex
 10
471.7060546875
 20
60.69140625
 30
0.0
  0
VERTEX
  5
199
330
197
100
AcDbEntity
  8
Ebene 1
370
     0
100
AcDbVertex
100
AcDb2dVertex
 10
471.7060546875
 20
48.25
 30
0.0
  0
SEQEND
  5
19A
330
197
100
AcDbEntity
  8
Ebene 1
370
     0
  0
POLYLINE
  5
19B
330
3C
100
AcDbEntity
  8
Ebene 1
370
     0
100
AcDb2dPolyline
 66
     1
 10
0.0
 20
0.0
 30
0.0
  0
VERTEX
  5
19C
330
19B
100
AcDbEntity
  8
Ebene 1
370
     0
100
AcDbVertex
100
AcDb2dVertex
 10
472.4560546875
 20
47.1474609375
 30
0.0
  0
VERTEX
  5
19D
330
19B
100
AcDbEntity
  8
Ebene 1
370
     0
100
AcDbVertex
100
AcDb2dVertex
 10
472.19140625
 20
47.1025390625
 30
0.0
  0
VERTEX
  5
19E
330
19B
100
AcDbEntity
  8
Ebene 1
370
     0
100
AcDbVertex
100
AcDb2dVertex
 10
471.970703125
 20
46.9267578125
 30
0.0
  0
VERTEX
  5
19F
330
19B
100
AcDbEntity
  8
Ebene 1
370
     0
100
AcDbVertex
100
AcDb2dVertex
 10
471.7939453125
 20
46.7060546875
 30
0.0
  0
VERTEX
  5
1A0
330
19B
100
AcDbEntity
  8
Ebene 1
370
     0
100
AcDbVertex
100
AcDb2dVertex
 10
471.75
 20
46.44140625
 30
0.0
  0
SEQEND
  5
1A1
330
19B
100
AcDbEntity
  8
Ebene 1
370
     0
  0
POLYLINE
  5
1A2
330
3C
100
AcDbEntity
  8
Ebene 1
370
     0
100
AcDb2dPolyline
 66
     1
 10
0.0
 20
0.0
 30
0.0
  0
VERTEX
  5
1A3
330
1A2
100
AcDbEntity
  8
Ebene 1
370
     0
100
AcDbVertex
100
AcDb2dVertex
 10
471.75
 20
34.0
 30
0.0
  0
VERTEX
  5
1A4
330
1A2
100
AcDbEntity
  8
Ebene 1
370
     0
100
AcDbVertex
100
AcDb2dVertex
 10
471.837890625
 20
33.6474609375
 30
0.0
  0
VERTEX
  5
1A5
330
1A2
100
AcDbEntity
  8
Ebene 1
370
     0
100
AcDbVertex
100
AcDb2dVertex
 10
472.103515625
 20
33.3828125
 30
0.0
  0
VERTEX
  5
1A6
330
1A2
100
AcDbEntity
  8
Ebene 1
370
     0
100
AcDbVertex
100
AcDb2dVertex
 10
472.4560546875
 20
33.2939453125
 30
0.0
  0
SEQEND
  5
1A7
330
1A2
100
AcDbEntity
  8
Ebene 1
370
     0
  0
POLYLINE
  5
1A8
330
3C
100
AcDbEntity
  8
Ebene 1
370
     0
100
AcDb2dPolyline
 66
     1
 10
0.0
 20
0.0
 30
0.0
  0
VERTEX
  5
1A9
330
1A8
100
AcDbEntity
  8
Ebene 1
370
     0
100
AcDbVertex
100
AcDb2dVertex
 10
471.7060546875
 20
46.44140625
 30
0.0
  0
VERTEX
  5
1AA
330
1A8
100
AcDbEntity
  8
Ebene 1
370
     0
100
AcDbVertex
100
AcDb2dVertex
 10
471.7060546875
 20
34.0
 30
0.0
  0
SEQEND
  5
1AB
330
1A8
100
AcDbEntity
  8
Ebene 1
370
     0
  0
POLYLINE
  5
1AC
330
3C
100
AcDbEntity
  8
Ebene 1
370
     0
100
AcDb2dPolyline
 66
     1
 10
0.0
 20
0.0
 30
0.0
  0
VERTEX
  5
1AD
330
1AC
100
AcDbEntity
  8
Ebene 1
370
     0
100
AcDbVertex
100
AcDb2dVertex
 10
478.94140625
 20
69.6025390625
 30
0.0
  0
VERTEX
  5
1AE
330
1AC
100
AcDbEntity
  8
Ebene 1
370
     0
100
AcDbVertex
100
AcDb2dVertex
 10
478.94140625
 20
69.25
 30
0.0
  0
SEQEND
  5
1AF
330
1AC
100
AcDbEntity
  8
Ebene 1
370
     0
  0
POLYLINE
  5
1B0
330
3C
100
AcDbEntity
  8
Ebene 1
370
     0
100
AcDb2dPolyline
 66
     1
 10
0.0
 20
0.0
 30
0.0
  0
VERTEX
  5
1B1
330
1B0
100
AcDbEntity
  8
Ebene 1
370
     0
100
AcDbVertex
100
AcDb2dVertex
 10
478.94140625
 20
25.44140625
 30
0.0
  0
VERTEX
  5
1B2
330
1B0
100
AcDbEntity
  8
Ebene 1
370
     0
100
AcDbVertex
100
AcDb2dVertex
 10
478.94140625
 20
25.087890625
 30
0.0
  0
SEQEND
  5
1B3
330
1B0
100
AcDbEntity
  8
Ebene 1
370
     0
  0
POLYLINE
  5
1B4
330
3C
100
AcDbEntity
  8
Ebene 1
370
     0
100
AcDb2dPolyline
 66
     1
 10
0.0
 20
0.0
 30
0.0
  0
VERTEX
  5
1B5
330
1B4
100
AcDbEntity
  8
Ebene 1
370
     0
100
AcDbVertex
100
AcDb2dVertex
 10
478.94140625
 20
17.8974609375
 30
0.0
  0
VERTEX
  5
1B6
330
1B4
100
AcDbEntity
  8
Ebene 1
370
     0
100
AcDbVertex
100
AcDb2dVertex
 10
478.94140625
 20
14.5439453125
 30
0.0
  0
SEQEND
  5
1B7
330
1B4
100
AcDbEntity
  8
Ebene 1
370
     0
  0
POLYLINE
  5
1B8
330
3C
100
AcDbEntity
  8
Ebene 1
370
     0
100
AcDb2dPolyline
 66
     1
 10
0.0
 20
0.0
 30
0.0
  0
VERTEX
  5
1B9
330
1B8
100
AcDbEntity
  8
Ebene 1
370
     0
100
AcDbVertex
100
AcDb2dVertex
 10
494.9560546875
 20
14.5439453125
 30
0.0
  0
VERTEX
  5
1BA
330
1B8
100
AcDbEntity
  8
Ebene 1
370
     0
100
AcDbVertex
100
AcDb2dVertex
 10
494.9560546875
 20
17.8974609375
 30
0.0
  0
SEQEND
  5
1BB
330
1B8
100
AcDbEntity
  8
Ebene 1
370
     0
  0
POLYLINE
  5
1BC
330
3C
100
AcDbEntity
  8
Ebene 1
370
     0
100
AcDb2dPolyline
 66
     1
 10
0.0
 20
0.0
 30
0.0
  0
VERTEX
  5
1BD
330
1BC
100
AcDbEntity
  8
Ebene 1
370
     0
100
AcDbVertex
100
AcDb2dVertex
 10
494.9560546875
 20
25.087890625
 30
0.0
  0
VERTEX
  5
1BE
330
1BC
100
AcDbEntity
  8
Ebene 1
370
     0
100
AcDbVertex
100
AcDb2dVertex
 10
494.9560546875
 20
25.44140625
 30
0.0
  0
SEQEND
  5
1BF
330
1BC
100
AcDbEntity
  8
Ebene 1
370
     0
  0
POLYLINE
  5
1C0
330
3C
100
AcDbEntity
  8
Ebene 1
370
     0
100
AcDb2dPolyline
 66
     1
 10
0.0
 20
0.0
 30
0.0
  0
VERTEX
  5
1C1
330
1C0
100
AcDbEntity
  8
Ebene 1
370
     0
100
AcDbVertex
100
AcDb2dVertex
 10
493.896484375
 20
13.4853515625
 30
0.0
  0
VERTEX
  5
1C2
330
1C0
100
AcDbEntity
  8
Ebene 1
370
     0
100
AcDbVertex
100
AcDb2dVertex
 10
494.2939453125
 20
13.5732421875
 30
0.0
  0
VERTEX
  5
1C3
330
1C0
100
AcDbEntity
  8
Ebene 1
370
     0
100
AcDbVertex
100
AcDb2dVertex
 10
494.646484375
 20
13.7939453125
 30
0.0
  0
VERTEX
  5
1C4
330
1C0
100
AcDbEntity
  8
Ebene 1
370
     0
100
AcDbVertex
100
AcDb2dVertex
 10
494.8671875
 20
14.1474609375
 30
0.0
  0
VERTEX
  5
1C5
330
1C0
100
AcDbEntity
  8
Ebene 1
370
     0
100
AcDbVertex
100
AcDb2dVertex
 10
494.9560546875
 20
14.5439453125
 30
0.0
  0
SEQEND
  5
1C6
330
1C0
100
AcDbEntity
  8
Ebene 1
370
     0
  0
POLYLINE
  5
1C7
330
3C
100
AcDbEntity
  8
Ebene 1
370
     0
100
AcDb2dPolyline
 66
     1
 10
0.0
 20
0.0
 30
0.0
  0
VERTEX
  5
1C8
330
1C7
100
AcDbEntity
  8
Ebene 1
370
     0
100
AcDbVertex
100
AcDb2dVertex
 10
478.94140625
 20
14.5439453125
 30
0.0
  0
VERTEX
  5
1C9
330
1C7
100
AcDbEntity
  8
Ebene 1
370
     0
100
AcDbVertex
100
AcDb2dVertex
 10
479.029296875
 20
14.1474609375
 30
0.0
  0
VERTEX
  5
1CA
330
1C7
100
AcDbEntity
  8
Ebene 1
370
     0
100
AcDbVertex
100
AcDb2dVertex
 10
479.25
 20
13.7939453125
 30
0.0
  0
VERTEX
  5
1CB
330
1C7
100
AcDbEntity
  8
Ebene 1
370
     0
100
AcDbVertex
100
AcDb2dVertex
 10
479.603515625
 20
13.5732421875
 30
0.0
  0
VERTEX
  5
1CC
330
1C7
100
AcDbEntity
  8
Ebene 1
370
     0
100
AcDbVertex
100
AcDb2dVertex
 10
480.0
 20
13.4853515625
 30
0.0
  0
SEQEND
  5
1CD
330
1C7
100
AcDbEntity
  8
Ebene 1
370
     0
  0
POLYLINE
  5
1CE
330
3C
100
AcDbEntity
  8
Ebene 1
370
     0
100
AcDb2dPolyline
 66
     1
 10
0.0
 20
0.0
 30
0.0
  0
VERTEX
  5
1CF
330
1CE
100
AcDbEntity
  8
Ebene 1
370
     0
100
AcDbVertex
100
AcDb2dVertex
 10
461.5146484375
 20
69.25
 30
0.0
  0
VERTEX
  5
1D0
330
1CE
100
AcDbEntity
  8
Ebene 1
370
     0
100
AcDbVertex
100
AcDb2dVertex
 10
461.5146484375
 20
62.05859375
 30
0.0
  0
SEQEND
  5
1D1
330
1CE
100
AcDbEntity
  8
Ebene 1
370
     0
  0
POLYLINE
  5
1D2
330
3C
100
AcDbEntity
  8
Ebene 1
370
     0
100
AcDb2dPolyline
 66
     1
 10
0.0
 20
0.0
 30
0.0
  0
VERTEX
  5
1D3
330
1D2
100
AcDbEntity
  8
Ebene 1
370
     0
100
AcDbVertex
100
AcDb2dVertex
 10
461.5146484375
 20
32.6767578125
 30
0.0
  0
VERTEX
  5
1D4
330
1D2
100
AcDbEntity
  8
Ebene 1
370
     0
100
AcDbVertex
100
AcDb2dVertex
 10
461.5146484375
 20
25.44140625
 30
0.0
  0
SEQEND
  5
1D5
330
1D2
100
AcDbEntity
  8
Ebene 1
370
     0
  0
POLYLINE
  5
1D6
330
3C
100
AcDbEntity
  8
Ebene 1
370
     0
100
AcDb2dPolyline
 66
     1
 10
0.0
 20
0.0
 30
0.0
  0
VERTEX
  5
1D7
330
1D6
100
AcDbEntity
  8
Ebene 1
370
     0
100
AcDbVertex
100
AcDb2dVertex
 10
475.5439453125
 20
62.05859375
 30
0.0
  0
VERTEX
  5
1D8
330
1D6
100
AcDbEntity
  8
Ebene 1
370
     0
100
AcDbVertex
100
AcDb2dVertex
 10
475.5439453125
 20
60.69140625
 30
0.0
  0
SEQEND
  5
1D9
330
1D6
100
AcDbEntity
  8
Ebene 1
370
     0
  0
POLYLINE
  5
1DA
330
3C
100
AcDbEntity
  8
Ebene 1
370
     0
100
AcDb2dPolyline
 66
     1
 10
0.0
 20
0.0
 30
0.0
  0
VERTEX
  5
1DB
330
1DA
100
AcDbEntity
  8
Ebene 1
370
     0
100
AcDbVertex
100
AcDb2dVertex
 10
475.5439453125
 20
48.25
 30
0.0
  0
VERTEX
  5
1DC
330
1DA
100
AcDbEntity
  8
Ebene 1
370
     0
100
AcDbVertex
100
AcDb2dVertex
 10
475.5439453125
 20
46.44140625
 30
0.0
  0
SEQEND
  5
1DD
330
1DA
100
AcDbEntity
  8
Ebene 1
370
     0
  0
POLYLINE
  5
1DE
330
3C
100
AcDbEntity
  8
Ebene 1
370
     0
100
AcDb2dPolyline
 66
     1
 10
0.0
 20
0.0
 30
0.0
  0
VERTEX
  5
1DF
330
1DE
100
AcDbEntity
  8
Ebene 1
370
     0
100
AcDbVertex
100
AcDb2dVertex
 10
475.5439453125
 20
34.0
 30
0.0
  0
VERTEX
  5
1E0
330
1DE
100
AcDbEntity
  8
Ebene 1
370
     0
100
AcDbVertex
100
AcDb2dVertex
 10
475.5439453125
 20
32.6767578125
 30
0.0
  0
SEQEND
  5
1E1
330
1DE
100
AcDbEntity
  8
Ebene 1
370
     0
  0
POLYLINE
  5
1E2
330
3C
100
AcDbEntity
  8
Ebene 1
370
     0
100
AcDb2dPolyline
 66
     1
 10
0.0
 20
0.0
 30
0.0
  0
VERTEX
  5
1E3
330
1E2
100
AcDbEntity
  8
Ebene 1
370
     0
100
AcDbVertex
100
AcDb2dVertex
 10
494.646484375
 20
73.5732421875
 30
0.0
  0
VERTEX
  5
1E4
330
1E2
100
AcDbEntity
  8
Ebene 1
370
     0
100
AcDbVertex
100
AcDb2dVertex
 10
494.646484375
 20
71.6328125
 30
0.0
  0
SEQEND
  5
1E5
330
1E2
100
AcDbEntity
  8
Ebene 1
370
     0
  0
POLYLINE
  5
1E6
330
3C
100
AcDbEntity
  8
Ebene 1
370
     0
100
AcDb2dPolyline
 66
     1
 10
0.0
 20
0.0
 30
0.0
  0
VERTEX
  5
1E7
330
1E6
100
AcDbEntity
  8
Ebene 1
370
     0
100
AcDbVertex
100
AcDb2dVertex
 10
494.646484375
 20
42.55859375
 30
0.0
  0
VERTEX
  5
1E8
330
1E6
100
AcDbEntity
  8
Ebene 1
370
     0
100
AcDbVertex
100
AcDb2dVertex
 10
494.646484375
 20
40.3974609375
 30
0.0
  0
SEQEND
  5
1E9
330
1E6
100
AcDbEntity
  8
Ebene 1
370
     0
  0
POLYLINE
  5
1EA
330
3C
100
AcDbEntity
  8
Ebene 1
370
     0
100
AcDb2dPolyline
 66
     1
 10
0.0
 20
0.0
 30
0.0
  0
VERTEX
  5
1EB
330
1EA
100
AcDbEntity
  8
Ebene 1
370
     0
100
AcDbVertex
100
AcDb2dVertex
 10
492.92578125
 20
73.5732421875
 30
0.0
  0
VERTEX
  5
1EC
330
1EA
100
AcDbEntity
  8
Ebene 1
370
     0
100
AcDbVertex
100
AcDb2dVertex
 10
492.92578125
 20
71.587890625
 30
0.0
  0
SEQEND
  5
1ED
330
1EA
100
AcDbEntity
  8
Ebene 1
370
     0
  0
POLYLINE
  5
1EE
330
3C
100
AcDbEntity
  8
Ebene 1
370
     0
100
AcDb2dPolyline
 66
     1
 10
0.0
 20
0.0
 30
0.0
  0
VERTEX
  5
1EF
330
1EE
100
AcDbEntity
  8
Ebene 1
370
     0
100
AcDbVertex
100
AcDb2dVertex
 10
491.82421875
 20
60.779296875
 30
0.0
  0
VERTEX
  5
1F0
330
1EE
100
AcDbEntity
  8
Ebene 1
370
     0
100
AcDbVertex
100
AcDb2dVertex
 10
491.82421875
 20
59.5
 30
0.0
  0
SEQEND
  5
1F1
330
1EE
100
AcDbEntity
  8
Ebene 1
370
     0
  0
POLYLINE
  5
1F2
330
3C
100
AcDbEntity
  8
Ebene 1
370
     0
100
AcDb2dPolyline
 66
     1
 10
0.0
 20
0.0
 30
0.0
  0
VERTEX
  5
1F3
330
1F2
100
AcDbEntity
  8
Ebene 1
370
     0
100
AcDbVertex
100
AcDb2dVertex
 10
491.82421875
 20
62.05859375
 30
0.0
  0
VERTEX
  5
1F4
330
1F2
100
AcDbEntity
  8
Ebene 1
370
     0
100
AcDbVertex
100
AcDb2dVertex
 10
491.82421875
 20
60.779296875
 30
0.0
  0
SEQEND
  5
1F5
330
1F2
100
AcDbEntity
  8
Ebene 1
370
     0
  0
POLYLINE
  5
1F6
330
3C
100
AcDbEntity
  8
Ebene 1
370
     0
100
AcDb2dPolyline
 66
     1
 10
0.0
 20
0.0
 30
0.0
  0
VERTEX
  5
1F7
330
1F6
100
AcDbEntity
  8
Ebene 1
370
     0
100
AcDbVertex
100
AcDb2dVertex
 10
466.720703125
 20
103.6171875
 30
0.0
  0
VERTEX
  5
1F8
330
1F6
100
AcDbEntity
  8
Ebene 1
370
     0
100
AcDbVertex
100
AcDb2dVertex
 10
464.912109375
 20
103.6171875
 30
0.0
  0
VERTEX
  5
1F9
330
1F6
100
AcDbEntity
  8
Ebene 1
370
     0
100
AcDbVertex
100
AcDb2dVertex
 10
441.4853515625
 20
103.6171875
 30
0.0
  0
SEQEND
  5
1FA
330
1F6
100
AcDbEntity
  8
Ebene 1
370
     0
  0
POLYLINE
  5
1FB
330
3C
100
AcDbEntity
  8
Ebene 1
370
     0
100
AcDb2dPolyline
 66
     1
 10
0.0
 20
0.0
 30
0.0
  0
VERTEX
  5
1FC
330
1FB
100
AcDbEntity
  8
Ebene 1
370
     0
100
AcDbVertex
100
AcDb2dVertex
 10
467.7353515625
 20
103.6171875
 30
0.0
  0
VERTEX
  5
1FD
330
1FB
100
AcDbEntity
  8
Ebene 1
370
     0
100
AcDbVertex
100
AcDb2dVertex
 10
466.720703125
 20
103.6171875
 30
0.0
  0
SEQEND
  5
1FE
330
1FB
100
AcDbEntity
  8
Ebene 1
370
     0
  0
POLYLINE
  5
1FF
330
3C
100
AcDbEntity
  8
Ebene 1
370
     0
100
AcDb2dPolyline
 66
     1
 10
0.0
 20
0.0
 30
0.0
  0
VERTEX
  5
200
330
1FF
100
AcDbEntity
  8
Ebene 1
370
     0
100
AcDbVertex
100
AcDb2dVertex
 10
495.0
 20
103.6171875
 30
0.0
  0
VERTEX
  5
201
330
1FF
100
AcDbEntity
  8
Ebene 1
370
     0
100
AcDbVertex
100
AcDb2dVertex
 10
467.7353515625
 20
103.6171875
 30
0.0
  0
SEQEND
  5
202
330
1FF
100
AcDbEntity
  8
Ebene 1
370
     0
  0
POLYLINE
  5
203
330
3C
100
AcDbEntity
  8
Ebene 1
370
     0
100
AcDb2dPolyline
 66
     1
 10
0.0
 20
0.0
 30
0.0
  0
VERTEX
  5
204
330
203
100
AcDbEntity
  8
Ebene 1
370
     0
100
AcDbVertex
100
AcDb2dVertex
 10
494.69140625
 20
92.412109375
 30
0.0
  0
VERTEX
  5
205
330
203
100
AcDbEntity
  8
Ebene 1
370
     0
100
AcDbVertex
100
AcDb2dVertex
 10
491.3828125
 20
92.412109375
 30
0.0
  0
SEQEND
  5
206
330
203
100
AcDbEntity
  8
Ebene 1
370
     0
  0
POLYLINE
  5
207
330
3C
100
AcDbEntity
  8
Ebene 1
370
     0
100
AcDb2dPolyline
 66
     1
 10
0.0
 20
0.0
 30
0.0
  0
VERTEX
  5
208
330
207
100
AcDbEntity
  8
Ebene 1
370
     0
100
AcDbVertex
100
AcDb2dVertex
 10
413.69140625
 20
103.6171875
 30
0.0
  0
VERTEX
  5
209
330
207
100
AcDbEntity
  8
Ebene 1
370
     0
100
AcDbVertex
100
AcDb2dVertex
 10
397.146484375
 20
103.6171875
 30
0.0
  0
SEQEND
  5
20A
330
207
100
AcDbEntity
  8
Ebene 1
370
     0
  0
POLYLINE
  5
20B
330
3C
100
AcDbEntity
  8
Ebene 1
370
     0
100
AcDb2dPolyline
 66
     1
 10
0.0
 20
0.0
 30
0.0
  0
VERTEX
  5
20C
330
20B
100
AcDbEntity
  8
Ebene 1
370
     0
100
AcDbVertex
100
AcDb2dVertex
 10
441.4853515625
 20
103.6171875
 30
0.0
  0
VERTEX
  5
20D
330
20B
100
AcDbEntity
  8
Ebene 1
370
     0
100
AcDbVertex
100
AcDb2dVertex
 10
413.69140625
 20
103.6171875
 30
0.0
  0
SEQEND
  5
20E
330
20B
100
AcDbEntity
  8
Ebene 1
370
     0
  0
POLYLINE
  5
20F
330
3C
100
AcDbEntity
  8
Ebene 1
370
     0
100
AcDb2dPolyline
 66
     1
 10
0.0
 20
0.0
 30
0.0
  0
VERTEX
  5
210
330
20F
100
AcDbEntity
  8
Ebene 1
370
     0
100
AcDbVertex
100
AcDb2dVertex
 10
413.912109375
 20
92.412109375
 30
0.0
  0
VERTEX
  5
211
330
20F
100
AcDbEntity
  8
Ebene 1
370
     0
100
AcDbVertex
100
AcDb2dVertex
 10
397.9853515625
 20
92.412109375
 30
0.0
  0
SEQEND
  5
212
330
20F
100
AcDbEntity
  8
Ebene 1
370
     0
  0
POLYLINE
  5
213
330
3C
100
AcDbEntity
  8
Ebene 1
370
     0
100
AcDb2dPolyline
 66
     1
 10
0.0
 20
0.0
 30
0.0
  0
VERTEX
  5
214
330
213
100
AcDbEntity
  8
Ebene 1
370
     0
100
AcDbVertex
100
AcDb2dVertex
 10
431.07421875
 20
92.412109375
 30
0.0
  0
VERTEX
  5
215
330
213
100
AcDbEntity
  8
Ebene 1
370
     0
100
AcDbVertex
100
AcDb2dVertex
 10
413.912109375
 20
92.412109375
 30
0.0
  0
SEQEND
  5
216
330
213
100
AcDbEntity
  8
Ebene 1
370
     0
  0
POLYLINE
  5
217
330
3C
100
AcDbEntity
  8
Ebene 1
370
     0
100
AcDb2dPolyline
 66
     1
 10
0.0
 20
0.0
 30
0.0
  0
VERTEX
  5
218
330
217
100
AcDbEntity
  8
Ebene 1
370
     0
100
AcDbVertex
100
AcDb2dVertex
 10
451.7646484375
 20
56.0146484375
 30
0.0
  0
VERTEX
  5
219
330
217
100
AcDbEntity
  8
Ebene 1
370
     0
100
AcDbVertex
100
AcDb2dVertex
 10
471.7060546875
 20
56.0146484375
 30
0.0
  0
SEQEND
  5
21A
330
217
100
AcDbEntity
  8
Ebene 1
370
     0
  0
POLYLINE
  5
21B
330
3C
100
AcDbEntity
  8
Ebene 1
370
     0
100
AcDb2dPolyline
 66
     1
 10
0.0
 20
0.0
 30
0.0
  0
VERTEX
  5
21C
330
21B
100
AcDbEntity
  8
Ebene 1
370
     0
100
AcDbVertex
100
AcDb2dVertex
 10
471.7060546875
 20
37.970703125
 30
0.0
  0
VERTEX
  5
21D
330
21B
100
AcDbEntity
  8
Ebene 1
370
     0
100
AcDbVertex
100
AcDb2dVertex
 10
453.30859375
 20
37.970703125
 30
0.0
  0
SEQEND
  5
21E
330
21B
100
AcDbEntity
  8
Ebene 1
370
     0
  0
POLYLINE
  5
21F
330
3C
100
AcDbEntity
  8
Ebene 1
370
     0
100
AcDb2dPolyline
 66
     1
 10
0.0
 20
0.0
 30
0.0
  0
VERTEX
  5
220
330
21F
100
AcDbEntity
  8
Ebene 1
370
     0
100
AcDbVertex
100
AcDb2dVertex
 10
464.69140625
 20
17.8974609375
 30
0.0
  0
VERTEX
  5
221
330
21F
100
AcDbEntity
  8
Ebene 1
370
     0
100
AcDbVertex
100
AcDb2dVertex
 10
461.55859375
 20
17.720703125
 30
0.0
  0
VERTEX
  5
222
330
21F
100
AcDbEntity
  8
Ebene 1
370
     0
100
AcDbVertex
100
AcDb2dVertex
 10
458.3828125
 20
17.8974609375
 30
0.0
  0
SEQEND
  5
223
330
21F
100
AcDbEntity
  8
Ebene 1
370
     0
  0
POLYLINE
  5
224
330
3C
100
AcDbEntity
  8
Ebene 1
370
     0
100
AcDb2dPolyline
 66
     1
 10
0.0
 20
0.0
 30
0.0
  0
VERTEX
  5
225
330
224
100
AcDbEntity
  8
Ebene 1
370
     0
100
AcDbVertex
100
AcDb2dVertex
 10
461.2939453125
 20
17.720703125
 30
0.0
  0
VERTEX
  5
226
330
224
100
AcDbEntity
  8
Ebene 1
370
     0
100
AcDbVertex
100
AcDb2dVertex
 10
458.162109375
 20
17.8974609375
 30
0.0
  0
SEQEND
  5
227
330
224
100
AcDbEntity
  8
Ebene 1
370
     0
  0
POLYLINE
  5
228
330
3C
100
AcDbEntity
  8
Ebene 1
370
     0
100
AcDb2dPolyline
 66
     1
 10
0.0
 20
0.0
 30
0.0
  0
VERTEX
  5
229
330
228
100
AcDbEntity
  8
Ebene 1
370
     0
100
AcDbVertex
100
AcDb2dVertex
 10
453.662109375
 20
15.470703125
 30
0.0
  0
VERTEX
  5
22A
330
228
100
AcDbEntity
  8
Ebene 1
370
     0
100
AcDbVertex
100
AcDb2dVertex
 10
455.5146484375
 20
15.0732421875
 30
0.0
  0
VERTEX
  5
22B
330
228
100
AcDbEntity
  8
Ebene 1
370
     0
100
AcDbVertex
100
AcDb2dVertex
 10
457.3671875
 20
14.7646484375
 30
0.0
  0
VERTEX
  5
22C
330
228
100
AcDbEntity
  8
Ebene 1
370
     0
100
AcDbVertex
100
AcDb2dVertex
 10
459.220703125
 20
14.6328125
 30
0.0
  0
VERTEX
  5
22D
330
228
100
AcDbEntity
  8
Ebene 1
370
     0
100
AcDbVertex
100
AcDb2dVertex
 10
461.07421875
 20
14.5439453125
 30
0.0
  0
VERTEX
  5
22E
330
228
100
AcDbEntity
  8
Ebene 1
370
     0
100
AcDbVertex
100
AcDb2dVertex
 10
462.970703125
 20
14.587890625
 30
0.0
  0
VERTEX
  5
22F
330
228
100
AcDbEntity
  8
Ebene 1
370
     0
100
AcDbVertex
100
AcDb2dVertex
 10
464.82421875
 20
14.720703125
 30
0.0
  0
VERTEX
  5
230
330
228
100
AcDbEntity
  8
Ebene 1
370
     0
100
AcDbVertex
100
AcDb2dVertex
 10
466.67578125
 20
14.9853515625
 30
0.0
  0
VERTEX
  5
231
330
228
100
AcDbEntity
  8
Ebene 1
370
     0
100
AcDbVertex
100
AcDb2dVertex
 10
468.529296875
 20
15.3828125
 30
0.0
  0
VERTEX
  5
232
330
228
100
AcDbEntity
  8
Ebene 1
370
     0
100
AcDbVertex
100
AcDb2dVertex
 10
470.337890625
 20
15.8232421875
 30
0.0
  0
VERTEX
  5
233
330
228
100
AcDbEntity
  8
Ebene 1
370
     0
100
AcDbVertex
100
AcDb2dVertex
 10
472.146484375
 20
16.3974609375
 30
0.0
  0
VERTEX
  5
234
330
228
100
AcDbEntity
  8
Ebene 1
370
     0
100
AcDbVertex
100
AcDb2dVertex
 10
473.8671875
 20
17.1025390625
 30
0.0
  0
VERTEX
  5
235
330
228
100
AcDbEntity
  8
Ebene 1
370
     0
100
AcDbVertex
100
AcDb2dVertex
 10
475.587890625
 20
17.8974609375
 30
0.0
  0
SEQEND
  5
236
330
228
100
AcDbEntity
  8
Ebene 1
370
     0
  0
POLYLINE
  5
237
330
3C
100
AcDbEntity
  8
Ebene 1
370
     0
100
AcDb2dPolyline
 66
     1
 10
0.0
 20
0.0
 30
0.0
  0
VERTEX
  5
238
330
237
100
AcDbEntity
  8
Ebene 1
370
     0
100
AcDbVertex
100
AcDb2dVertex
 10
460.0146484375
 20
14.5439453125
 30
0.0
  0
VERTEX
  5
239
330
237
100
AcDbEntity
  8
Ebene 1
370
     0
100
AcDbVertex
100
AcDb2dVertex
 10
456.7060546875
 20
14.720703125
 30
0.0
  0
VERTEX
  5
23A
330
237
100
AcDbEntity
  8
Ebene 1
370
     0
100
AcDbVertex
100
AcDb2dVertex
 10
453.2646484375
 20
15.25
 30
0.0
  0
SEQEND
  5
23B
330
237
100
AcDbEntity
  8
Ebene 1
370
     0
  0
POLYLINE
  5
23C
330
3C
100
AcDbEntity
  8
Ebene 1
370
     0
100
AcDb2dPolyline
 66
     1
 10
0.0
 20
0.0
 30
0.0
  0
VERTEX
  5
23D
330
23C
100
AcDbEntity
  8
Ebene 1
370
     0
100
AcDbVertex
100
AcDb2dVertex
 10
459.92578125
 20
14.5439453125
 30
0.0
  0
VERTEX
  5
23E
330
23C
100
AcDbEntity
  8
Ebene 1
370
     0
100
AcDbVertex
100
AcDb2dVertex
 10
456.662109375
 20
14.720703125
 30
0.0
  0
VERTEX
  5
23F
330
23C
100
AcDbEntity
  8
Ebene 1
370
     0
100
AcDbVertex
100
AcDb2dVertex
 10
453.2646484375
 20
15.25
 30
0.0
  0
SEQEND
  5
240
330
23C
100
AcDbEntity
  8
Ebene 1
370
     0
  0
POLYLINE
  5
241
330
3C
100
AcDbEntity
  8
Ebene 1
370
     0
100
AcDb2dPolyline
 66
     1
 10
0.0
 20
0.0
 30
0.0
  0
VERTEX
  5
242
330
241
100
AcDbEntity
  8
Ebene 1
370
     0
100
AcDbVertex
100
AcDb2dVertex
 10
461.5146484375
 20
32.587890625
 30
0.0
  0
VERTEX
  5
243
330
241
100
AcDbEntity
  8
Ebene 1
370
     0
100
AcDbVertex
100
AcDb2dVertex
 10
455.337890625
 20
32.587890625
 30
0.0
  0
SEQEND
  5
244
330
241
100
AcDbEntity
  8
Ebene 1
370
     0
  0
POLYLINE
  5
245
330
3C
100
AcDbEntity
  8
Ebene 1
370
     0
100
AcDb2dPolyline
 66
     1
 10
0.0
 20
0.0
 30
0.0
  0
VERTEX
  5
246
330
245
100
AcDbEntity
  8
Ebene 1
370
     0
100
AcDbVertex
100
AcDb2dVertex
 10
455.029296875
 20
36.162109375
 30
0.0
  0
VERTEX
  5
247
330
245
100
AcDbEntity
  8
Ebene 1
370
     0
100
AcDbVertex
100
AcDb2dVertex
 10
471.7060546875
 20
36.162109375
 30
0.0
  0
SEQEND
  5
248
330
245
100
AcDbEntity
  8
Ebene 1
370
     0
  0
POLYLINE
  5
249
330
3C
100
AcDbEntity
  8
Ebene 1
370
     0
100
AcDb2dPolyline
 66
     1
 10
0.0
 20
0.0
 30
0.0
  0
VERTEX
  5
24A
330
249
100
AcDbEntity
  8
Ebene 1
370
     0
100
AcDbVertex
100
AcDb2dVertex
 10
474.75
 20
95.67578125
 30
0.0
  0
VERTEX
  5
24B
330
249
100
AcDbEntity
  8
Ebene 1
370
     0
100
AcDbVertex
100
AcDb2dVertex
 10
476.9560546875
 20
95.67578125
 30
0.0
  0
SEQEND
  5
24C
330
249
100
AcDbEntity
  8
Ebene 1
370
     0
  0
POLYLINE
  5
24D
330
3C
100
AcDbEntity
  8
Ebene 1
370
     0
100
AcDb2dPolyline
 66
     1
 10
0.0
 20
0.0
 30
0.0
  0
VERTEX
  5
24E
330
24D
100
AcDbEntity
  8
Ebene 1
370
     0
100
AcDbVertex
100
AcDb2dVertex
 10
464.912109375
 20
95.67578125
 30
0.0
  0
VERTEX
  5
24F
330
24D
100
AcDbEntity
  8
Ebene 1
370
     0
100
AcDbVertex
100
AcDb2dVertex
 10
474.75
 20
95.67578125
 30
0.0
  0
SEQEND
  5
250
330
24D
100
AcDbEntity
  8
Ebene 1
370
     0
  0
POLYLINE
  5
251
330
3C
100
AcDbEntity
  8
Ebene 1
370
     0
100
AcDb2dPolyline
 66
     1
 10
0.0
 20
0.0
 30
0.0
  0
VERTEX
  5
252
330
251
100
AcDbEntity
  8
Ebene 1
370
     0
100
AcDbVertex
100
AcDb2dVertex
 10
457.146484375
 20
0.470703125
 30
0.0
  0
VERTEX
  5
253
330
251
100
AcDbEntity
  8
Ebene 1
370
     0
100
AcDbVertex
100
AcDb2dVertex
 10
466.146484375
 20
0.470703125
 30
0.0
  0
SEQEND
  5
254
330
251
100
AcDbEntity
  8
Ebene 1
370
     0
  0
POLYLINE
  5
255
330
3C
100
AcDbEntity
  8
Ebene 1
370
     0
100
AcDb2dPolyline
 66
     1
 10
0.0
 20
0.0
 30
0.0
  0
VERTEX
  5
256
330
255
100
AcDbEntity
  8
Ebene 1
370
     0
100
AcDbVertex
100
AcDb2dVertex
 10
430.9853515625
 20
-3.1025390625
 30
0.0
  0
VERTEX
  5
257
330
255
100
AcDbEntity
  8
Ebene 1
370
     0
100
AcDbVertex
100
AcDb2dVertex
 10
430.146484375
 20
-3.1025390625
 30
0.0
  0
SEQEND
  5
258
330
255
100
AcDbEntity
  8
Ebene 1
370
     0
  0
POLYLINE
  5
259
330
3C
100
AcDbEntity
  8
Ebene 1
370
     0
100
AcDb2dPolyline
 66
     1
 10
0.0
 20
0.0
 30
0.0
  0
VERTEX
  5
25A
330
259
100
AcDbEntity
  8
Ebene 1
370
     0
100
AcDbVertex
100
AcDb2dVertex
 10
462.57421875
 20
-3.1025390625
 30
0.0
  0
VERTEX
  5
25B
330
259
100
AcDbEntity
  8
Ebene 1
370
     0
100
AcDbVertex
100
AcDb2dVertex
 10
453.529296875
 20
-3.1025390625
 30
0.0
  0
SEQEND
  5
25C
330
259
100
AcDbEntity
  8
Ebene 1
370
     0
  0
POLYLINE
  5
25D
330
3C
100
AcDbEntity
  8
Ebene 1
370
     0
100
AcDb2dPolyline
 66
     1
 10
0.0
 20
0.0
 30
0.0
  0
VERTEX
  5
25E
330
25D
100
AcDbEntity
  8
Ebene 1
370
     0
100
AcDbVertex
100
AcDb2dVertex
 10
431.912109375
 20
-3.1025390625
 30
0.0
  0
VERTEX
  5
25F
330
25D
100
AcDbEntity
  8
Ebene 1
370
     0
100
AcDbVertex
100
AcDb2dVertex
 10
430.9853515625
 20
-3.1025390625
 30
0.0
  0
SEQEND
  5
260
330
25D
100
AcDbEntity
  8
Ebene 1
370
     0
  0
POLYLINE
  5
261
330
3C
100
AcDbEntity
  8
Ebene 1
370
     0
100
AcDb2dPolyline
 66
     1
 10
0.0
 20
0.0
 30
0.0
  0
VERTEX
  5
262
330
261
100
AcDbEntity
  8
Ebene 1
370
     0
100
AcDbVertex
100
AcDb2dVertex
 10
430.146484375
 20
110.4560546875
 30
0.0
  0
VERTEX
  5
263
330
261
100
AcDbEntity
  8
Ebene 1
370
     0
100
AcDbVertex
100
AcDb2dVertex
 10
433.720703125
 20
110.4560546875
 30
0.0
  0
SEQEND
  5
264
330
261
100
AcDbEntity
  8
Ebene 1
370
     0
  0
POLYLINE
  5
265
330
3C
100
AcDbEntity
  8
Ebene 1
370
     0
100
AcDb2dPolyline
 66
     1
 10
0.0
 20
0.0
 30
0.0
  0
VERTEX
  5
266
330
265
100
AcDbEntity
  8
Ebene 1
370
     0
100
AcDbVertex
100
AcDb2dVertex
 10
451.7646484375
 20
110.4560546875
 30
0.0
  0
VERTEX
  5
267
330
265
100
AcDbEntity
  8
Ebene 1
370
     0
100
AcDbVertex
100
AcDb2dVertex
 10
458.9560546875
 20
110.4560546875
 30
0.0
  0
SEQEND
  5
268
330
265
100
AcDbEntity
  8
Ebene 1
370
     0
  0
POLYLINE
  5
269
330
3C
100
AcDbEntity
  8
Ebene 1
370
     0
100
AcDb2dPolyline
 66
     1
 10
0.0
 20
0.0
 30
0.0
  0
VERTEX
  5
26A
330
269
100
AcDbEntity
  8
Ebene 1
370
     0
100
AcDbVertex
100
AcDb2dVertex
 10
443.25
 20
-3.1025390625
 30
0.0
  0
VERTEX
  5
26B
330
269
100
AcDbEntity
  8
Ebene 1
370
     0
100
AcDbVertex
100
AcDb2dVertex
 10
431.912109375
 20
-3.1025390625
 30
0.0
  0
SEQEND
  5
26C
330
269
100
AcDbEntity
  8
Ebene 1
370
     0
  0
POLYLINE
  5
26D
330
3C
100
AcDbEntity
  8
Ebene 1
370
     0
100
AcDb2dPolyline
 66
     1
 10
0.0
 20
0.0
 30
0.0
  0
VERTEX
  5
26E
330
26D
100
AcDbEntity
  8
Ebene 1
370
     0
100
AcDbVertex
100
AcDb2dVertex
 10
453.529296875
 20
-3.1025390625
 30
0.0
  0
VERTEX
  5
26F
330
26D
100
AcDbEntity
  8
Ebene 1
370
     0
100
AcDbVertex
100
AcDb2dVertex
 10
443.25
 20
-3.1025390625
 30
0.0
  0
SEQEND
  5
270
330
26D
100
AcDbEntity
  8
Ebene 1
370
     0
  0
POLYLINE
  5
271
330
3C
100
AcDbEntity
  8
Ebene 1
370
     0
100
AcDb2dPolyline
 66
     1
 10
0.0
 20
0.0
 30
0.0
  0
VERTEX
  5
272
330
271
100
AcDbEntity
  8
Ebene 1
370
     0
100
AcDbVertex
100
AcDb2dVertex
 10
443.42578125
 20
0.470703125
 30
0.0
  0
VERTEX
  5
273
330
271
100
AcDbEntity
  8
Ebene 1
370
     0
100
AcDbVertex
100
AcDb2dVertex
 10
457.146484375
 20
0.470703125
 30
0.0
  0
SEQEND
  5
274
330
271
100
AcDbEntity
  8
Ebene 1
370
     0
  0
POLYLINE
  5
275
330
3C
100
AcDbEntity
  8
Ebene 1
370
     0
100
AcDb2dPolyline
 66
     1
 10
0.0
 20
0.0
 30
0.0
  0
VERTEX
  5
276
330
275
100
AcDbEntity
  8
Ebene 1
370
     0
100
AcDbVertex
100
AcDb2dVertex
 10
433.720703125
 20
0.470703125
 30
0.0
  0
VERTEX
  5
277
330
275
100
AcDbEntity
  8
Ebene 1
370
     0
100
AcDbVertex
100
AcDb2dVertex
 10
443.42578125
 20
0.470703125
 30
0.0
  0
SEQEND
  5
278
330
275
100
AcDbEntity
  8
Ebene 1
370
     0
  0
POLYLINE
  5
279
330
3C
100
AcDbEntity
  8
Ebene 1
370
     0
100
AcDb2dPolyline
 66
     1
 10
0.0
 20
0.0
 30
0.0
  0
VERTEX
  5
27A
330
279
100
AcDbEntity
  8
Ebene 1
370
     0
100
AcDbVertex
100
AcDb2dVertex
 10
433.720703125
 20
110.4560546875
 30
0.0
  0
VERTEX
  5
27B
330
279
100
AcDbEntity
  8
Ebene 1
370
     0
100
AcDbVertex
100
AcDb2dVertex
 10
451.7646484375
 20
110.4560546875
 30
0.0
  0
SEQEND
  5
27C
330
279
100
AcDbEntity
  8
Ebene 1
370
     0
  0
POLYLINE
  5
27D
330
3C
100
AcDbEntity
  8
Ebene 1
370
     0
100
AcDb2dPolyline
 66
     1
 10
0.0
 20
0.0
 30
0.0
  0
VERTEX
  5
27E
330
27D
100
AcDbEntity
  8
Ebene 1
370
     0
100
AcDbVertex
100
AcDb2dVertex
 10
420.0
 20
0.470703125
 30
0.0
  0
VERTEX
  5
27F
330
27D
100
AcDbEntity
  8
Ebene 1
370
     0
100
AcDbVertex
100
AcDb2dVertex
 10
433.720703125
 20
0.470703125
 30
0.0
  0
SEQEND
  5
280
330
27D
100
AcDbEntity
  8
Ebene 1
370
     0
  0
POLYLINE
  5
281
330
3C
100
AcDbEntity
  8
Ebene 1
370
     0
100
AcDb2dPolyline
 66
     1
 10
0.0
 20
0.0
 30
0.0
  0
VERTEX
  5
282
330
281
100
AcDbEntity
  8
Ebene 1
370
     0
100
AcDbVertex
100
AcDb2dVertex
 10
404.912109375
 20
0.470703125
 30
0.0
  0
VERTEX
  5
283
330
281
100
AcDbEntity
  8
Ebene 1
370
     0
100
AcDbVertex
100
AcDb2dVertex
 10
420.0
 20
0.470703125
 30
0.0
  0
SEQEND
  5
284
330
281
100
AcDbEntity
  8
Ebene 1
370
     0
  0
POLYLINE
  5
285
330
3C
100
AcDbEntity
  8
Ebene 1
370
     0
100
AcDb2dPolyline
 66
     1
 10
0.0
 20
0.0
 30
0.0
  0
VERTEX
  5
286
330
285
100
AcDbEntity
  8
Ebene 1
370
     0
100
AcDbVertex
100
AcDb2dVertex
 10
419.82421875
 20
-3.1025390625
 30
0.0
  0
VERTEX
  5
287
330
285
100
AcDbEntity
  8
Ebene 1
370
     0
100
AcDbVertex
100
AcDb2dVertex
 10
408.529296875
 20
-3.1025390625
 30
0.0
  0
SEQEND
  5
288
330
285
100
AcDbEntity
  8
Ebene 1
370
     0
  0
POLYLINE
  5
289
330
3C
100
AcDbEntity
  8
Ebene 1
370
     0
100
AcDb2dPolyline
 66
     1
 10
0.0
 20
0.0
 30
0.0
  0
VERTEX
  5
28A
330
289
100
AcDbEntity
  8
Ebene 1
370
     0
100
AcDbVertex
100
AcDb2dVertex
 10
430.146484375
 20
-3.1025390625
 30
0.0
  0
VERTEX
  5
28B
330
289
100
AcDbEntity
  8
Ebene 1
370
     0
100
AcDbVertex
100
AcDb2dVertex
 10
419.82421875
 20
-3.1025390625
 30
0.0
  0
SEQEND
  5
28C
330
289
100
AcDbEntity
  8
Ebene 1
370
     0
  0
POLYLINE
  5
28D
330
3C
100
AcDbEntity
  8
Ebene 1
370
     0
100
AcDb2dPolyline
 66
     1
 10
0.0
 20
0.0
 30
0.0
  0
VERTEX
  5
28E
330
28D
100
AcDbEntity
  8
Ebene 1
370
     0
100
AcDbVertex
100
AcDb2dVertex
 10
410.2939453125
 20
110.4560546875
 30
0.0
  0
VERTEX
  5
28F
330
28D
100
AcDbEntity
  8
Ebene 1
370
     0
100
AcDbVertex
100
AcDb2dVertex
 10
428.337890625
 20
110.4560546875
 30
0.0
  0
SEQEND
  5
290
330
28D
100
AcDbEntity
  8
Ebene 1
370
     0
  0
POLYLINE
  5
291
330
3C
100
AcDbEntity
  8
Ebene 1
370
     0
100
AcDb2dPolyline
 66
     1
 10
0.0
 20
0.0
 30
0.0
  0
VERTEX
  5
292
330
291
100
AcDbEntity
  8
Ebene 1
370
     0
100
AcDbVertex
100
AcDb2dVertex
 10
482.82421875
 20
-3.1025390625
 30
0.0
  0
VERTEX
  5
293
330
291
100
AcDbEntity
  8
Ebene 1
370
     0
100
AcDbVertex
100
AcDb2dVertex
 10
462.57421875
 20
-3.1025390625
 30
0.0
  0
SEQEND
  5
294
330
291
100
AcDbEntity
  8
Ebene 1
370
     0
  0
POLYLINE
  5
295
330
3C
100
AcDbEntity
  8
Ebene 1
370
     0
100
AcDb2dPolyline
 66
     1
 10
0.0
 20
0.0
 30
0.0
  0
VERTEX
  5
296
330
295
100
AcDbEntity
  8
Ebene 1
370
     0
100
AcDbVertex
100
AcDb2dVertex
 10
484.19140625
 20
-3.1025390625
 30
0.0
  0
VERTEX
  5
297
330
295
100
AcDbEntity
  8
Ebene 1
370
     0
100
AcDbVertex
100
AcDb2dVertex
 10
482.82421875
 20
-3.1025390625
 30
0.0
  0
SEQEND
  5
298
330
295
100
AcDbEntity
  8
Ebene 1
370
     0
  0
POLYLINE
  5
299
330
3C
100
AcDbEntity
  8
Ebene 1
370
     0
100
AcDb2dPolyline
 66
     1
 10
0.0
 20
0.0
 30
0.0
  0
VERTEX
  5
29A
330
299
100
AcDbEntity
  8
Ebene 1
370
     0
100
AcDbVertex
100
AcDb2dVertex
 10
486.0
 20
0.470703125
 30
0.0
  0
VERTEX
  5
29B
330
299
100
AcDbEntity
  8
Ebene 1
370
     0
100
AcDbVertex
100
AcDb2dVertex
 10
487.7646484375
 20
0.470703125
 30
0.0
  0
SEQEND
  5
29C
330
299
100
AcDbEntity
  8
Ebene 1
370
     0
  0
POLYLINE
  5
29D
330
3C
100
AcDbEntity
  8
Ebene 1
370
     0
100
AcDb2dPolyline
 66
     1
 10
0.0
 20
0.0
 30
0.0
  0
VERTEX
  5
29E
330
29D
100
AcDbEntity
  8
Ebene 1
370
     0
100
AcDbVertex
100
AcDb2dVertex
 10
466.146484375
 20
0.470703125
 30
0.0
  0
VERTEX
  5
29F
330
29D
100
AcDbEntity
  8
Ebene 1
370
     0
100
AcDbVertex
100
AcDb2dVertex
 10
486.0
 20
0.470703125
 30
0.0
  0
SEQEND
  5
2A0
330
29D
100
AcDbEntity
  8
Ebene 1
370
     0
  0
POLYLINE
  5
2A1
330
3C
100
AcDbEntity
  8
Ebene 1
370
     0
100
AcDb2dPolyline
 66
     1
 10
0.0
 20
0.0
 30
0.0
  0
VERTEX
  5
2A2
330
2A1
100
AcDbEntity
  8
Ebene 1
370
     0
100
AcDbVertex
100
AcDb2dVertex
 10
464.337890625
 20
110.4560546875
 30
0.0
  0
VERTEX
  5
2A3
330
2A1
100
AcDbEntity
  8
Ebene 1
370
     0
100
AcDbVertex
100
AcDb2dVertex
 10
482.3828125
 20
110.4560546875
 30
0.0
  0
SEQEND
  5
2A4
330
2A1
100
AcDbEntity
  8
Ebene 1
370
     0
  0
POLYLINE
  5
2A5
330
3C
100
AcDbEntity
  8
Ebene 1
370
     0
100
AcDb2dPolyline
 66
     1
 10
0.0
 20
0.0
 30
0.0
  0
VERTEX
  5
2A6
330
2A5
100
AcDbEntity
  8
Ebene 1
370
     0
100
AcDbVertex
100
AcDb2dVertex
 10
669.7060546875
 20
-3.1025390625
 30
0.0
  0
VERTEX
  5
2A7
330
2A5
100
AcDbEntity
  8
Ebene 1
370
     0
100
AcDbVertex
100
AcDb2dVertex
 10
670.4560546875
 20
-3.05859375
 30
0.0
  0
VERTEX
  5
2A8
330
2A5
100
AcDbEntity
  8
Ebene 1
370
     0
100
AcDbVertex
100
AcDb2dVertex
 10
671.2060546875
 20
-2.8828125
 30
0.0
  0
VERTEX
  5
2A9
330
2A5
100
AcDbEntity
  8
Ebene 1
370
     0
100
AcDbVertex
100
AcDb2dVertex
 10
671.9560546875
 20
-2.6171875
 30
0.0
  0
VERTEX
  5
2AA
330
2A5
100
AcDbEntity
  8
Ebene 1
370
     0
100
AcDbVertex
100
AcDb2dVertex
 10
672.6171875
 20
-2.2646484375
 30
0.0
  0
VERTEX
  5
2AB
330
2A5
100
AcDbEntity
  8
Ebene 1
370
     0
100
AcDbVertex
100
AcDb2dVertex
 10
673.2353515625
 20
-1.779296875
 30
0.0
  0
VERTEX
  5
2AC
330
2A5
100
AcDbEntity
  8
Ebene 1
370
     0
100
AcDbVertex
100
AcDb2dVertex
 10
673.7646484375
 20
-1.25
 30
0.0
  0
VERTEX
  5
2AD
330
2A5
100
AcDbEntity
  8
Ebene 1
370
     0
100
AcDbVertex
100
AcDb2dVertex
 10
674.25
 20
-0.6328125
 30
0.0
  0
VERTEX
  5
2AE
330
2A5
100
AcDbEntity
  8
Ebene 1
370
     0
100
AcDbVertex
100
AcDb2dVertex
 10
674.6025390625
 20
0.029296875
 30
0.0
  0
VERTEX
  5
2AF
330
2A5
100
AcDbEntity
  8
Ebene 1
370
     0
100
AcDbVertex
100
AcDb2dVertex
 10
674.8671875
 20
0.779296875
 30
0.0
  0
VERTEX
  5
2B0
330
2A5
100
AcDbEntity
  8
Ebene 1
370
     0
100
AcDbVertex
100
AcDb2dVertex
 10
675.0439453125
 20
1.529296875
 30
0.0
  0
VERTEX
  5
2B1
330
2A5
100
AcDbEntity
  8
Ebene 1
370
     0
100
AcDbVertex
100
AcDb2dVertex
 10
675.087890625
 20
2.279296875
 30
0.0
  0
SEQEND
  5
2B2
330
2A5
100
AcDbEntity
  8
Ebene 1
370
     0
  0
POLYLINE
  5
2B3
330
3C
100
AcDbEntity
  8
Ebene 1
370
     0
100
AcDb2dPolyline
 66
     1
 10
0.0
 20
0.0
 30
0.0
  0
VERTEX
  5
2B4
330
2B3
100
AcDbEntity
  8
Ebene 1
370
     0
100
AcDbVertex
100
AcDb2dVertex
 10
505.80859375
 20
2.279296875
 30
0.0
  0
VERTEX
  5
2B5
330
2B3
100
AcDbEntity
  8
Ebene 1
370
     0
100
AcDbVertex
100
AcDb2dVertex
 10
505.853515625
 20
1.529296875
 30
0.0
  0
VERTEX
  5
2B6
330
2B3
100
AcDbEntity
  8
Ebene 1
370
     0
100
AcDbVertex
100
AcDb2dVertex
 10
506.029296875
 20
0.779296875
 30
0.0
  0
VERTEX
  5
2B7
330
2B3
100
AcDbEntity
  8
Ebene 1
370
     0
100
AcDbVertex
100
AcDb2dVertex
 10
506.2939453125
 20
0.029296875
 30
0.0
  0
VERTEX
  5
2B8
330
2B3
100
AcDbEntity
  8
Ebene 1
370
     0
100
AcDbVertex
100
AcDb2dVertex
 10
506.646484375
 20
-0.6328125
 30
0.0
  0
VERTEX
  5
2B9
330
2B3
100
AcDbEntity
  8
Ebene 1
370
     0
100
AcDbVertex
100
AcDb2dVertex
 10
507.1328125
 20
-1.25
 30
0.0
  0
VERTEX
  5
2BA
330
2B3
100
AcDbEntity
  8
Ebene 1
370
     0
100
AcDbVertex
100
AcDb2dVertex
 10
507.662109375
 20
-1.779296875
 30
0.0
  0
VERTEX
  5
2BB
330
2B3
100
AcDbEntity
  8
Ebene 1
370
     0
100
AcDbVertex
100
AcDb2dVertex
 10
508.279296875
 20
-2.2646484375
 30
0.0
  0
VERTEX
  5
2BC
330
2B3
100
AcDbEntity
  8
Ebene 1
370
     0
100
AcDbVertex
100
AcDb2dVertex
 10
508.94140625
 20
-2.6171875
 30
0.0
  0
VERTEX
  5
2BD
330
2B3
100
AcDbEntity
  8
Ebene 1
370
     0
100
AcDbVertex
100
AcDb2dVertex
 10
509.69140625
 20
-2.8828125
 30
0.0
  0
VERTEX
  5
2BE
330
2B3
100
AcDbEntity
  8
Ebene 1
370
     0
100
AcDbVertex
100
AcDb2dVertex
 10
510.44140625
 20
-3.05859375
 30
0.0
  0
VERTEX
  5
2BF
330
2B3
100
AcDbEntity
  8
Ebene 1
370
     0
100
AcDbVertex
100
AcDb2dVertex
 10
511.19140625
 20
-3.1025390625
 30
0.0
  0
SEQEND
  5
2C0
330
2B3
100
AcDbEntity
  8
Ebene 1
370
     0
  0
POLYLINE
  5
2C1
330
3C
100
AcDbEntity
  8
Ebene 1
370
     0
100
AcDb2dPolyline
 66
     1
 10
0.0
 20
0.0
 30
0.0
  0
VERTEX
  5
2C2
330
2C1
100
AcDbEntity
  8
Ebene 1
370
     0
100
AcDbVertex
100
AcDb2dVertex
 10
505.80859375
 20
115.837890625
 30
0.0
  0
VERTEX
  5
2C3
330
2C1
100
AcDbEntity
  8
Ebene 1
370
     0
100
AcDbVertex
100
AcDb2dVertex
 10
505.80859375
 20
2.279296875
 30
0.0
  0
SEQEND
  5
2C4
330
2C1
100
AcDbEntity
  8
Ebene 1
370
     0
  0
POLYLINE
  5
2C5
330
3C
100
AcDbEntity
  8
Ebene 1
370
     0
100
AcDb2dPolyline
 66
     1
 10
0.0
 20
0.0
 30
0.0
  0
VERTEX
  5
2C6
330
2C5
100
AcDbEntity
  8
Ebene 1
370
     0
100
AcDbVertex
100
AcDb2dVertex
 10
511.19140625
 20
121.220703125
 30
0.0
  0
VERTEX
  5
2C7
330
2C5
100
AcDbEntity
  8
Ebene 1
370
     0
100
AcDbVertex
100
AcDb2dVertex
 10
510.44140625
 20
121.17578125
 30
0.0
  0
VERTEX
  5
2C8
330
2C5
100
AcDbEntity
  8
Ebene 1
370
     0
100
AcDbVertex
100
AcDb2dVertex
 10
509.69140625
 20
121.0
 30
0.0
  0
VERTEX
  5
2C9
330
2C5
100
AcDbEntity
  8
Ebene 1
370
     0
100
AcDbVertex
100
AcDb2dVertex
 10
508.94140625
 20
120.7353515625
 30
0.0
  0
VERTEX
  5
2CA
330
2C5
100
AcDbEntity
  8
Ebene 1
370
     0
100
AcDbVertex
100
AcDb2dVertex
 10
508.279296875
 20
120.3828125
 30
0.0
  0
VERTEX
  5
2CB
330
2C5
100
AcDbEntity
  8
Ebene 1
370
     0
100
AcDbVertex
100
AcDb2dVertex
 10
507.662109375
 20
119.896484375
 30
0.0
  0
VERTEX
  5
2CC
330
2C5
100
AcDbEntity
  8
Ebene 1
370
     0
100
AcDbVertex
100
AcDb2dVertex
 10
507.1328125
 20
119.3671875
 30
0.0
  0
VERTEX
  5
2CD
330
2C5
100
AcDbEntity
  8
Ebene 1
370
     0
100
AcDbVertex
100
AcDb2dVertex
 10
506.646484375
 20
118.75
 30
0.0
  0
VERTEX
  5
2CE
330
2C5
100
AcDbEntity
  8
Ebene 1
370
     0
100
AcDbVertex
100
AcDb2dVertex
 10
506.2939453125
 20
118.087890625
 30
0.0
  0
VERTEX
  5
2CF
330
2C5
100
AcDbEntity
  8
Ebene 1
370
     0
100
AcDbVertex
100
AcDb2dVertex
 10
506.029296875
 20
117.337890625
 30
0.0
  0
VERTEX
  5
2D0
330
2C5
100
AcDbEntity
  8
Ebene 1
370
     0
100
AcDbVertex
100
AcDb2dVertex
 10
505.853515625
 20
116.587890625
 30
0.0
  0
VERTEX
  5
2D1
330
2C5
100
AcDbEntity
  8
Ebene 1
370
     0
100
AcDbVertex
100
AcDb2dVertex
 10
505.80859375
 20
115.837890625
 30
0.0
  0
SEQEND
  5
2D2
330
2C5
100
AcDbEntity
  8
Ebene 1
370
     0
  0
POLYLINE
  5
2D3
330
3C
100
AcDbEntity
  8
Ebene 1
370
     0
100
AcDb2dPolyline
 66
     1
 10
0.0
 20
0.0
 30
0.0
  0
VERTEX
  5
2D4
330
2D3
100
AcDbEntity
  8
Ebene 1
370
     0
100
AcDbVertex
100
AcDb2dVertex
 10
669.7060546875
 20
121.2646484375
 30
0.0
  0
VERTEX
  5
2D5
330
2D3
100
AcDbEntity
  8
Ebene 1
370
     0
100
AcDbVertex
100
AcDb2dVertex
 10
511.19140625
 20
121.2646484375
 30
0.0
  0
SEQEND
  5
2D6
330
2D3
100
AcDbEntity
  8
Ebene 1
370
     0
  0
POLYLINE
  5
2D7
330
3C
100
AcDbEntity
  8
Ebene 1
370
     0
100
AcDb2dPolyline
 66
     1
 10
0.0
 20
0.0
 30
0.0
  0
VERTEX
  5
2D8
330
2D7
100
AcDbEntity
  8
Ebene 1
370
     0
100
AcDbVertex
100
AcDb2dVertex
 10
675.087890625
 20
115.837890625
 30
0.0
  0
VERTEX
  5
2D9
330
2D7
100
AcDbEntity
  8
Ebene 1
370
     0
100
AcDbVertex
100
AcDb2dVertex
 10
675.0439453125
 20
116.587890625
 30
0.0
  0
VERTEX
  5
2DA
330
2D7
100
AcDbEntity
  8
Ebene 1
370
     0
100
AcDbVertex
100
AcDb2dVertex
 10
674.8671875
 20
117.337890625
 30
0.0
  0
VERTEX
  5
2DB
330
2D7
100
AcDbEntity
  8
Ebene 1
370
     0
100
AcDbVertex
100
AcDb2dVertex
 10
674.6025390625
 20
118.087890625
 30
0.0
  0
VERTEX
  5
2DC
330
2D7
100
AcDbEntity
  8
Ebene 1
370
     0
100
AcDbVertex
100
AcDb2dVertex
 10
674.25
 20
118.75
 30
0.0
  0
VERTEX
  5
2DD
330
2D7
100
AcDbEntity
  8
Ebene 1
370
     0
100
AcDbVertex
100
AcDb2dVertex
 10
673.7646484375
 20
119.3671875
 30
0.0
  0
VERTEX
  5
2DE
330
2D7
100
AcDbEntity
  8
Ebene 1
370
     0
100
AcDbVertex
100
AcDb2dVertex
 10
673.2353515625
 20
119.896484375
 30
0.0
  0
VERTEX
  5
2DF
330
2D7
100
AcDbEntity
  8
Ebene 1
370
     0
100
AcDbVertex
100
AcDb2dVertex
 10
672.6171875
 20
120.3828125
 30
0.0
  0
VERTEX
  5
2E0
330
2D7
100
AcDbEntity
  8
Ebene 1
370
     0
100
AcDbVertex
100
AcDb2dVertex
 10
671.9560546875
 20
120.7353515625
 30
0.0
  0
VERTEX
  5
2E1
330
2D7
100
AcDbEntity
  8
Ebene 1
370
     0
100
AcDbVertex
100
AcDb2dVertex
 10
671.2060546875
 20
121.0
 30
0.0
  0
VERTEX
  5
2E2
330
2D7
100
AcDbEntity
  8
Ebene 1
370
     0
100
AcDbVertex
100
AcDb2dVertex
 10
670.4560546875
 20
121.17578125
 30
0.0
  0
VERTEX
  5
2E3
330
2D7
100
AcDbEntity
  8
Ebene 1
370
     0
100
AcDbVertex
100
AcDb2dVertex
 10
669.7060546875
 20
121.220703125
 30
0.0
  0
SEQEND
  5
2E4
330
2D7
100
AcDbEntity
  8
Ebene 1
370
     0
  0
POLYLINE
  5
2E5
330
3C
100
AcDbEntity
  8
Ebene 1
370
     0
100
AcDb2dPolyline
 66
     1
 10
0.0
 20
0.0
 30
0.0
  0
VERTEX
  5
2E6
330
2E5
100
AcDbEntity
  8
Ebene 1
370
     0
100
AcDbVertex
100
AcDb2dVertex
 10
675.1328125
 20
2.279296875
 30
0.0
  0
VERTEX
  5
2E7
330
2E5
100
AcDbEntity
  8
Ebene 1
370
     0
100
AcDbVertex
100
AcDb2dVertex
 10
675.1328125
 20
115.837890625
 30
0.0
  0
SEQEND
  5
2E8
330
2E5
100
AcDbEntity
  8
Ebene 1
370
     0
  0
POLYLINE
  5
2E9
330
3C
100
AcDbEntity
  8
Ebene 1
370
     0
100
AcDb2dPolyline
 66
     1
 10
0.0
 20
0.0
 30
0.0
  0
VERTEX
  5
2EA
330
2E9
100
AcDbEntity
  8
Ebene 1
370
     0
100
AcDbVertex
100
AcDb2dVertex
 10
551.7353515625
 20
48.25
 30
0.0
  0
VERTEX
  5
2EB
330
2E9
100
AcDbEntity
  8
Ebene 1
370
     0
100
AcDbVertex
100
AcDb2dVertex
 10
551.69140625
 20
49.220703125
 30
0.0
  0
VERTEX
  5
2EC
330
2E9
100
AcDbEntity
  8
Ebene 1
370
     0
100
AcDbVertex
100
AcDb2dVertex
 10
551.5146484375
 20
50.2353515625
 30
0.0
  0
VERTEX
  5
2ED
330
2E9
100
AcDbEntity
  8
Ebene 1
370
     0
100
AcDbVertex
100
AcDb2dVertex
 10
551.25
 20
51.162109375
 30
0.0
  0
VERTEX
  5
2EE
330
2E9
100
AcDbEntity
  8
Ebene 1
370
     0
100
AcDbVertex
100
AcDb2dVertex
 10
550.853515625
 20
52.087890625
 30
0.0
  0
VERTEX
  5
2EF
330
2E9
100
AcDbEntity
  8
Ebene 1
370
     0
100
AcDbVertex
100
AcDb2dVertex
 10
550.412109375
 20
52.970703125
 30
0.0
  0
VERTEX
  5
2F0
330
2E9
100
AcDbEntity
  8
Ebene 1
370
     0
100
AcDbVertex
100
AcDb2dVertex
 10
549.837890625
 20
53.7646484375
 30
0.0
  0
VERTEX
  5
2F1
330
2E9
100
AcDbEntity
  8
Ebene 1
370
     0
100
AcDbVertex
100
AcDb2dVertex
 10
549.17578125
 20
54.5146484375
 30
0.0
  0
VERTEX
  5
2F2
330
2E9
100
AcDbEntity
  8
Ebene 1
370
     0
100
AcDbVertex
100
AcDb2dVertex
 10
548.470703125
 20
55.1767578125
 30
0.0
  0
VERTEX
  5
2F3
330
2E9
100
AcDbEntity
  8
Ebene 1
370
     0
100
AcDbVertex
100
AcDb2dVertex
 10
547.67578125
 20
55.7939453125
 30
0.0
  0
VERTEX
  5
2F4
330
2E9
100
AcDbEntity
  8
Ebene 1
370
     0
100
AcDbVertex
100
AcDb2dVertex
 10
546.7939453125
 20
56.279296875
 30
0.0
  0
VERTEX
  5
2F5
330
2E9
100
AcDbEntity
  8
Ebene 1
370
     0
100
AcDbVertex
100
AcDb2dVertex
 10
545.912109375
 20
56.6767578125
 30
0.0
  0
VERTEX
  5
2F6
330
2E9
100
AcDbEntity
  8
Ebene 1
370
     0
100
AcDbVertex
100
AcDb2dVertex
 10
544.94140625
 20
56.9853515625
 30
0.0
  0
VERTEX
  5
2F7
330
2E9
100
AcDbEntity
  8
Ebene 1
370
     0
100
AcDbVertex
100
AcDb2dVertex
 10
543.970703125
 20
57.162109375
 30
0.0
  0
VERTEX
  5
2F8
330
2E9
100
AcDbEntity
  8
Ebene 1
370
     0
100
AcDbVertex
100
AcDb2dVertex
 10
543.0
 20
57.25
 30
0.0
  0
VERTEX
  5
2F9
330
2E9
100
AcDbEntity
  8
Ebene 1
370
     0
100
AcDbVertex
100
AcDb2dVertex
 10
541.9853515625
 20
57.2060546875
 30
0.0
  0
VERTEX
  5
2FA
330
2E9
100
AcDbEntity
  8
Ebene 1
370
     0
100
AcDbVertex
100
AcDb2dVertex
 10
541.0146484375
 20
57.0732421875
 30
0.0
  0
VERTEX
  5
2FB
330
2E9
100
AcDbEntity
  8
Ebene 1
370
     0
100
AcDbVertex
100
AcDb2dVertex
 10
540.0439453125
 20
56.8525390625
 30
0.0
  0
VERTEX
  5
2FC
330
2E9
100
AcDbEntity
  8
Ebene 1
370
     0
100
AcDbVertex
100
AcDb2dVertex
 10
539.1171875
 20
56.5
 30
0.0
  0
VERTEX
  5
2FD
330
2E9
100
AcDbEntity
  8
Ebene 1
370
     0
100
AcDbVertex
100
AcDb2dVertex
 10
538.2353515625
 20
56.05859375
 30
0.0
  0
VERTEX
  5
2FE
330
2E9
100
AcDbEntity
  8
Ebene 1
370
     0
100
AcDbVertex
100
AcDb2dVertex
 10
537.396484375
 20
55.4853515625
 30
0.0
  0
VERTEX
  5
2FF
330
2E9
100
AcDbEntity
  8
Ebene 1
370
     0
100
AcDbVertex
100
AcDb2dVertex
 10
536.646484375
 20
54.8671875
 30
0.0
  0
VERTEX
  5
300
330
2E9
100
AcDbEntity
  8
Ebene 1
370
     0
100
AcDbVertex
100
AcDb2dVertex
 10
535.94140625
 20
54.162109375
 30
0.0
  0
VERTEX
  5
301
330
2E9
100
AcDbEntity
  8
Ebene 1
370
     0
100
AcDbVertex
100
AcDb2dVertex
 10
535.32421875
 20
53.3671875
 30
0.0
  0
VERTEX
  5
302
330
2E9
100
AcDbEntity
  8
Ebene 1
370
     0
100
AcDbVertex
100
AcDb2dVertex
 10
534.837890625
 20
52.529296875
 30
0.0
  0
VERTEX
  5
303
330
2E9
100
AcDbEntity
  8
Ebene 1
370
     0
100
AcDbVertex
100
AcDb2dVertex
 10
534.396484375
 20
51.6474609375
 30
0.0
  0
VERTEX
  5
304
330
2E9
100
AcDbEntity
  8
Ebene 1
370
     0
100
AcDbVertex
100
AcDb2dVertex
 10
534.087890625
 20
50.720703125
 30
0.0
  0
VERTEX
  5
305
330
2E9
100
AcDbEntity
  8
Ebene 1
370
     0
100
AcDbVertex
100
AcDb2dVertex
 10
533.8671875
 20
49.75
 30
0.0
  0
VERTEX
  5
306
330
2E9
100
AcDbEntity
  8
Ebene 1
370
     0
100
AcDbVertex
100
AcDb2dVertex
 10
533.7353515625
 20
48.7353515625
 30
0.0
  0
VERTEX
  5
307
330
2E9
100
AcDbEntity
  8
Ebene 1
370
     0
100
AcDbVertex
100
AcDb2dVertex
 10
533.7353515625
 20
47.7646484375
 30
0.0
  0
VERTEX
  5
308
330
2E9
100
AcDbEntity
  8
Ebene 1
370
     0
100
AcDbVertex
100
AcDb2dVertex
 10
533.8671875
 20
46.75
 30
0.0
  0
VERTEX
  5
309
330
2E9
100
AcDbEntity
  8
Ebene 1
370
     0
100
AcDbVertex
100
AcDb2dVertex
 10
534.087890625
 20
45.779296875
 30
0.0
  0
VERTEX
  5
30A
330
2E9
100
AcDbEntity
  8
Ebene 1
370
     0
100
AcDbVertex
100
AcDb2dVertex
 10
534.396484375
 20
44.8525390625
 30
0.0
  0
VERTEX
  5
30B
330
2E9
100
AcDbEntity
  8
Ebene 1
370
     0
100
AcDbVertex
100
AcDb2dVertex
 10
534.837890625
 20
43.970703125
 30
0.0
  0
VERTEX
  5
30C
330
2E9
100
AcDbEntity
  8
Ebene 1
370
     0
100
AcDbVertex
100
AcDb2dVertex
 10
535.32421875
 20
43.1328125
 30
0.0
  0
VERTEX
  5
30D
330
2E9
100
AcDbEntity
  8
Ebene 1
370
     0
100
AcDbVertex
100
AcDb2dVertex
 10
535.94140625
 20
42.337890625
 30
0.0
  0
VERTEX
  5
30E
330
2E9
100
AcDbEntity
  8
Ebene 1
370
     0
100
AcDbVertex
100
AcDb2dVertex
 10
536.646484375
 20
41.6328125
 30
0.0
  0
VERTEX
  5
30F
330
2E9
100
AcDbEntity
  8
Ebene 1
370
     0
100
AcDbVertex
100
AcDb2dVertex
 10
537.396484375
 20
41.0146484375
 30
0.0
  0
VERTEX
  5
310
330
2E9
100
AcDbEntity
  8
Ebene 1
370
     0
100
AcDbVertex
100
AcDb2dVertex
 10
538.2353515625
 20
40.44140625
 30
0.0
  0
VERTEX
  5
311
330
2E9
100
AcDbEntity
  8
Ebene 1
370
     0
100
AcDbVertex
100
AcDb2dVertex
 10
539.1171875
 20
40.0
 30
0.0
  0
VERTEX
  5
312
330
2E9
100
AcDbEntity
  8
Ebene 1
370
     0
100
AcDbVertex
100
AcDb2dVertex
 10
540.0439453125
 20
39.6474609375
 30
0.0
  0
VERTEX
  5
313
330
2E9
100
AcDbEntity
  8
Ebene 1
370
     0
100
AcDbVertex
100
AcDb2dVertex
 10
541.0146484375
 20
39.4267578125
 30
0.0
  0
VERTEX
  5
314
330
2E9
100
AcDbEntity
  8
Ebene 1
370
     0
100
AcDbVertex
100
AcDb2dVertex
 10
541.9853515625
 20
39.2939453125
 30
0.0
  0
VERTEX
  5
315
330
2E9
100
AcDbEntity
  8
Ebene 1
370
     0
100
AcDbVertex
100
AcDb2dVertex
 10
543.0
 20
39.25
 30
0.0
  0
VERTEX
  5
316
330
2E9
100
AcDbEntity
  8
Ebene 1
370
     0
100
AcDbVertex
100
AcDb2dVertex
 10
543.970703125
 20
39.337890625
 30
0.0
  0
VERTEX
  5
317
330
2E9
100
AcDbEntity
  8
Ebene 1
370
     0
100
AcDbVertex
100
AcDb2dVertex
 10
544.94140625
 20
39.5146484375
 30
0.0
  0
VERTEX
  5
318
330
2E9
100
AcDbEntity
  8
Ebene 1
370
     0
100
AcDbVertex
100
AcDb2dVertex
 10
545.912109375
 20
39.8232421875
 30
0.0
  0
VERTEX
  5
319
330
2E9
100
AcDbEntity
  8
Ebene 1
370
     0
100
AcDbVertex
100
AcDb2dVertex
 10
546.7939453125
 20
40.220703125
 30
0.0
  0
VERTEX
  5
31A
330
2E9
100
AcDbEntity
  8
Ebene 1
370
     0
100
AcDbVertex
100
AcDb2dVertex
 10
547.67578125
 20
40.7060546875
 30
0.0
  0
VERTEX
  5
31B
330
2E9
100
AcDbEntity
  8
Ebene 1
370
     0
100
AcDbVertex
100
AcDb2dVertex
 10
548.470703125
 20
41.3232421875
 30
0.0
  0
VERTEX
  5
31C
330
2E9
100
AcDbEntity
  8
Ebene 1
370
     0
100
AcDbVertex
100
AcDb2dVertex
 10
549.17578125
 20
41.9853515625
 30
0.0
  0
VERTEX
  5
31D
330
2E9
100
AcDbEntity
  8
Ebene 1
370
     0
100
AcDbVertex
100
AcDb2dVertex
 10
549.837890625
 20
42.7353515625
 30
0.0
  0
VERTEX
  5
31E
330
2E9
100
AcDbEntity
  8
Ebene 1
370
     0
100
AcDbVertex
100
AcDb2dVertex
 10
550.412109375
 20
43.529296875
 30
0.0
  0
VERTEX
  5
31F
330
2E9
100
AcDbEntity
  8
Ebene 1
370
     0
100
AcDbVertex
100
AcDb2dVertex
 10
550.853515625
 20
44.412109375
 30
0.0
  0
VERTEX
  5
320
330
2E9
100
AcDbEntity
  8
Ebene 1
370
     0
100
AcDbVertex
100
AcDb2dVertex
 10
551.25
 20
45.337890625
 30
0.0
  0
VERTEX
  5
321
330
2E9
100
AcDbEntity
  8
Ebene 1
370
     0
100
AcDbVertex
100
AcDb2dVertex
 10
551.5146484375
 20
46.2646484375
 30
0.0
  0
VERTEX
  5
322
330
2E9
100
AcDbEntity
  8
Ebene 1
370
     0
100
AcDbVertex
100
AcDb2dVertex
 10
551.69140625
 20
47.279296875
 30
0.0
  0
VERTEX
  5
323
330
2E9
100
AcDbEntity
  8
Ebene 1
370
     0
100
AcDbVertex
100
AcDb2dVertex
 10
551.7353515625
 20
48.25
 30
0.0
  0
VERTEX
  5
324
330
2E9
100
AcDbEntity
  8
Ebene 1
370
     0
100
AcDbVertex
100
AcDb2dVertex
 10
551.7353515625
 20
48.25
 30
0.0
  0
SEQEND
  5
325
330
2E9
100
AcDbEntity
  8
Ebene 1
370
     0
  0
POLYLINE
  5
326
330
3C
100
AcDbEntity
  8
Ebene 1
370
     0
100
AcDb2dPolyline
 66
     1
 10
0.0
 20
0.0
 30
0.0
  0
VERTEX
  5
327
330
326
100
AcDbEntity
  8
Ebene 1
370
     0
100
AcDbVertex
100
AcDb2dVertex
 10
647.2060546875
 20
48.25
 30
0.0
  0
VERTEX
  5
328
330
326
100
AcDbEntity
  8
Ebene 1
370
     0
100
AcDbVertex
100
AcDb2dVertex
 10
647.162109375
 20
49.220703125
 30
0.0
  0
VERTEX
  5
329
330
326
100
AcDbEntity
  8
Ebene 1
370
     0
100
AcDbVertex
100
AcDb2dVertex
 10
646.9853515625
 20
50.2353515625
 30
0.0
  0
VERTEX
  5
32A
330
326
100
AcDbEntity
  8
Ebene 1
370
     0
100
AcDbVertex
100
AcDb2dVertex
 10
646.720703125
 20
51.162109375
 30
0.0
  0
VERTEX
  5
32B
330
326
100
AcDbEntity
  8
Ebene 1
370
     0
100
AcDbVertex
100
AcDb2dVertex
 10
646.3232421875
 20
52.087890625
 30
0.0
  0
VERTEX
  5
32C
330
326
100
AcDbEntity
  8
Ebene 1
370
     0
100
AcDbVertex
100
AcDb2dVertex
 10
645.8828125
 20
52.970703125
 30
0.0
  0
VERTEX
  5
32D
330
326
100
AcDbEntity
  8
Ebene 1
370
     0
100
AcDbVertex
100
AcDb2dVertex
 10
645.30859375
 20
53.7646484375
 30
0.0
  0
VERTEX
  5
32E
330
326
100
AcDbEntity
  8
Ebene 1
370
     0
100
AcDbVertex
100
AcDb2dVertex
 10
644.6474609375
 20
54.5146484375
 30
0.0
  0
VERTEX
  5
32F
330
326
100
AcDbEntity
  8
Ebene 1
370
     0
100
AcDbVertex
100
AcDb2dVertex
 10
643.94140625
 20
55.1767578125
 30
0.0
  0
VERTEX
  5
330
330
326
100
AcDbEntity
  8
Ebene 1
370
     0
100
AcDbVertex
100
AcDb2dVertex
 10
643.1474609375
 20
55.7939453125
 30
0.0
  0
VERTEX
  5
331
330
326
100
AcDbEntity
  8
Ebene 1
370
     0
100
AcDbVertex
100
AcDb2dVertex
 10
642.2646484375
 20
56.279296875
 30
0.0
  0
VERTEX
  5
332
330
326
100
AcDbEntity
  8
Ebene 1
370
     0
100
AcDbVertex
100
AcDb2dVertex
 10
641.3828125
 20
56.6767578125
 30
0.0
  0
VERTEX
  5
333
330
326
100
AcDbEntity
  8
Ebene 1
370
     0
100
AcDbVertex
100
AcDb2dVertex
 10
640.412109375
 20
56.9853515625
 30
0.0
  0
VERTEX
  5
334
330
326
100
AcDbEntity
  8
Ebene 1
370
     0
100
AcDbVertex
100
AcDb2dVertex
 10
639.44140625
 20
57.162109375
 30
0.0
  0
VERTEX
  5
335
330
326
100
AcDbEntity
  8
Ebene 1
370
     0
100
AcDbVertex
100
AcDb2dVertex
 10
638.470703125
 20
57.25
 30
0.0
  0
VERTEX
  5
336
330
326
100
AcDbEntity
  8
Ebene 1
370
     0
100
AcDbVertex
100
AcDb2dVertex
 10
637.4560546875
 20
57.2060546875
 30
0.0
  0
VERTEX
  5
337
330
326
100
AcDbEntity
  8
Ebene 1
370
     0
100
AcDbVertex
100
AcDb2dVertex
 10
636.4853515625
 20
57.0732421875
 30
0.0
  0
VERTEX
  5
338
330
326
100
AcDbEntity
  8
Ebene 1
370
     0
100
AcDbVertex
100
AcDb2dVertex
 10
635.5146484375
 20
56.8525390625
 30
0.0
  0
VERTEX
  5
339
330
326
100
AcDbEntity
  8
Ebene 1
370
     0
100
AcDbVertex
100
AcDb2dVertex
 10
634.587890625
 20
56.5
 30
0.0
  0
VERTEX
  5
33A
330
326
100
AcDbEntity
  8
Ebene 1
370
     0
100
AcDbVertex
100
AcDb2dVertex
 10
633.7060546875
 20
56.05859375
 30
0.0
  0
VERTEX
  5
33B
330
326
100
AcDbEntity
  8
Ebene 1
370
     0
100
AcDbVertex
100
AcDb2dVertex
 10
632.8671875
 20
55.4853515625
 30
0.0
  0
VERTEX
  5
33C
330
326
100
AcDbEntity
  8
Ebene 1
370
     0
100
AcDbVertex
100
AcDb2dVertex
 10
632.1171875
 20
54.8671875
 30
0.0
  0
VERTEX
  5
33D
330
326
100
AcDbEntity
  8
Ebene 1
370
     0
100
AcDbVertex
100
AcDb2dVertex
 10
631.412109375
 20
54.162109375
 30
0.0
  0
VERTEX
  5
33E
330
326
100
AcDbEntity
  8
Ebene 1
370
     0
100
AcDbVertex
100
AcDb2dVertex
 10
630.7939453125
 20
53.3671875
 30
0.0
  0
VERTEX
  5
33F
330
326
100
AcDbEntity
  8
Ebene 1
370
     0
100
AcDbVertex
100
AcDb2dVertex
 10
630.30859375
 20
52.529296875
 30
0.0
  0
VERTEX
  5
340
330
326
100
AcDbEntity
  8
Ebene 1
370
     0
100
AcDbVertex
100
AcDb2dVertex
 10
629.8671875
 20
51.6474609375
 30
0.0
  0
VERTEX
  5
341
330
326
100
AcDbEntity
  8
Ebene 1
370
     0
100
AcDbVertex
100
AcDb2dVertex
 10
629.55859375
 20
50.720703125
 30
0.0
  0
VERTEX
  5
342
330
326
100
AcDbEntity
  8
Ebene 1
370
     0
100
AcDbVertex
100
AcDb2dVertex
 10
629.337890625
 20
49.75
 30
0.0
  0
VERTEX
  5
343
330
326
100
AcDbEntity
  8
Ebene 1
370
     0
100
AcDbVertex
100
AcDb2dVertex
 10
629.2060546875
 20
48.7353515625
 30
0.0
  0
VERTEX
  5
344
330
326
100
AcDbEntity
  8
Ebene 1
370
     0
100
AcDbVertex
100
AcDb2dVertex
 10
629.2060546875
 20
47.7646484375
 30
0.0
  0
VERTEX
  5
345
330
326
100
AcDbEntity
  8
Ebene 1
370
     0
100
AcDbVertex
100
AcDb2dVertex
 10
629.337890625
 20
46.75
 30
0.0
  0
VERTEX
  5
346
330
326
100
AcDbEntity
  8
Ebene 1
370
     0
100
AcDbVertex
100
AcDb2dVertex
 10
629.55859375
 20
45.779296875
 30
0.0
  0
VERTEX
  5
347
330
326
100
AcDbEntity
  8
Ebene 1
370
     0
100
AcDbVertex
100
AcDb2dVertex
 10
629.8671875
 20
44.8525390625
 30
0.0
  0
VERTEX
  5
348
330
326
100
AcDbEntity
  8
Ebene 1
370
     0
100
AcDbVertex
100
AcDb2dVertex
 10
630.30859375
 20
43.970703125
 30
0.0
  0
VERTEX
  5
349
330
326
100
AcDbEntity
  8
Ebene 1
370
     0
100
AcDbVertex
100
AcDb2dVertex
 10
630.7939453125
 20
43.1328125
 30
0.0
  0
VERTEX
  5
34A
330
326
100
AcDbEntity
  8
Ebene 1
370
     0
100
AcDbVertex
100
AcDb2dVertex
 10
631.412109375
 20
42.337890625
 30
0.0
  0
VERTEX
  5
34B
330
326
100
AcDbEntity
  8
Ebene 1
370
     0
100
AcDbVertex
100
AcDb2dVertex
 10
632.1171875
 20
41.6328125
 30
0.0
  0
VERTEX
  5
34C
330
326
100
AcDbEntity
  8
Ebene 1
370
     0
100
AcDbVertex
100
AcDb2dVertex
 10
632.8671875
 20
41.0146484375
 30
0.0
  0
VERTEX
  5
34D
330
326
100
AcDbEntity
  8
Ebene 1
370
     0
100
AcDbVertex
100
AcDb2dVertex
 10
633.7060546875
 20
40.44140625
 30
0.0
  0
VERTEX
  5
34E
330
326
100
AcDbEntity
  8
Ebene 1
370
     0
100
AcDbVertex
100
AcDb2dVertex
 10
634.587890625
 20
40.0
 30
0.0
  0
VERTEX
  5
34F
330
326
100
AcDbEntity
  8
Ebene 1
370
     0
100
AcDbVertex
100
AcDb2dVertex
 10
635.5146484375
 20
39.6474609375
 30
0.0
  0
VERTEX
  5
350
330
326
100
AcDbEntity
  8
Ebene 1
370
     0
100
AcDbVertex
100
AcDb2dVertex
 10
636.4853515625
 20
39.4267578125
 30
0.0
  0
VERTEX
  5
351
330
326
100
AcDbEntity
  8
Ebene 1
370
     0
100
AcDbVertex
100
AcDb2dVertex
 10
637.4560546875
 20
39.2939453125
 30
0.0
  0
VERTEX
  5
352
330
326
100
AcDbEntity
  8
Ebene 1
370
     0
100
AcDbVertex
100
AcDb2dVertex
 10
638.470703125
 20
39.25
 30
0.0
  0
VERTEX
  5
353
330
326
100
AcDbEntity
  8
Ebene 1
370
     0
100
AcDbVertex
100
AcDb2dVertex
 10
639.44140625
 20
39.337890625
 30
0.0
  0
VERTEX
  5
354
330
326
100
AcDbEntity
  8
Ebene 1
370
     0
100
AcDbVertex
100
AcDb2dVertex
 10
640.412109375
 20
39.5146484375
 30
0.0
  0
VERTEX
  5
355
330
326
100
AcDbEntity
  8
Ebene 1
370
     0
100
AcDbVertex
100
AcDb2dVertex
 10
641.3828125
 20
39.8232421875
 30
0.0
  0
VERTEX
  5
356
330
326
100
AcDbEntity
  8
Ebene 1
370
     0
100
AcDbVertex
100
AcDb2dVertex
 10
642.2646484375
 20
40.220703125
 30
0.0
  0
VERTEX
  5
357
330
326
100
AcDbEntity
  8
Ebene 1
370
     0
100
AcDbVertex
100
AcDb2dVertex
 10
643.1474609375
 20
40.7060546875
 30
0.0
  0
VERTEX
  5
358
330
326
100
AcDbEntity
  8
Ebene 1
370
     0
100
AcDbVertex
100
AcDb2dVertex
 10
643.94140625
 20
41.3232421875
 30
0.0
  0
VERTEX
  5
359
330
326
100
AcDbEntity
  8
Ebene 1
370
     0
100
AcDbVertex
100
AcDb2dVertex
 10
644.6474609375
 20
41.9853515625
 30
0.0
  0
VERTEX
  5
35A
330
326
100
AcDbEntity
  8
Ebene 1
370
     0
100
AcDbVertex
100
AcDb2dVertex
 10
645.30859375
 20
42.7353515625
 30
0.0
  0
VERTEX
  5
35B
330
326
100
AcDbEntity
  8
Ebene 1
370
     0
100
AcDbVertex
100
AcDb2dVertex
 10
645.8828125
 20
43.529296875
 30
0.0
  0
VERTEX
  5
35C
330
326
100
AcDbEntity
  8
Ebene 1
370
     0
100
AcDbVertex
100
AcDb2dVertex
 10
646.3232421875
 20
44.412109375
 30
0.0
  0
VERTEX
  5
35D
330
326
100
AcDbEntity
  8
Ebene 1
370
     0
100
AcDbVertex
100
AcDb2dVertex
 10
646.720703125
 20
45.337890625
 30
0.0
  0
VERTEX
  5
35E
330
326
100
AcDbEntity
  8
Ebene 1
370
     0
100
AcDbVertex
100
AcDb2dVertex
 10
646.9853515625
 20
46.2646484375
 30
0.0
  0
VERTEX
  5
35F
330
326
100
AcDbEntity
  8
Ebene 1
370
     0
100
AcDbVertex
100
AcDb2dVertex
 10
647.162109375
 20
47.279296875
 30
0.0
  0
VERTEX
  5
360
330
326
100
AcDbEntity
  8
Ebene 1
370
     0
100
AcDbVertex
100
AcDb2dVertex
 10
647.2060546875
 20
48.25
 30
0.0
  0
VERTEX
  5
361
330
326
100
AcDbEntity
  8
Ebene 1
370
     0
100
AcDbVertex
100
AcDb2dVertex
 10
647.2060546875
 20
48.25
 30
0.0
  0
SEQEND
  5
362
330
326
100
AcDbEntity
  8
Ebene 1
370
     0
  0
POLYLINE
  5
363
330
3C
100
AcDbEntity
  8
Ebene 1
370
     0
100
AcDb2dPolyline
 66
     1
 10
0.0
 20
0.0
 30
0.0
  0
VERTEX
  5
364
330
363
100
AcDbEntity
  8
Ebene 1
370
     0
100
AcDbVertex
100
AcDb2dVertex
 10
590.470703125
 20
92.720703125
 30
0.0
  0
VERTEX
  5
365
330
363
100
AcDbEntity
  8
Ebene 1
370
     0
100
AcDbVertex
100
AcDb2dVertex
 10
589.19140625
 20
92.67578125
 30
0.0
  0
VERTEX
  5
366
330
363
100
AcDbEntity
  8
Ebene 1
370
     0
100
AcDbVertex
100
AcDb2dVertex
 10
587.9560546875
 20
92.5
 30
0.0
  0
VERTEX
  5
367
330
363
100
AcDbEntity
  8
Ebene 1
370
     0
100
AcDbVertex
100
AcDb2dVertex
 10
586.6767578125
 20
92.2353515625
 30
0.0
  0
VERTEX
  5
368
330
363
100
AcDbEntity
  8
Ebene 1
370
     0
100
AcDbVertex
100
AcDb2dVertex
 10
585.4853515625
 20
91.837890625
 30
0.0
  0
VERTEX
  5
369
330
363
100
AcDbEntity
  8
Ebene 1
370
     0
100
AcDbVertex
100
AcDb2dVertex
 10
584.2939453125
 20
91.396484375
 30
0.0
  0
VERTEX
  5
36A
330
363
100
AcDbEntity
  8
Ebene 1
370
     0
100
AcDbVertex
100
AcDb2dVertex
 10
583.19140625
 20
90.779296875
 30
0.0
  0
VERTEX
  5
36B
330
363
100
AcDbEntity
  8
Ebene 1
370
     0
100
AcDbVertex
100
AcDb2dVertex
 10
582.087890625
 20
90.1171875
 30
0.0
  0
VERTEX
  5
36C
330
363
100
AcDbEntity
  8
Ebene 1
370
     0
100
AcDbVertex
100
AcDb2dVertex
 10
581.0732421875
 20
89.3671875
 30
0.0
  0
VERTEX
  5
36D
330
363
100
AcDbEntity
  8
Ebene 1
370
     0
100
AcDbVertex
100
AcDb2dVertex
 10
580.1474609375
 20
88.529296875
 30
0.0
  0
VERTEX
  5
36E
330
363
100
AcDbEntity
  8
Ebene 1
370
     0
100
AcDbVertex
100
AcDb2dVertex
 10
579.2646484375
 20
87.603515625
 30
0.0
  0
VERTEX
  5
36F
330
363
100
AcDbEntity
  8
Ebene 1
370
     0
100
AcDbVertex
100
AcDb2dVertex
 10
578.470703125
 20
86.587890625
 30
0.0
  0
VERTEX
  5
370
330
363
100
AcDbEntity
  8
Ebene 1
370
     0
100
AcDbVertex
100
AcDb2dVertex
 10
577.7646484375
 20
85.529296875
 30
0.0
  0
VERTEX
  5
371
330
363
100
AcDbEntity
  8
Ebene 1
370
     0
100
AcDbVertex
100
AcDb2dVertex
 10
577.19140625
 20
84.42578125
 30
0.0
  0
VERTEX
  5
372
330
363
100
AcDbEntity
  8
Ebene 1
370
     0
100
AcDbVertex
100
AcDb2dVertex
 10
576.662109375
 20
83.2353515625
 30
0.0
  0
VERTEX
  5
373
330
363
100
AcDbEntity
  8
Ebene 1
370
     0
100
AcDbVertex
100
AcDb2dVertex
 10
576.2646484375
 20
82.0439453125
 30
0.0
  0
VERTEX
  5
374
330
363
100
AcDbEntity
  8
Ebene 1
370
     0
100
AcDbVertex
100
AcDb2dVertex
 10
575.9560546875
 20
80.80859375
 30
0.0
  0
VERTEX
  5
375
330
363
100
AcDbEntity
  8
Ebene 1
370
     0
100
AcDbVertex
100
AcDb2dVertex
 10
575.779296875
 20
79.5732421875
 30
0.0
  0
VERTEX
  5
376
330
363
100
AcDbEntity
  8
Ebene 1
370
     0
100
AcDbVertex
100
AcDb2dVertex
 10
575.69140625
 20
78.2939453125
 30
0.0
  0
VERTEX
  5
377
330
363
100
AcDbEntity
  8
Ebene 1
370
     0
100
AcDbVertex
100
AcDb2dVertex
 10
575.7353515625
 20
77.0146484375
 30
0.0
  0
VERTEX
  5
378
330
363
100
AcDbEntity
  8
Ebene 1
370
     0
100
AcDbVertex
100
AcDb2dVertex
 10
575.8671875
 20
75.779296875
 30
0.0
  0
VERTEX
  5
379
330
363
100
AcDbEntity
  8
Ebene 1
370
     0
100
AcDbVertex
100
AcDb2dVertex
 10
576.087890625
 20
74.5439453125
 30
0.0
  0
VERTEX
  5
37A
330
363
100
AcDbEntity
  8
Ebene 1
370
     0
100
AcDbVertex
100
AcDb2dVertex
 10
576.44140625
 20
73.30859375
 30
0.0
  0
VERTEX
  5
37B
330
363
100
AcDbEntity
  8
Ebene 1
370
     0
100
AcDbVertex
100
AcDb2dVertex
 10
576.9267578125
 20
72.1171875
 30
0.0
  0
VERTEX
  5
37C
330
363
100
AcDbEntity
  8
Ebene 1
370
     0
100
AcDbVertex
100
AcDb2dVertex
 10
577.4560546875
 20
70.970703125
 30
0.0
  0
VERTEX
  5
37D
330
363
100
AcDbEntity
  8
Ebene 1
370
     0
100
AcDbVertex
100
AcDb2dVertex
 10
578.1171875
 20
69.912109375
 30
0.0
  0
VERTEX
  5
37E
330
363
100
AcDbEntity
  8
Ebene 1
370
     0
100
AcDbVertex
100
AcDb2dVertex
 10
578.8671875
 20
68.8525390625
 30
0.0
  0
VERTEX
  5
37F
330
363
100
AcDbEntity
  8
Ebene 1
370
     0
100
AcDbVertex
100
AcDb2dVertex
 10
579.7060546875
 20
67.9267578125
 30
0.0
  0
VERTEX
  5
380
330
363
100
AcDbEntity
  8
Ebene 1
370
     0
100
AcDbVertex
100
AcDb2dVertex
 10
580.587890625
 20
67.0
 30
0.0
  0
VERTEX
  5
381
330
363
100
AcDbEntity
  8
Ebene 1
370
     0
100
AcDbVertex
100
AcDb2dVertex
 10
581.55859375
 20
66.2060546875
 30
0.0
  0
VERTEX
  5
382
330
363
100
AcDbEntity
  8
Ebene 1
370
     0
100
AcDbVertex
100
AcDb2dVertex
 10
582.6171875
 20
65.5
 30
0.0
  0
VERTEX
  5
383
330
363
100
AcDbEntity
  8
Ebene 1
370
     0
100
AcDbVertex
100
AcDb2dVertex
 10
583.720703125
 20
64.8828125
 30
0.0
  0
VERTEX
  5
384
330
363
100
AcDbEntity
  8
Ebene 1
370
     0
100
AcDbVertex
100
AcDb2dVertex
 10
584.8671875
 20
64.3525390625
 30
0.0
  0
VERTEX
  5
385
330
363
100
AcDbEntity
  8
Ebene 1
370
     0
100
AcDbVertex
100
AcDb2dVertex
 10
586.1025390625
 20
63.912109375
 30
0.0
  0
VERTEX
  5
386
330
363
100
AcDbEntity
  8
Ebene 1
370
     0
100
AcDbVertex
100
AcDb2dVertex
 10
587.2939453125
 20
63.6025390625
 30
0.0
  0
VERTEX
  5
387
330
363
100
AcDbEntity
  8
Ebene 1
370
     0
100
AcDbVertex
100
AcDb2dVertex
 10
588.5732421875
 20
63.3828125
 30
0.0
  0
VERTEX
  5
388
330
363
100
AcDbEntity
  8
Ebene 1
370
     0
100
AcDbVertex
100
AcDb2dVertex
 10
589.8525390625
 20
63.25
 30
0.0
  0
VERTEX
  5
389
330
363
100
AcDbEntity
  8
Ebene 1
370
     0
100
AcDbVertex
100
AcDb2dVertex
 10
591.087890625
 20
63.25
 30
0.0
  0
VERTEX
  5
38A
330
363
100
AcDbEntity
  8
Ebene 1
370
     0
100
AcDbVertex
100
AcDb2dVertex
 10
592.3671875
 20
63.3828125
 30
0.0
  0
VERTEX
  5
38B
330
363
100
AcDbEntity
  8
Ebene 1
370
     0
100
AcDbVertex
100
AcDb2dVertex
 10
593.6474609375
 20
63.6025390625
 30
0.0
  0
VERTEX
  5
38C
330
363
100
AcDbEntity
  8
Ebene 1
370
     0
100
AcDbVertex
100
AcDb2dVertex
 10
594.837890625
 20
63.912109375
 30
0.0
  0
VERTEX
  5
38D
330
363
100
AcDbEntity
  8
Ebene 1
370
     0
100
AcDbVertex
100
AcDb2dVertex
 10
596.0732421875
 20
64.3525390625
 30
0.0
  0
VERTEX
  5
38E
330
363
100
AcDbEntity
  8
Ebene 1
370
     0
100
AcDbVertex
100
AcDb2dVertex
 10
597.220703125
 20
64.8828125
 30
0.0
  0
VERTEX
  5
38F
330
363
100
AcDbEntity
  8
Ebene 1
370
     0
100
AcDbVertex
100
AcDb2dVertex
 10
598.3232421875
 20
65.5
 30
0.0
  0
VERTEX
  5
390
330
363
100
AcDbEntity
  8
Ebene 1
370
     0
100
AcDbVertex
100
AcDb2dVertex
 10
599.3828125
 20
66.2060546875
 30
0.0
  0
VERTEX
  5
391
330
363
100
AcDbEntity
  8
Ebene 1
370
     0
100
AcDbVertex
100
AcDb2dVertex
 10
600.3525390625
 20
67.0
 30
0.0
  0
VERTEX
  5
392
330
363
100
AcDbEntity
  8
Ebene 1
370
     0
100
AcDbVertex
100
AcDb2dVertex
 10
601.2353515625
 20
67.9267578125
 30
0.0
  0
VERTEX
  5
393
330
363
100
AcDbEntity
  8
Ebene 1
370
     0
100
AcDbVertex
100
AcDb2dVertex
 10
602.0732421875
 20
68.8525390625
 30
0.0
  0
VERTEX
  5
394
330
363
100
AcDbEntity
  8
Ebene 1
370
     0
100
AcDbVertex
100
AcDb2dVertex
 10
602.8232421875
 20
69.912109375
 30
0.0
  0
VERTEX
  5
395
330
363
100
AcDbEntity
  8
Ebene 1
370
     0
100
AcDbVertex
100
AcDb2dVertex
 10
603.4853515625
 20
70.970703125
 30
0.0
  0
VERTEX
  5
396
330
363
100
AcDbEntity
  8
Ebene 1
370
     0
100
AcDbVertex
100
AcDb2dVertex
 10
604.0146484375
 20
72.1171875
 30
0.0
  0
VERTEX
  5
397
330
363
100
AcDbEntity
  8
Ebene 1
370
     0
100
AcDbVertex
100
AcDb2dVertex
 10
604.5
 20
73.30859375
 30
0.0
  0
VERTEX
  5
398
330
363
100
AcDbEntity
  8
Ebene 1
370
     0
100
AcDbVertex
100
AcDb2dVertex
 10
604.8525390625
 20
74.5439453125
 30
0.0
  0
VERTEX
  5
399
330
363
100
AcDbEntity
  8
Ebene 1
370
     0
100
AcDbVertex
100
AcDb2dVertex
 10
605.0732421875
 20
75.779296875
 30
0.0
  0
VERTEX
  5
39A
330
363
100
AcDbEntity
  8
Ebene 1
370
     0
100
AcDbVertex
100
AcDb2dVertex
 10
605.2060546875
 20
77.0146484375
 30
0.0
  0
VERTEX
  5
39B
330
363
100
AcDbEntity
  8
Ebene 1
370
     0
100
AcDbVertex
100
AcDb2dVertex
 10
605.25
 20
78.2939453125
 30
0.0
  0
VERTEX
  5
39C
330
363
100
AcDbEntity
  8
Ebene 1
370
     0
100
AcDbVertex
100
AcDb2dVertex
 10
605.162109375
 20
79.5732421875
 30
0.0
  0
VERTEX
  5
39D
330
363
100
AcDbEntity
  8
Ebene 1
370
     0
100
AcDbVertex
100
AcDb2dVertex
 10
604.9853515625
 20
80.80859375
 30
0.0
  0
VERTEX
  5
39E
330
363
100
AcDbEntity
  8
Ebene 1
370
     0
100
AcDbVertex
100
AcDb2dVertex
 10
604.6767578125
 20
82.0439453125
 30
0.0
  0
VERTEX
  5
39F
330
363
100
AcDbEntity
  8
Ebene 1
370
     0
100
AcDbVertex
100
AcDb2dVertex
 10
604.279296875
 20
83.2353515625
 30
0.0
  0
VERTEX
  5
3A0
330
363
100
AcDbEntity
  8
Ebene 1
370
     0
100
AcDbVertex
100
AcDb2dVertex
 10
603.75
 20
84.42578125
 30
0.0
  0
VERTEX
  5
3A1
330
363
100
AcDbEntity
  8
Ebene 1
370
     0
100
AcDbVertex
100
AcDb2dVertex
 10
603.1767578125
 20
85.529296875
 30
0.0
  0
VERTEX
  5
3A2
330
363
100
AcDbEntity
  8
Ebene 1
370
     0
100
AcDbVertex
100
AcDb2dVertex
 10
602.470703125
 20
86.587890625
 30
0.0
  0
VERTEX
  5
3A3
330
363
100
AcDbEntity
  8
Ebene 1
370
     0
100
AcDbVertex
100
AcDb2dVertex
 10
601.6767578125
 20
87.603515625
 30
0.0
  0
VERTEX
  5
3A4
330
363
100
AcDbEntity
  8
Ebene 1
370
     0
100
AcDbVertex
100
AcDb2dVertex
 10
600.7939453125
 20
88.529296875
 30
0.0
  0
VERTEX
  5
3A5
330
363
100
AcDbEntity
  8
Ebene 1
370
     0
100
AcDbVertex
100
AcDb2dVertex
 10
599.8671875
 20
89.3671875
 30
0.0
  0
VERTEX
  5
3A6
330
363
100
AcDbEntity
  8
Ebene 1
370
     0
100
AcDbVertex
100
AcDb2dVertex
 10
598.8525390625
 20
90.1171875
 30
0.0
  0
VERTEX
  5
3A7
330
363
100
AcDbEntity
  8
Ebene 1
370
     0
100
AcDbVertex
100
AcDb2dVertex
 10
597.75
 20
90.779296875
 30
0.0
  0
VERTEX
  5
3A8
330
363
100
AcDbEntity
  8
Ebene 1
370
     0
100
AcDbVertex
100
AcDb2dVertex
 10
596.6474609375
 20
91.396484375
 30
0.0
  0
VERTEX
  5
3A9
330
363
100
AcDbEntity
  8
Ebene 1
370
     0
100
AcDbVertex
100
AcDb2dVertex
 10
595.4560546875
 20
91.837890625
 30
0.0
  0
VERTEX
  5
3AA
330
363
100
AcDbEntity
  8
Ebene 1
370
     0
100
AcDbVertex
100
AcDb2dVertex
 10
594.2646484375
 20
92.2353515625
 30
0.0
  0
VERTEX
  5
3AB
330
363
100
AcDbEntity
  8
Ebene 1
370
     0
100
AcDbVertex
100
AcDb2dVertex
 10
592.9853515625
 20
92.5
 30
0.0
  0
VERTEX
  5
3AC
330
363
100
AcDbEntity
  8
Ebene 1
370
     0
100
AcDbVertex
100
AcDb2dVertex
 10
591.75
 20
92.67578125
 30
0.0
  0
VERTEX
  5
3AD
330
363
100
AcDbEntity
  8
Ebene 1
370
     0
100
AcDbVertex
100
AcDb2dVertex
 10
590.470703125
 20
92.720703125
 30
0.0
  0
VERTEX
  5
3AE
330
363
100
AcDbEntity
  8
Ebene 1
370
     0
100
AcDbVertex
100
AcDb2dVertex
 10
590.470703125
 20
92.720703125
 30
0.0
  0
SEQEND
  5
3AF
330
363
100
AcDbEntity
  8
Ebene 1
370
     0
  0
POLYLINE
  5
3B0
330
3C
100
AcDbEntity
  8
Ebene 1
370
     0
100
AcDb2dPolyline
 66
     1
 10
0.0
 20
0.0
 30
0.0
  0
VERTEX
  5
3B1
330
3B0
100
AcDbEntity
  8
Ebene 1
370
     0
100
AcDbVertex
100
AcDb2dVertex
 10
511.19140625
 20
-3.1025390625
 30
0.0
  0
VERTEX
  5
3B2
330
3B0
100
AcDbEntity
  8
Ebene 1
370
     0
100
AcDbVertex
100
AcDb2dVertex
 10
669.7060546875
 20
-3.1025390625
 30
0.0
  0
SEQEND
  5
3B3
330
3B0
100
AcDbEntity
  8
Ebene 1
370
     0
  0
POLYLINE
  5
3B4
330
3C
100
AcDbEntity
  8
Ebene 1
370
     0
100
AcDb2dPolyline
 66
     1
 10
0.0
 20
0.0
 30
0.0
  0
VERTEX
  5
3B5
330
3B4
100
AcDbEntity
  8
Ebene 1
370
     0
100
AcDbVertex
100
AcDb2dVertex
 10
495.0
 20
19.970703125
 30
0.0
  0
VERTEX
  5
3B6
330
3B4
100
AcDbEntity
  8
Ebene 1
370
     0
100
AcDbVertex
100
AcDb2dVertex
 10
505.80859375
 20
19.970703125
 30
0.0
  0
SEQEND
  5
3B7
330
3B4
100
AcDbEntity
  8
Ebene 1
370
     0
  0
POLYLINE
  5
3B8
330
3C
100
AcDbEntity
  8
Ebene 1
370
     0
100
AcDb2dPolyline
 66
     1
 10
0.0
 20
0.0
 30
0.0
  0
VERTEX
  5
3B9
330
3B8
100
AcDbEntity
  8
Ebene 1
370
     0
100
AcDbVertex
100
AcDb2dVertex
 10
505.80859375
 20
1.9267578125
 30
0.0
  0
VERTEX
  5
3BA
330
3B8
100
AcDbEntity
  8
Ebene 1
370
     0
100
AcDbVertex
100
AcDb2dVertex
 10
495.0
 20
1.9267578125
 30
0.0
  0
VERTEX
  5
3BB
330
3B8
100
AcDbEntity
  8
Ebene 1
370
     0
100
AcDbVertex
100
AcDb2dVertex
 10
495.0
 20
19.970703125
 30
0.0
  0
SEQEND
  5
3BC
330
3B8
100
AcDbEntity
  8
Ebene 1
370
     0
  0
POLYLINE
  5
3BD
330
3C
100
AcDbEntity
  8
Ebene 1
370
     0
100
AcDb2dPolyline
 66
     1
 10
0.0
 20
0.0
 30
0.0
  0
VERTEX
  5
3BE
330
3BD
100
AcDbEntity
  8
Ebene 1
370
     0
100
AcDbVertex
100
AcDb2dVertex
 10
495.0
 20
113.67578125
 30
0.0
  0
VERTEX
  5
3BF
330
3BD
100
AcDbEntity
  8
Ebene 1
370
     0
100
AcDbVertex
100
AcDb2dVertex
 10
505.80859375
 20
113.67578125
 30
0.0
  0
SEQEND
  5
3C0
330
3BD
100
AcDbEntity
  8
Ebene 1
370
     0
  0
POLYLINE
  5
3C1
330
3C
100
AcDbEntity
  8
Ebene 1
370
     0
100
AcDb2dPolyline
 66
     1
 10
0.0
 20
0.0
 30
0.0
  0
VERTEX
  5
3C2
330
3C1
100
AcDbEntity
  8
Ebene 1
370
     0
100
AcDbVertex
100
AcDb2dVertex
 10
505.80859375
 20
95.67578125
 30
0.0
  0
VERTEX
  5
3C3
330
3C1
100
AcDbEntity
  8
Ebene 1
370
     0
100
AcDbVertex
100
AcDb2dVertex
 10
495.0
 20
95.67578125
 30
0.0
  0
VERTEX
  5
3C4
330
3C1
100
AcDbEntity
  8
Ebene 1
370
     0
100
AcDbVertex
100
AcDb2dVertex
 10
495.0
 20
113.67578125
 30
0.0
  0
SEQEND
  5
3C5
330
3C1
100
AcDbEntity
  8
Ebene 1
370
     0
  0
POLYLINE
  5
3C6
330
3C
100
AcDbEntity
  8
Ebene 1
370
     0
100
AcDb2dPolyline
 66
     1
 10
0.0
 20
0.0
 30
0.0
  0
VERTEX
  5
3C7
330
3C6
100
AcDbEntity
  8
Ebene 1
370
     0
100
AcDbVertex
100
AcDb2dVertex
 10
495.0
 20
19.970703125
 30
0.0
  0
VERTEX
  5
3C8
330
3C6
100
AcDbEntity
  8
Ebene 1
370
     0
100
AcDbVertex
100
AcDb2dVertex
 10
495.0
 20
95.67578125
 30
0.0
  0
SEQEND
  5
3C9
330
3C6
100
AcDbEntity
  8
Ebene 1
370
     0
  0
POLYLINE
  5
3CA
330
3C
100
AcDbEntity
  8
Ebene 1
370
     0
100
AcDb2dPolyline
 66
     1
 10
0.0
 20
0.0
 30
0.0
  0
VERTEX
  5
3CB
330
3CA
100
AcDbEntity
  8
Ebene 1
370
     0
100
AcDbVertex
100
AcDb2dVertex
 10
458.9560546875
 20
66.8232421875
 30
0.0
  0
VERTEX
  5
3CC
330
3CA
100
AcDbEntity
  8
Ebene 1
370
     0
100
AcDbVertex
100
AcDb2dVertex
 10
458.9560546875
 20
56.0146484375
 30
0.0
  0
SEQEND
  5
3CD
330
3CA
100
AcDbEntity
  8
Ebene 1
370
     0
  0
POLYLINE
  5
3CE
330
3C
100
AcDbEntity
  8
Ebene 1
370
     0
100
AcDb2dPolyline
 66
     1
 10
0.0
 20
0.0
 30
0.0
  0
VERTEX
  5
3CF
330
3CE
100
AcDbEntity
  8
Ebene 1
370
     0
100
AcDbVertex
100
AcDb2dVertex
 10
458.9560546875
 20
66.8232421875
 30
0.0
  0
VERTEX
  5
3D0
330
3CE
100
AcDbEntity
  8
Ebene 1
370
     0
100
AcDbVertex
100
AcDb2dVertex
 10
461.5146484375
 20
66.8232421875
 30
0.0
  0
SEQEND
  5
3D1
330
3CE
100
AcDbEntity
  8
Ebene 1
370
     0
  0
POLYLINE
  5
3D2
330
3C
100
AcDbEntity
  8
Ebene 1
370
     0
100
AcDb2dPolyline
 66
     1
 10
0.0
 20
0.0
 30
0.0
  0
VERTEX
  5
3D3
330
3D2
100
AcDbEntity
  8
Ebene 1
370
     0
100
AcDbVertex
100
AcDb2dVertex
 10
455.337890625
 20
66.8232421875
 30
0.0
  0
VERTEX
  5
3D4
330
3D2
100
AcDbEntity
  8
Ebene 1
370
     0
100
AcDbVertex
100
AcDb2dVertex
 10
458.9560546875
 20
66.8232421875
 30
0.0
  0
SEQEND
  5
3D5
330
3D2
100
AcDbEntity
  8
Ebene 1
370
     0
  0
POLYLINE
  5
3D6
330
3C
100
AcDbEntity
  8
Ebene 1
370
     0
100
AcDb2dPolyline
 66
     1
 10
0.0
 20
0.0
 30
0.0
  0
VERTEX
  5
3D7
330
3D6
100
AcDbEntity
  8
Ebene 1
370
     0
100
AcDbVertex
100
AcDb2dVertex
 10
451.7646484375
 20
56.3671875
 30
0.0
  0
VERTEX
  5
3D8
330
3D6
100
AcDbEntity
  8
Ebene 1
370
     0
100
AcDbVertex
100
AcDb2dVertex
 10
386.912109375
 20
56.3671875
 30
0.0
  0
SEQEND
  5
3D9
330
3D6
100
AcDbEntity
  8
Ebene 1
370
     0
  0
POLYLINE
  5
3DA
330
3C
100
AcDbEntity
  8
Ebene 1
370
     0
100
AcDb2dPolyline
 66
     1
 10
0.0
 20
0.0
 30
0.0
  0
VERTEX
  5
3DB
330
3DA
100
AcDbEntity
  8
Ebene 1
370
     0
100
AcDbVertex
100
AcDb2dVertex
 10
404.3828125
 20
38.3671875
 30
0.0
  0
VERTEX
  5
3DC
330
3DA
100
AcDbEntity
  8
Ebene 1
370
     0
100
AcDbVertex
100
AcDb2dVertex
 10
451.7646484375
 20
38.3671875
 30
0.0
  0
SEQEND
  5
3DD
330
3DA
100
AcDbEntity
  8
Ebene 1
370
     0
  0
POLYLINE
  5
3DE
330
3C
100
AcDbEntity
  8
Ebene 1
370
     0
100
AcDb2dPolyline
 66
     1
 10
0.0
 20
0.0
 30
0.0
  0
VERTEX
  5
3DF
330
3DE
100
AcDbEntity
  8
Ebene 1
370
     0
100
AcDbVertex
100
AcDb2dVertex
 10
386.912109375
 20
38.3671875
 30
0.0
  0
VERTEX
  5
3E0
330
3DE
100
AcDbEntity
  8
Ebene 1
370
     0
100
AcDbVertex
100
AcDb2dVertex
 10
404.3828125
 20
38.3671875
 30
0.0
  0
SEQEND
  5
3E1
330
3DE
100
AcDbEntity
  8
Ebene 1
370
     0
  0
POLYLINE
  5
3E2
330
3C
100
AcDbEntity
  8
Ebene 1
370
     0
100
AcDb2dPolyline
 66
     1
 10
0.0
 20
0.0
 30
0.0
  0
VERTEX
  5
3E3
330
3E2
100
AcDbEntity
  8
Ebene 1
370
     0
100
AcDbVertex
100
AcDb2dVertex
 10
451.7646484375
 20
14.8974609375
 30
0.0
  0
VERTEX
  5
3E4
330
3E2
100
AcDbEntity
  8
Ebene 1
370
     0
100
AcDbVertex
100
AcDb2dVertex
 10
386.912109375
 20
14.8974609375
 30
0.0
  0
SEQEND
  5
3E5
330
3E2
100
AcDbEntity
  8
Ebene 1
370
     0
  0
POLYLINE
  5
3E6
330
3C
100
AcDbEntity
  8
Ebene 1
370
     0
100
AcDb2dPolyline
 66
     1
 10
0.0
 20
0.0
 30
0.0
  0
VERTEX
  5
3E7
330
3E6
100
AcDbEntity
  8
Ebene 1
370
     0
100
AcDbVertex
100
AcDb2dVertex
 10
386.912109375
 20
79.7939453125
 30
0.0
  0
VERTEX
  5
3E8
330
3E6
100
AcDbEntity
  8
Ebene 1
370
     0
100
AcDbVertex
100
AcDb2dVertex
 10
451.7646484375
 20
79.7939453125
 30
0.0
  0
SEQEND
  5
3E9
330
3E6
100
AcDbEntity
  8
Ebene 1
370
     0
  0
POLYLINE
  5
3EA
330
3C
100
AcDbEntity
  8
Ebene 1
370
     0
100
AcDb2dPolyline
 66
     1
 10
0.0
 20
0.0
 30
0.0
  0
VERTEX
  5
3EB
330
3EA
100
AcDbEntity
  8
Ebene 1
370
     0
100
AcDbVertex
100
AcDb2dVertex
 10
466.146484375
 20
14.8974609375
 30
0.0
  0
VERTEX
  5
3EC
330
3EA
100
AcDbEntity
  8
Ebene 1
370
     0
100
AcDbVertex
100
AcDb2dVertex
 10
478.94140625
 20
14.8974609375
 30
0.0
  0
SEQEND
  5
3ED
330
3EA
100
AcDbEntity
  8
Ebene 1
370
     0
  0
POLYLINE
  5
3EE
330
3C
100
AcDbEntity
  8
Ebene 1
370
     0
100
AcDb2dPolyline
 66
     1
 10
0.0
 20
0.0
 30
0.0
  0
VERTEX
  5
3EF
330
3EE
100
AcDbEntity
  8
Ebene 1
370
     0
100
AcDbVertex
100
AcDb2dVertex
 10
494.9560546875
 20
14.8974609375
 30
0.0
  0
VERTEX
  5
3F0
330
3EE
100
AcDbEntity
  8
Ebene 1
370
     0
100
AcDbVertex
100
AcDb2dVertex
 10
495.0
 20
14.8974609375
 30
0.0
  0
SEQEND
  5
3F1
330
3EE
100
AcDbEntity
  8
Ebene 1
370
     0
  0
POLYLINE
  5
3F2
330
3C
100
AcDbEntity
  8
Ebene 1
370
     0
100
AcDb2dPolyline
 66
     1
 10
0.0
 20
0.0
 30
0.0
  0
VERTEX
  5
3F3
330
3F2
100
AcDbEntity
  8
Ebene 1
370
     0
100
AcDbVertex
100
AcDb2dVertex
 10
491.3828125
 20
81.603515625
 30
0.0
  0
VERTEX
  5
3F4
330
3F2
100
AcDbEntity
  8
Ebene 1
370
     0
100
AcDbVertex
100
AcDb2dVertex
 10
491.3828125
 20
92.412109375
 30
0.0
  0
SEQEND
  5
3F5
330
3F2
100
AcDbEntity
  8
Ebene 1
370
     0
  0
POLYLINE
  5
3F6
330
3C
100
AcDbEntity
  8
Ebene 1
370
     0
100
AcDb2dPolyline
 66
     1
 10
0.0
 20
0.0
 30
0.0
  0
VERTEX
  5
3F7
330
3F6
100
AcDbEntity
  8
Ebene 1
370
     0
100
AcDbVertex
100
AcDb2dVertex
 10
419.337890625
 20
92.412109375
 30
0.0
  0
VERTEX
  5
3F8
330
3F6
100
AcDbEntity
  8
Ebene 1
370
     0
100
AcDbVertex
100
AcDb2dVertex
 10
419.337890625
 20
81.603515625
 30
0.0
  0
SEQEND
  5
3F9
330
3F6
100
AcDbEntity
  8
Ebene 1
370
     0
  0
POLYLINE
  5
3FA
330
3C
100
AcDbEntity
  8
Ebene 1
370
     0
100
AcDb2dPolyline
 66
     1
 10
0.0
 20
0.0
 30
0.0
  0
VERTEX
  5
3FB
330
3FA
100
AcDbEntity
  8
Ebene 1
370
     0
100
AcDbVertex
100
AcDb2dVertex
 10
491.3828125
 20
92.412109375
 30
0.0
  0
VERTEX
  5
3FC
330
3FA
100
AcDbEntity
  8
Ebene 1
370
     0
100
AcDbVertex
100
AcDb2dVertex
 10
430.7646484375
 20
92.412109375
 30
0.0
  0
SEQEND
  5
3FD
330
3FA
100
AcDbEntity
  8
Ebene 1
370
     0
  0
POLYLINE
  5
3FE
330
3C
100
AcDbEntity
  8
Ebene 1
370
     0
100
AcDb2dPolyline
 66
     1
 10
0.0
 20
0.0
 30
0.0
  0
VERTEX
  5
3FF
330
3FE
100
AcDbEntity
  8
Ebene 1
370
     0
100
AcDbVertex
100
AcDb2dVertex
 10
491.3828125
 20
81.603515625
 30
0.0
  0
VERTEX
  5
400
330
3FE
100
AcDbEntity
  8
Ebene 1
370
     0
100
AcDbVertex
100
AcDb2dVertex
 10
419.337890625
 20
81.603515625
 30
0.0
  0
SEQEND
  5
401
330
3FE
100
AcDbEntity
  8
Ebene 1
370
     0
  0
POLYLINE
  5
402
330
3C
100
AcDbEntity
  8
Ebene 1
370
     0
100
AcDb2dPolyline
 66
     1
 10
0.0
 20
0.0
 30
0.0
  0
VERTEX
  5
403
330
402
100
AcDbEntity
  8
Ebene 1
370
     0
100
AcDbVertex
100
AcDb2dVertex
 10
419.337890625
 20
13.087890625
 30
0.0
  0
VERTEX
  5
404
330
402
100
AcDbEntity
  8
Ebene 1
370
     0
100
AcDbVertex
100
AcDb2dVertex
 10
419.337890625
 20
2.279296875
 30
0.0
  0
SEQEND
  5
405
330
402
100
AcDbEntity
  8
Ebene 1
370
     0
  0
POLYLINE
  5
406
330
3C
100
AcDbEntity
  8
Ebene 1
370
     0
100
AcDb2dPolyline
 66
     1
 10
0.0
 20
0.0
 30
0.0
  0
VERTEX
  5
407
330
406
100
AcDbEntity
  8
Ebene 1
370
     0
100
AcDbVertex
100
AcDb2dVertex
 10
491.3828125
 20
2.279296875
 30
0.0
  0
VERTEX
  5
408
330
406
100
AcDbEntity
  8
Ebene 1
370
     0
100
AcDbVertex
100
AcDb2dVertex
 10
491.3828125
 20
13.087890625
 30
0.0
  0
VERTEX
  5
409
330
406
100
AcDbEntity
  8
Ebene 1
370
     0
100
AcDbVertex
100
AcDb2dVertex
 10
419.337890625
 20
13.087890625
 30
0.0
  0
SEQEND
  5
40A
330
406
100
AcDbEntity
  8
Ebene 1
370
     0
  0
POLYLINE
  5
40B
330
3C
100
AcDbEntity
  8
Ebene 1
370
     0
100
AcDb2dPolyline
 66
     1
 10
0.0
 20
0.0
 30
0.0
  0
VERTEX
  5
40C
330
40B
100
AcDbEntity
  8
Ebene 1
370
     0
100
AcDbVertex
100
AcDb2dVertex
 10
419.337890625
 20
2.279296875
 30
0.0
  0
VERTEX
  5
40D
330
40B
100
AcDbEntity
  8
Ebene 1
370
     0
100
AcDbVertex
100
AcDb2dVertex
 10
491.3828125
 20
2.279296875
 30
0.0
  0
SEQEND
  5
40E
330
40B
100
AcDbEntity
  8
Ebene 1
370
     0
  0
POLYLINE
  5
40F
330
3C
100
AcDbEntity
  8
Ebene 1
370
     0
100
AcDb2dPolyline
 66
     1
 10
0.0
 20
0.0
 30
0.0
  0
VERTEX
  5
410
330
40F
100
AcDbEntity
  8
Ebene 1
370
     0
100
AcDbVertex
100
AcDb2dVertex
 10
401.2939453125
 20
81.603515625
 30
0.0
  0
VERTEX
  5
411
330
40F
100
AcDbEntity
  8
Ebene 1
370
     0
100
AcDbVertex
100
AcDb2dVertex
 10
401.2939453125
 20
92.412109375
 30
0.0
  0
SEQEND
  5
412
330
40F
100
AcDbEntity
  8
Ebene 1
370
     0
  0
POLYLINE
  5
413
330
3C
100
AcDbEntity
  8
Ebene 1
370
     0
100
AcDb2dPolyline
 66
     1
 10
0.0
 20
0.0
 30
0.0
  0
VERTEX
  5
414
330
413
100
AcDbEntity
  8
Ebene 1
370
     0
100
AcDbVertex
100
AcDb2dVertex
 10
419.337890625
 20
81.603515625
 30
0.0
  0
VERTEX
  5
415
330
413
100
AcDbEntity
  8
Ebene 1
370
     0
100
AcDbVertex
100
AcDb2dVertex
 10
401.2939453125
 20
81.603515625
 30
0.0
  0
SEQEND
  5
416
330
413
100
AcDbEntity
  8
Ebene 1
370
     0
  0
POLYLINE
  5
417
330
3C
100
AcDbEntity
  8
Ebene 1
370
     0
100
AcDb2dPolyline
 66
     1
 10
0.0
 20
0.0
 30
0.0
  0
VERTEX
  5
418
330
417
100
AcDbEntity
  8
Ebene 1
370
     0
100
AcDbVertex
100
AcDb2dVertex
 10
401.2939453125
 20
2.279296875
 30
0.0
  0
VERTEX
  5
419
330
417
100
AcDbEntity
  8
Ebene 1
370
     0
100
AcDbVertex
100
AcDb2dVertex
 10
401.2939453125
 20
13.087890625
 30
0.0
  0
VERTEX
  5
41A
330
417
100
AcDbEntity
  8
Ebene 1
370
     0
100
AcDbVertex
100
AcDb2dVertex
 10
419.337890625
 20
13.087890625
 30
0.0
  0
SEQEND
  5
41B
330
417
100
AcDbEntity
  8
Ebene 1
370
     0
  0
POLYLINE
  5
41C
330
3C
100
AcDbEntity
  8
Ebene 1
370
     0
100
AcDb2dPolyline
 66
     1
 10
0.0
 20
0.0
 30
0.0
  0
VERTEX
  5
41D
330
41C
100
AcDbEntity
  8
Ebene 1
370
     0
100
AcDbVertex
100
AcDb2dVertex
 10
419.337890625
 20
2.279296875
 30
0.0
  0
VERTEX
  5
41E
330
41C
100
AcDbEntity
  8
Ebene 1
370
     0
100
AcDbVertex
100
AcDb2dVertex
 10
401.2939453125
 20
2.279296875
 30
0.0
  0
SEQEND
  5
41F
330
41C
100
AcDbEntity
  8
Ebene 1
370
     0
  0
POLYLINE
  5
420
330
3C
100
AcDbEntity
  8
Ebene 1
370
     0
100
AcDb2dPolyline
 66
     1
 10
0.0
 20
0.0
 30
0.0
  0
VERTEX
  5
421
330
420
100
AcDbEntity
  8
Ebene 1
370
     0
100
AcDbVertex
100
AcDb2dVertex
 10
401.2939453125
 20
13.087890625
 30
0.0
  0
VERTEX
  5
422
330
420
100
AcDbEntity
  8
Ebene 1
370
     0
100
AcDbVertex
100
AcDb2dVertex
 10
401.2939453125
 20
14.8974609375
 30
0.0
  0
SEQEND
  5
423
330
420
100
AcDbEntity
  8
Ebene 1
370
     0
  0
POLYLINE
  5
424
330
3C
100
AcDbEntity
  8
Ebene 1
370
     0
100
AcDb2dPolyline
 66
     1
 10
0.0
 20
0.0
 30
0.0
  0
VERTEX
  5
425
330
424
100
AcDbEntity
  8
Ebene 1
370
     0
100
AcDbVertex
100
AcDb2dVertex
 10
401.2939453125
 20
79.7939453125
 30
0.0
  0
VERTEX
  5
426
330
424
100
AcDbEntity
  8
Ebene 1
370
     0
100
AcDbVertex
100
AcDb2dVertex
 10
401.2939453125
 20
81.603515625
 30
0.0
  0
SEQEND
  5
427
330
424
100
AcDbEntity
  8
Ebene 1
370
     0
  0
POLYLINE
  5
428
330
3C
100
AcDbEntity
  8
Ebene 1
370
     0
100
AcDb2dPolyline
 66
     1
 10
0.0
 20
0.0
 30
0.0
  0
VERTEX
  5
429
330
428
100
AcDbEntity
  8
Ebene 1
370
     0
100
AcDbVertex
100
AcDb2dVertex
 10
491.82421875
 20
61.44140625
 30
0.0
  0
VERTEX
  5
42A
330
428
100
AcDbEntity
  8
Ebene 1
370
     0
100
AcDbVertex
100
AcDb2dVertex
 10
478.6328125
 20
61.44140625
 30
0.0
  0
VERTEX
  5
42B
330
428
100
AcDbEntity
  8
Ebene 1
370
     0
100
AcDbVertex
100
AcDb2dVertex
 10
474.0439453125
 20
61.44140625
 30
0.0
  0
VERTEX
  5
42C
330
428
100
AcDbEntity
  8
Ebene 1
370
     0
100
AcDbVertex
100
AcDb2dVertex
 10
472.7646484375
 20
61.44140625
 30
0.0
  0
VERTEX
  5
42D
330
428
100
AcDbEntity
  8
Ebene 1
370
     0
100
AcDbVertex
100
AcDb2dVertex
 10
472.67578125
 20
61.44140625
 30
0.0
  0
SEQEND
  5
42E
330
428
100
AcDbEntity
  8
Ebene 1
370
     0
  0
POLYLINE
  5
42F
330
3C
100
AcDbEntity
  8
Ebene 1
370
     0
100
AcDb2dPolyline
 66
     1
 10
0.0
 20
0.0
 30
0.0
  0
VERTEX
  5
430
330
42F
100
AcDbEntity
  8
Ebene 1
370
     0
100
AcDbVertex
100
AcDb2dVertex
 10
472.67578125
 20
47.5439453125
 30
0.0
  0
VERTEX
  5
431
330
42F
100
AcDbEntity
  8
Ebene 1
370
     0
100
AcDbVertex
100
AcDb2dVertex
 10
472.720703125
 20
47.5439453125
 30
0.0
  0
VERTEX
  5
432
330
42F
100
AcDbEntity
  8
Ebene 1
370
     0
100
AcDbVertex
100
AcDb2dVertex
 10
473.912109375
 20
47.5439453125
 30
0.0
  0
VERTEX
  5
433
330
42F
100
AcDbEntity
  8
Ebene 1
370
     0
100
AcDbVertex
100
AcDb2dVertex
 10
478.19140625
 20
47.5439453125
 30
0.0
  0
VERTEX
  5
434
330
42F
100
AcDbEntity
  8
Ebene 1
370
     0
100
AcDbVertex
100
AcDb2dVertex
 10
490.853515625
 20
47.5439453125
 30
0.0
  0
SEQEND
  5
435
330
42F
100
AcDbEntity
  8
Ebene 1
370
     0
  0
POLYLINE
  5
436
330
3C
100
AcDbEntity
  8
Ebene 1
370
     0
100
AcDb2dPolyline
 66
     1
 10
0.0
 20
0.0
 30
0.0
  0
VERTEX
  5
437
330
436
100
AcDbEntity
  8
Ebene 1
370
     0
100
AcDbVertex
100
AcDb2dVertex
 10
490.853515625
 20
47.19140625
 30
0.0
  0
VERTEX
  5
438
330
436
100
AcDbEntity
  8
Ebene 1
370
     0
100
AcDbVertex
100
AcDb2dVertex
 10
478.19140625
 20
47.19140625
 30
0.0
  0
VERTEX
  5
439
330
436
100
AcDbEntity
  8
Ebene 1
370
     0
100
AcDbVertex
100
AcDb2dVertex
 10
473.912109375
 20
47.19140625
 30
0.0
  0
VERTEX
  5
43A
330
436
100
AcDbEntity
  8
Ebene 1
370
     0
100
AcDbVertex
100
AcDb2dVertex
 10
472.720703125
 20
47.19140625
 30
0.0
  0
VERTEX
  5
43B
330
436
100
AcDbEntity
  8
Ebene 1
370
     0
100
AcDbVertex
100
AcDb2dVertex
 10
472.67578125
 20
47.19140625
 30
0.0
  0
SEQEND
  5
43C
330
436
100
AcDbEntity
  8
Ebene 1
370
     0
  0
POLYLINE
  5
43D
330
3C
100
AcDbEntity
  8
Ebene 1
370
     0
100
AcDb2dPolyline
 66
     1
 10
0.0
 20
0.0
 30
0.0
  0
VERTEX
  5
43E
330
43D
100
AcDbEntity
  8
Ebene 1
370
     0
100
AcDbVertex
100
AcDb2dVertex
 10
472.67578125
 20
33.2939453125
 30
0.0
  0
VERTEX
  5
43F
330
43D
100
AcDbEntity
  8
Ebene 1
370
     0
100
AcDbVertex
100
AcDb2dVertex
 10
472.853515625
 20
33.2939453125
 30
0.0
  0
VERTEX
  5
440
330
43D
100
AcDbEntity
  8
Ebene 1
370
     0
100
AcDbVertex
100
AcDb2dVertex
 10
474.529296875
 20
33.2939453125
 30
0.0
  0
VERTEX
  5
441
330
43D
100
AcDbEntity
  8
Ebene 1
370
     0
100
AcDbVertex
100
AcDb2dVertex
 10
477.0
 20
33.2939453125
 30
0.0
  0
VERTEX
  5
442
330
43D
100
AcDbEntity
  8
Ebene 1
370
     0
100
AcDbVertex
100
AcDb2dVertex
 10
480.1328125
 20
33.2939453125
 30
0.0
  0
VERTEX
  5
443
330
43D
100
AcDbEntity
  8
Ebene 1
370
     0
100
AcDbVertex
100
AcDb2dVertex
 10
487.67578125
 20
33.2939453125
 30
0.0
  0
VERTEX
  5
444
330
43D
100
AcDbEntity
  8
Ebene 1
370
     0
100
AcDbVertex
100
AcDb2dVertex
 10
495.0
 20
33.2939453125
 30
0.0
  0
SEQEND
  5
445
330
43D
100
AcDbEntity
  8
Ebene 1
370
     0
  0
POLYLINE
  5
446
330
3C
100
AcDbEntity
  8
Ebene 1
370
     0
100
AcDb2dPolyline
 66
     1
 10
0.0
 20
0.0
 30
0.0
  0
VERTEX
  5
447
330
446
100
AcDbEntity
  8
Ebene 1
370
     0
100
AcDbVertex
100
AcDb2dVertex
 10
480.0
 20
17.5
 30
0.0
  0
VERTEX
  5
448
330
446
100
AcDbEntity
  8
Ebene 1
370
     0
100
AcDbVertex
100
AcDb2dVertex
 10
481.896484375
 20
17.0146484375
 30
0.0
  0
VERTEX
  5
449
330
446
100
AcDbEntity
  8
Ebene 1
370
     0
100
AcDbVertex
100
AcDb2dVertex
 10
484.7646484375
 20
16.9267578125
 30
0.0
  0
VERTEX
  5
44A
330
446
100
AcDbEntity
  8
Ebene 1
370
     0
100
AcDbVertex
100
AcDb2dVertex
 10
490.9853515625
 20
17.5
 30
0.0
  0
SEQEND
  5
44B
330
446
100
AcDbEntity
  8
Ebene 1
370
     0
  0
POLYLINE
  5
44C
330
3C
100
AcDbEntity
  8
Ebene 1
370
     0
100
AcDb2dPolyline
 66
     1
 10
0.0
 20
0.0
 30
0.0
  0
VERTEX
  5
44D
330
44C
100
AcDbEntity
  8
Ebene 1
370
     0
100
AcDbVertex
100
AcDb2dVertex
 10
480.0
 20
17.5
 30
0.0
  0
VERTEX
  5
44E
330
44C
100
AcDbEntity
  8
Ebene 1
370
     0
100
AcDbVertex
100
AcDb2dVertex
 10
480.0439453125
 20
17.6767578125
 30
0.0
  0
SEQEND
  5
44F
330
44C
100
AcDbEntity
  8
Ebene 1
370
     0
  0
POLYLINE
  5
450
330
3C
100
AcDbEntity
  8
Ebene 1
370
     0
100
AcDb2dPolyline
 66
     1
 10
0.0
 20
0.0
 30
0.0
  0
VERTEX
  5
451
330
450
100
AcDbEntity
  8
Ebene 1
370
     0
100
AcDbVertex
100
AcDb2dVertex
 10
490.896484375
 20
17.6767578125
 30
0.0
  0
VERTEX
  5
452
330
450
100
AcDbEntity
  8
Ebene 1
370
     0
100
AcDbVertex
100
AcDb2dVertex
 10
484.853515625
 20
17.5
 30
0.0
  0
VERTEX
  5
453
330
450
100
AcDbEntity
  8
Ebene 1
370
     0
100
AcDbVertex
100
AcDb2dVertex
 10
482.07421875
 20
17.5439453125
 30
0.0
  0
VERTEX
  5
454
330
450
100
AcDbEntity
  8
Ebene 1
370
     0
100
AcDbVertex
100
AcDb2dVertex
 10
480.0439453125
 20
17.6767578125
 30
0.0
  0
SEQEND
  5
455
330
450
100
AcDbEntity
  8
Ebene 1
370
     0
  0
POLYLINE
  5
456
330
3C
100
AcDbEntity
  8
Ebene 1
370
     0
100
AcDb2dPolyline
 66
     1
 10
0.0
 20
0.0
 30
0.0
  0
VERTEX
  5
457
330
456
100
AcDbEntity
  8
Ebene 1
370
     0
100
AcDbVertex
100
AcDb2dVertex
 10
490.896484375
 20
17.6767578125
 30
0.0
  0
VERTEX
  5
458
330
456
100
AcDbEntity
  8
Ebene 1
370
     0
100
AcDbVertex
100
AcDb2dVertex
 10
490.9853515625
 20
17.5
 30
0.0
  0
SEQEND
  5
459
330
456
100
AcDbEntity
  8
Ebene 1
370
     0
  0
POLYLINE
  5
45A
330
3C
100
AcDbEntity
  8
Ebene 1
370
     0
100
AcDb2dPolyline
 66
     1
 10
0.0
 20
0.0
 30
0.0
  0
VERTEX
  5
45B
330
45A
100
AcDbEntity
  8
Ebene 1
370
     0
100
AcDbVertex
100
AcDb2dVertex
 10
480.8828125
 20
13.7939453125
 30
0.0
  0
VERTEX
  5
45C
330
45A
100
AcDbEntity
  8
Ebene 1
370
     0
100
AcDbVertex
100
AcDb2dVertex
 10
482.470703125
 20
14.412109375
 30
0.0
  0
VERTEX
  5
45D
330
45A
100
AcDbEntity
  8
Ebene 1
370
     0
100
AcDbVertex
100
AcDb2dVertex
 10
484.94140625
 20
14.6328125
 30
0.0
  0
VERTEX
  5
45E
330
45A
100
AcDbEntity
  8
Ebene 1
370
     0
100
AcDbVertex
100
AcDb2dVertex
 10
490.2353515625
 20
13.7939453125
 30
0.0
  0
SEQEND
  5
45F
330
45A
100
AcDbEntity
  8
Ebene 1
370
     0
  0
POLYLINE
  5
460
330
3C
100
AcDbEntity
  8
Ebene 1
370
     0
100
AcDb2dPolyline
 66
     1
 10
0.0
 20
0.0
 30
0.0
  0
VERTEX
  5
461
330
460
100
AcDbEntity
  8
Ebene 1
370
     0
100
AcDbVertex
100
AcDb2dVertex
 10
480.0
 20
14.80859375
 30
0.0
  0
VERTEX
  5
462
330
460
100
AcDbEntity
  8
Ebene 1
370
     0
100
AcDbVertex
100
AcDb2dVertex
 10
480.1328125
 20
14.3671875
 30
0.0
  0
VERTEX
  5
463
330
460
100
AcDbEntity
  8
Ebene 1
370
     0
100
AcDbVertex
100
AcDb2dVertex
 10
480.44140625
 20
14.0146484375
 30
0.0
  0
VERTEX
  5
464
330
460
100
AcDbEntity
  8
Ebene 1
370
     0
100
AcDbVertex
100
AcDb2dVertex
 10
480.8828125
 20
13.837890625
 30
0.0
  0
SEQEND
  5
465
330
460
100
AcDbEntity
  8
Ebene 1
370
     0
  0
POLYLINE
  5
466
330
3C
100
AcDbEntity
  8
Ebene 1
370
     0
100
AcDb2dPolyline
 66
     1
 10
0.0
 20
0.0
 30
0.0
  0
VERTEX
  5
467
330
466
100
AcDbEntity
  8
Ebene 1
370
     0
100
AcDbVertex
100
AcDb2dVertex
 10
480.0
 20
14.80859375
 30
0.0
  0
VERTEX
  5
468
330
466
100
AcDbEntity
  8
Ebene 1
370
     0
100
AcDbVertex
100
AcDb2dVertex
 10
481.896484375
 20
15.4267578125
 30
0.0
  0
VERTEX
  5
469
330
466
100
AcDbEntity
  8
Ebene 1
370
     0
100
AcDbVertex
100
AcDb2dVertex
 10
484.7646484375
 20
15.69140625
 30
0.0
  0
VERTEX
  5
46A
330
466
100
AcDbEntity
  8
Ebene 1
370
     0
100
AcDbVertex
100
AcDb2dVertex
 10
490.9853515625
 20
14.80859375
 30
0.0
  0
SEQEND
  5
46B
330
466
100
AcDbEntity
  8
Ebene 1
370
     0
  0
POLYLINE
  5
46C
330
3C
100
AcDbEntity
  8
Ebene 1
370
     0
100
AcDb2dPolyline
 66
     1
 10
0.0
 20
0.0
 30
0.0
  0
VERTEX
  5
46D
330
46C
100
AcDbEntity
  8
Ebene 1
370
     0
100
AcDbVertex
100
AcDb2dVertex
 10
490.2353515625
 20
13.7939453125
 30
0.0
  0
VERTEX
  5
46E
330
46C
100
AcDbEntity
  8
Ebene 1
370
     0
100
AcDbVertex
100
AcDb2dVertex
 10
490.587890625
 20
14.05859375
 30
0.0
  0
VERTEX
  5
46F
330
46C
100
AcDbEntity
  8
Ebene 1
370
     0
100
AcDbVertex
100
AcDb2dVertex
 10
490.853515625
 20
14.412109375
 30
0.0
  0
VERTEX
  5
470
330
46C
100
AcDbEntity
  8
Ebene 1
370
     0
100
AcDbVertex
100
AcDb2dVertex
 10
490.9853515625
 20
14.80859375
 30
0.0
  0
SEQEND
  5
471
330
46C
100
AcDbEntity
  8
Ebene 1
370
     0
  0
POLYLINE
  5
472
330
3C
100
AcDbEntity
  8
Ebene 1
370
     0
100
AcDb2dPolyline
 66
     1
 10
0.0
 20
0.0
 30
0.0
  0
VERTEX
  5
473
330
472
100
AcDbEntity
  8
Ebene 1
370
     0
100
AcDbVertex
100
AcDb2dVertex
 10
-165.0
 20
-1043.1328125
 30
0.0
  0
VERTEX
  5
474
330
472
100
AcDbEntity
  8
Ebene 1
370
     0
100
AcDbVertex
100
AcDb2dVertex
 10
-165.0
 20
-1043.1328125
 30
0.0
  0
SEQEND
  5
475
330
472
100
AcDbEntity
  8
Ebene 1
370
     0
  0
POLYLINE
  5
476
330
3C
100
AcDbEntity
  8
Ebene 1
370
     0
100
AcDb2dPolyline
 66
     1
 10
0.0
 20
0.0
 30
0.0
  0
VERTEX
  5
477
330
476
100
AcDbEntity
  8
Ebene 1
370
     0
100
AcDbVertex
100
AcDb2dVertex
 10
491.603515625
 20
14.587890625
 30
0.0
  0
VERTEX
  5
478
330
476
100
AcDbEntity
  8
Ebene 1
370
     0
100
AcDbVertex
100
AcDb2dVertex
 10
491.8671875
 20
14.5439453125
 30
0.0
  0
SEQEND
  5
479
330
476
100
AcDbEntity
  8
Ebene 1
370
     0
  0
POLYLINE
  5
47A
330
3C
100
AcDbEntity
  8
Ebene 1
370
     0
100
AcDb2dPolyline
 66
     1
 10
0.0
 20
0.0
 30
0.0
  0
VERTEX
  5
47B
330
47A
100
AcDbEntity
  8
Ebene 1
370
     0
100
AcDbVertex
100
AcDb2dVertex
 10
491.55859375
 20
14.587890625
 30
0.0
  0
VERTEX
  5
47C
330
47A
100
AcDbEntity
  8
Ebene 1
370
     0
100
AcDbVertex
100
AcDb2dVertex
 10
491.603515625
 20
14.587890625
 30
0.0
  0
SEQEND
  5
47D
330
47A
100
AcDbEntity
  8
Ebene 1
370
     0
  0
POLYLINE
  5
47E
330
3C
100
AcDbEntity
  8
Ebene 1
370
     0
100
AcDb2dPolyline
 66
     1
 10
0.0
 20
0.0
 30
0.0
  0
VERTEX
  5
47F
330
47E
100
AcDbEntity
  8
Ebene 1
370
     0
100
AcDbVertex
100
AcDb2dVertex
 10
491.55859375
 20
17.80859375
 30
0.0
  0
VERTEX
  5
480
330
47E
100
AcDbEntity
  8
Ebene 1
370
     0
100
AcDbVertex
100
AcDb2dVertex
 10
491.55859375
 20
14.587890625
 30
0.0
  0
SEQEND
  5
481
330
47E
100
AcDbEntity
  8
Ebene 1
370
     0
  0
POLYLINE
  5
482
330
3C
100
AcDbEntity
  8
Ebene 1
370
     0
100
AcDb2dPolyline
 66
     1
 10
0.0
 20
0.0
 30
0.0
  0
VERTEX
  5
483
330
482
100
AcDbEntity
  8
Ebene 1
370
     0
100
AcDbVertex
100
AcDb2dVertex
 10
479.69140625
 20
17.80859375
 30
0.0
  0
VERTEX
  5
484
330
482
100
AcDbEntity
  8
Ebene 1
370
     0
100
AcDbVertex
100
AcDb2dVertex
 10
491.55859375
 20
17.80859375
 30
0.0
  0
SEQEND
  5
485
330
482
100
AcDbEntity
  8
Ebene 1
370
     0
  0
POLYLINE
  5
486
330
3C
100
AcDbEntity
  8
Ebene 1
370
     0
100
AcDb2dPolyline
 66
     1
 10
0.0
 20
0.0
 30
0.0
  0
VERTEX
  5
487
330
486
100
AcDbEntity
  8
Ebene 1
370
     0
100
AcDbVertex
100
AcDb2dVertex
 10
479.69140625
 20
14.587890625
 30
0.0
  0
VERTEX
  5
488
330
486
100
AcDbEntity
  8
Ebene 1
370
     0
100
AcDbVertex
100
AcDb2dVertex
 10
479.69140625
 20
17.80859375
 30
0.0
  0
SEQEND
  5
489
330
486
100
AcDbEntity
  8
Ebene 1
370
     0
  0
POLYLINE
  5
48A
330
3C
100
AcDbEntity
  8
Ebene 1
370
     0
100
AcDb2dPolyline
 66
     1
 10
0.0
 20
0.0
 30
0.0
  0
VERTEX
  5
48B
330
48A
100
AcDbEntity
  8
Ebene 1
370
     0
100
AcDbVertex
100
AcDb2dVertex
 10
479.5146484375
 20
14.5439453125
 30
0.0
  0
VERTEX
  5
48C
330
48A
100
AcDbEntity
  8
Ebene 1
370
     0
100
AcDbVertex
100
AcDb2dVertex
 10
479.69140625
 20
14.587890625
 30
0.0
  0
SEQEND
  5
48D
330
48A
100
AcDbEntity
  8
Ebene 1
370
     0
  0
POLYLINE
  5
48E
330
3C
100
AcDbEntity
  8
Ebene 1
370
     0
100
AcDb2dPolyline
 66
     1
 10
0.0
 20
0.0
 30
0.0
  0
VERTEX
  5
48F
330
48E
100
AcDbEntity
  8
Ebene 1
370
     0
100
AcDbVertex
100
AcDb2dVertex
 10
490.9853515625
 20
14.80859375
 30
0.0
  0
VERTEX
  5
490
330
48E
100
AcDbEntity
  8
Ebene 1
370
     0
100
AcDbVertex
100
AcDb2dVertex
 10
490.9853515625
 20
17.5
 30
0.0
  0
SEQEND
  5
491
330
48E
100
AcDbEntity
  8
Ebene 1
370
     0
  0
POLYLINE
  5
492
330
3C
100
AcDbEntity
  8
Ebene 1
370
     0
100
AcDb2dPolyline
 66
     1
 10
0.0
 20
0.0
 30
0.0
  0
VERTEX
  5
493
330
492
100
AcDbEntity
  8
Ebene 1
370
     0
100
AcDbVertex
100
AcDb2dVertex
 10
480.0
 20
17.5
 30
0.0
  0
VERTEX
  5
494
330
492
100
AcDbEntity
  8
Ebene 1
370
     0
100
AcDbVertex
100
AcDb2dVertex
 10
480.0
 20
14.80859375
 30
0.0
  0
SEQEND
  5
495
330
492
100
AcDbEntity
  8
Ebene 1
370
     0
  0
POLYLINE
  5
496
330
3C
100
AcDbEntity
  8
Ebene 1
370
     0
100
AcDb2dPolyline
 66
     1
 10
0.0
 20
0.0
 30
0.0
  0
VERTEX
  5
497
330
496
100
AcDbEntity
  8
Ebene 1
370
     0
100
AcDbVertex
100
AcDb2dVertex
 10
491.55859375
 20
17.80859375
 30
0.0
  0
VERTEX
  5
498
330
496
100
AcDbEntity
  8
Ebene 1
370
     0
100
AcDbVertex
100
AcDb2dVertex
 10
490.896484375
 20
17.6767578125
 30
0.0
  0
SEQEND
  5
499
330
496
100
AcDbEntity
  8
Ebene 1
370
     0
  0
POLYLINE
  5
49A
330
3C
100
AcDbEntity
  8
Ebene 1
370
     0
100
AcDb2dPolyline
 66
     1
 10
0.0
 20
0.0
 30
0.0
  0
VERTEX
  5
49B
330
49A
100
AcDbEntity
  8
Ebene 1
370
     0
100
AcDbVertex
100
AcDb2dVertex
 10
480.0439453125
 20
17.6767578125
 30
0.0
  0
VERTEX
  5
49C
330
49A
100
AcDbEntity
  8
Ebene 1
370
     0
100
AcDbVertex
100
AcDb2dVertex
 10
479.69140625
 20
17.80859375
 30
0.0
  0
SEQEND
  5
49D
330
49A
100
AcDbEntity
  8
Ebene 1
370
     0
  0
POLYLINE
  5
49E
330
3C
100
AcDbEntity
  8
Ebene 1
370
     0
100
AcDb2dPolyline
 66
     1
 10
0.0
 20
0.0
 30
0.0
  0
VERTEX
  5
49F
330
49E
100
AcDbEntity
  8
Ebene 1
370
     0
100
AcDbVertex
100
AcDb2dVertex
 10
490.2353515625
 20
13.7939453125
 30
0.0
  0
VERTEX
  5
4A0
330
49E
100
AcDbEntity
  8
Ebene 1
370
     0
100
AcDbVertex
100
AcDb2dVertex
 10
490.853515625
 20
13.5732421875
 30
0.0
  0
VERTEX
  5
4A1
330
49E
100
AcDbEntity
  8
Ebene 1
370
     0
100
AcDbVertex
100
AcDb2dVertex
 10
480.57421875
 20
13.5732421875
 30
0.0
  0
VERTEX
  5
4A2
330
49E
100
AcDbEntity
  8
Ebene 1
370
     0
100
AcDbVertex
100
AcDb2dVertex
 10
480.8828125
 20
13.7939453125
 30
0.0
  0
SEQEND
  5
4A3
330
49E
100
AcDbEntity
  8
Ebene 1
370
     0
  0
POLYLINE
  5
4A4
330
3C
100
AcDbEntity
  8
Ebene 1
370
     0
100
AcDb2dPolyline
 66
     1
 10
0.0
 20
0.0
 30
0.0
  0
VERTEX
  5
4A5
330
4A4
100
AcDbEntity
  8
Ebene 1
370
     0
100
AcDbVertex
100
AcDb2dVertex
 10
491.55859375
 20
14.587890625
 30
0.0
  0
VERTEX
  5
4A6
330
4A4
100
AcDbEntity
  8
Ebene 1
370
     0
100
AcDbVertex
100
AcDb2dVertex
 10
490.9853515625
 20
14.80859375
 30
0.0
  0
SEQEND
  5
4A7
330
4A4
100
AcDbEntity
  8
Ebene 1
370
     0
  0
POLYLINE
  5
4A8
330
3C
100
AcDbEntity
  8
Ebene 1
370
     0
100
AcDb2dPolyline
 66
     1
 10
0.0
 20
0.0
 30
0.0
  0
VERTEX
  5
4A9
330
4A8
100
AcDbEntity
  8
Ebene 1
370
     0
100
AcDbVertex
100
AcDb2dVertex
 10
490.853515625
 20
13.6171875
 30
0.0
  0
VERTEX
  5
4AA
330
4A8
100
AcDbEntity
  8
Ebene 1
370
     0
100
AcDbVertex
100
AcDb2dVertex
 10
491.162109375
 20
13.837890625
 30
0.0
  0
VERTEX
  5
4AB
330
4A8
100
AcDbEntity
  8
Ebene 1
370
     0
100
AcDbVertex
100
AcDb2dVertex
 10
491.42578125
 20
14.19140625
 30
0.0
  0
VERTEX
  5
4AC
330
4A8
100
AcDbEntity
  8
Ebene 1
370
     0
100
AcDbVertex
100
AcDb2dVertex
 10
491.55859375
 20
14.587890625
 30
0.0
  0
SEQEND
  5
4AD
330
4A8
100
AcDbEntity
  8
Ebene 1
370
     0
  0
POLYLINE
  5
4AE
330
3C
100
AcDbEntity
  8
Ebene 1
370
     0
100
AcDb2dPolyline
 66
     1
 10
0.0
 20
0.0
 30
0.0
  0
VERTEX
  5
4AF
330
4AE
100
AcDbEntity
  8
Ebene 1
370
     0
100
AcDbVertex
100
AcDb2dVertex
 10
490.9853515625
 20
17.5
 30
0.0
  0
VERTEX
  5
4B0
330
4AE
100
AcDbEntity
  8
Ebene 1
370
     0
100
AcDbVertex
100
AcDb2dVertex
 10
491.55859375
 20
17.80859375
 30
0.0
  0
SEQEND
  5
4B1
330
4AE
100
AcDbEntity
  8
Ebene 1
370
     0
  0
POLYLINE
  5
4B2
330
3C
100
AcDbEntity
  8
Ebene 1
370
     0
100
AcDb2dPolyline
 66
     1
 10
0.0
 20
0.0
 30
0.0
  0
VERTEX
  5
4B3
330
4B2
100
AcDbEntity
  8
Ebene 1
370
     0
100
AcDbVertex
100
AcDb2dVertex
 10
491.2060546875
 20
13.4853515625
 30
0.0
  0
VERTEX
  5
4B4
330
4B2
100
AcDbEntity
  8
Ebene 1
370
     0
100
AcDbVertex
100
AcDb2dVertex
 10
490.853515625
 20
13.5732421875
 30
0.0
  0
SEQEND
  5
4B5
330
4B2
100
AcDbEntity
  8
Ebene 1
370
     0
  0
POLYLINE
  5
4B6
330
3C
100
AcDbEntity
  8
Ebene 1
370
     0
100
AcDb2dPolyline
 66
     1
 10
0.0
 20
0.0
 30
0.0
  0
VERTEX
  5
4B7
330
4B6
100
AcDbEntity
  8
Ebene 1
370
     0
100
AcDbVertex
100
AcDb2dVertex
 10
490.853515625
 20
13.6171875
 30
0.0
  0
VERTEX
  5
4B8
330
4B6
100
AcDbEntity
  8
Ebene 1
370
     0
100
AcDbVertex
100
AcDb2dVertex
 10
491.162109375
 20
13.837890625
 30
0.0
  0
VERTEX
  5
4B9
330
4B6
100
AcDbEntity
  8
Ebene 1
370
     0
100
AcDbVertex
100
AcDb2dVertex
 10
491.42578125
 20
14.19140625
 30
0.0
  0
VERTEX
  5
4BA
330
4B6
100
AcDbEntity
  8
Ebene 1
370
     0
100
AcDbVertex
100
AcDb2dVertex
 10
491.55859375
 20
14.587890625
 30
0.0
  0
SEQEND
  5
4BB
330
4B6
100
AcDbEntity
  8
Ebene 1
370
     0
  0
POLYLINE
  5
4BC
330
3C
100
AcDbEntity
  8
Ebene 1
370
     0
100
AcDb2dPolyline
 66
     1
 10
0.0
 20
0.0
 30
0.0
  0
VERTEX
  5
4BD
330
4BC
100
AcDbEntity
  8
Ebene 1
370
     0
100
AcDbVertex
100
AcDb2dVertex
 10
491.8671875
 20
14.5439453125
 30
0.0
  0
VERTEX
  5
4BE
330
4BC
100
AcDbEntity
  8
Ebene 1
370
     0
100
AcDbVertex
100
AcDb2dVertex
 10
491.8671875
 20
14.3232421875
 30
0.0
  0
VERTEX
  5
4BF
330
4BC
100
AcDbEntity
  8
Ebene 1
370
     0
100
AcDbVertex
100
AcDb2dVertex
 10
491.82421875
 20
14.1474609375
 30
0.0
  0
VERTEX
  5
4C0
330
4BC
100
AcDbEntity
  8
Ebene 1
370
     0
100
AcDbVertex
100
AcDb2dVertex
 10
491.779296875
 20
13.970703125
 30
0.0
  0
VERTEX
  5
4C1
330
4BC
100
AcDbEntity
  8
Ebene 1
370
     0
100
AcDbVertex
100
AcDb2dVertex
 10
491.69140625
 20
13.7939453125
 30
0.0
  0
VERTEX
  5
4C2
330
4BC
100
AcDbEntity
  8
Ebene 1
370
     0
100
AcDbVertex
100
AcDb2dVertex
 10
491.603515625
 20
13.662109375
 30
0.0
  0
VERTEX
  5
4C3
330
4BC
100
AcDbEntity
  8
Ebene 1
370
     0
100
AcDbVertex
100
AcDb2dVertex
 10
491.470703125
 20
13.5732421875
 30
0.0
  0
VERTEX
  5
4C4
330
4BC
100
AcDbEntity
  8
Ebene 1
370
     0
100
AcDbVertex
100
AcDb2dVertex
 10
491.337890625
 20
13.4853515625
 30
0.0
  0
VERTEX
  5
4C5
330
4BC
100
AcDbEntity
  8
Ebene 1
370
     0
100
AcDbVertex
100
AcDb2dVertex
 10
491.2060546875
 20
13.4853515625
 30
0.0
  0
SEQEND
  5
4C6
330
4BC
100
AcDbEntity
  8
Ebene 1
370
     0
  0
POLYLINE
  5
4C7
330
3C
100
AcDbEntity
  8
Ebene 1
370
     0
100
AcDb2dPolyline
 66
     1
 10
0.0
 20
0.0
 30
0.0
  0
VERTEX
  5
4C8
330
4C7
100
AcDbEntity
  8
Ebene 1
370
     0
100
AcDbVertex
100
AcDb2dVertex
 10
491.2060546875
 20
13.4853515625
 30
0.0
  0
VERTEX
  5
4C9
330
4C7
100
AcDbEntity
  8
Ebene 1
370
     0
100
AcDbVertex
100
AcDb2dVertex
 10
493.19140625
 20
13.4853515625
 30
0.0
  0
SEQEND
  5
4CA
330
4C7
100
AcDbEntity
  8
Ebene 1
370
     0
  0
POLYLINE
  5
4CB
330
3C
100
AcDbEntity
  8
Ebene 1
370
     0
100
AcDb2dPolyline
 66
     1
 10
0.0
 20
0.0
 30
0.0
  0
VERTEX
  5
4CC
330
4CB
100
AcDbEntity
  8
Ebene 1
370
     0
100
AcDbVertex
100
AcDb2dVertex
 10
480.57421875
 20
13.5732421875
 30
0.0
  0
VERTEX
  5
4CD
330
4CB
100
AcDbEntity
  8
Ebene 1
370
     0
100
AcDbVertex
100
AcDb2dVertex
 10
480.529296875
 20
13.4853515625
 30
0.0
  0
VERTEX
  5
4CE
330
4CB
100
AcDbEntity
  8
Ebene 1
370
     0
100
AcDbVertex
100
AcDb2dVertex
 10
491.2060546875
 20
13.4853515625
 30
0.0
  0
SEQEND
  5
4CF
330
4CB
100
AcDbEntity
  8
Ebene 1
370
     0
  0
POLYLINE
  5
4D0
330
3C
100
AcDbEntity
  8
Ebene 1
370
     0
100
AcDb2dPolyline
 66
     1
 10
0.0
 20
0.0
 30
0.0
  0
VERTEX
  5
4D1
330
4D0
100
AcDbEntity
  8
Ebene 1
370
     0
100
AcDbVertex
100
AcDb2dVertex
 10
479.69140625
 20
14.6328125
 30
0.0
  0
VERTEX
  5
4D2
330
4D0
100
AcDbEntity
  8
Ebene 1
370
     0
100
AcDbVertex
100
AcDb2dVertex
 10
479.8671875
 20
14.19140625
 30
0.0
  0
VERTEX
  5
4D3
330
4D0
100
AcDbEntity
  8
Ebene 1
370
     0
100
AcDbVertex
100
AcDb2dVertex
 10
480.17578125
 20
13.837890625
 30
0.0
  0
VERTEX
  5
4D4
330
4D0
100
AcDbEntity
  8
Ebene 1
370
     0
100
AcDbVertex
100
AcDb2dVertex
 10
480.57421875
 20
13.6171875
 30
0.0
  0
SEQEND
  5
4D5
330
4D0
100
AcDbEntity
  8
Ebene 1
370
     0
  0
POLYLINE
  5
4D6
330
3C
100
AcDbEntity
  8
Ebene 1
370
     0
100
AcDb2dPolyline
 66
     1
 10
0.0
 20
0.0
 30
0.0
  0
VERTEX
  5
4D7
330
4D6
100
AcDbEntity
  8
Ebene 1
370
     0
100
AcDbVertex
100
AcDb2dVertex
 10
480.0
 20
14.80859375
 30
0.0
  0
VERTEX
  5
4D8
330
4D6
100
AcDbEntity
  8
Ebene 1
370
     0
100
AcDbVertex
100
AcDb2dVertex
 10
479.69140625
 20
14.587890625
 30
0.0
  0
SEQEND
  5
4D9
330
4D6
100
AcDbEntity
  8
Ebene 1
370
     0
  0
POLYLINE
  5
4DA
330
3C
100
AcDbEntity
  8
Ebene 1
370
     0
100
AcDb2dPolyline
 66
     1
 10
0.0
 20
0.0
 30
0.0
  0
VERTEX
  5
4DB
330
4DA
100
AcDbEntity
  8
Ebene 1
370
     0
100
AcDbVertex
100
AcDb2dVertex
 10
479.69140625
 20
17.80859375
 30
0.0
  0
VERTEX
  5
4DC
330
4DA
100
AcDbEntity
  8
Ebene 1
370
     0
100
AcDbVertex
100
AcDb2dVertex
 10
480.0
 20
17.5
 30
0.0
  0
SEQEND
  5
4DD
330
4DA
100
AcDbEntity
  8
Ebene 1
370
     0
  0
POLYLINE
  5
4DE
330
3C
100
AcDbEntity
  8
Ebene 1
370
     0
100
AcDb2dPolyline
 66
     1
 10
0.0
 20
0.0
 30
0.0
  0
VERTEX
  5
4DF
330
4DE
100
AcDbEntity
  8
Ebene 1
370
     0
100
AcDbVertex
100
AcDb2dVertex
 10
479.55859375
 20
14.5439453125
 30
0.0
  0
VERTEX
  5
4E0
330
4DE
100
AcDbEntity
  8
Ebene 1
370
     0
100
AcDbVertex
100
AcDb2dVertex
 10
479.603515625
 20
14.1474609375
 30
0.0
  0
VERTEX
  5
4E1
330
4DE
100
AcDbEntity
  8
Ebene 1
370
     0
100
AcDbVertex
100
AcDb2dVertex
 10
479.82421875
 20
13.7939453125
 30
0.0
  0
VERTEX
  5
4E2
330
4DE
100
AcDbEntity
  8
Ebene 1
370
     0
100
AcDbVertex
100
AcDb2dVertex
 10
480.1328125
 20
13.5732421875
 30
0.0
  0
VERTEX
  5
4E3
330
4DE
100
AcDbEntity
  8
Ebene 1
370
     0
100
AcDbVertex
100
AcDb2dVertex
 10
480.529296875
 20
13.4853515625
 30
0.0
  0
SEQEND
  5
4E4
330
4DE
100
AcDbEntity
  8
Ebene 1
370
     0
  0
POLYLINE
  5
4E5
330
3C
100
AcDbEntity
  8
Ebene 1
370
     0
100
AcDb2dPolyline
 66
     1
 10
0.0
 20
0.0
 30
0.0
  0
VERTEX
  5
4E6
330
4E5
100
AcDbEntity
  8
Ebene 1
370
     0
100
AcDbVertex
100
AcDb2dVertex
 10
479.646484375
 20
14.587890625
 30
0.0
  0
VERTEX
  5
4E7
330
4E5
100
AcDbEntity
  8
Ebene 1
370
     0
100
AcDbVertex
100
AcDb2dVertex
 10
479.82421875
 20
14.1474609375
 30
0.0
  0
VERTEX
  5
4E8
330
4E5
100
AcDbEntity
  8
Ebene 1
370
     0
100
AcDbVertex
100
AcDb2dVertex
 10
480.1328125
 20
13.7939453125
 30
0.0
  0
VERTEX
  5
4E9
330
4E5
100
AcDbEntity
  8
Ebene 1
370
     0
100
AcDbVertex
100
AcDb2dVertex
 10
480.529296875
 20
13.5732421875
 30
0.0
  0
SEQEND
  5
4EA
330
4E5
100
AcDbEntity
  8
Ebene 1
370
     0
  0
POLYLINE
  5
4EB
330
3C
100
AcDbEntity
  8
Ebene 1
370
     0
100
AcDb2dPolyline
 66
     1
 10
0.0
 20
0.0
 30
0.0
  0
VERTEX
  5
4EC
330
4EB
100
AcDbEntity
  8
Ebene 1
370
     0
100
AcDbVertex
100
AcDb2dVertex
 10
463.3671875
 20
69.25
 30
0.0
  0
VERTEX
  5
4ED
330
4EB
100
AcDbEntity
  8
Ebene 1
370
     0
100
AcDbVertex
100
AcDb2dVertex
 10
463.3671875
 20
62.05859375
 30
0.0
  0
SEQEND
  5
4EE
330
4EB
100
AcDbEntity
  8
Ebene 1
370
     0
  0
POLYLINE
  5
4EF
330
3C
100
AcDbEntity
  8
Ebene 1
370
     0
100
AcDb2dPolyline
 66
     1
 10
0.0
 20
0.0
 30
0.0
  0
VERTEX
  5
4F0
330
4EF
100
AcDbEntity
  8
Ebene 1
370
     0
100
AcDbVertex
100
AcDb2dVertex
 10
491.8671875
 20
69.25
 30
0.0
  0
VERTEX
  5
4F1
330
4EF
100
AcDbEntity
  8
Ebene 1
370
     0
100
AcDbVertex
100
AcDb2dVertex
 10
463.3671875
 20
69.25
 30
0.0
  0
SEQEND
  5
4F2
330
4EF
100
AcDbEntity
  8
Ebene 1
370
     0
  0
POLYLINE
  5
4F3
330
3C
100
AcDbEntity
  8
Ebene 1
370
     0
100
AcDb2dPolyline
 66
     1
 10
0.0
 20
0.0
 30
0.0
  0
VERTEX
  5
4F4
330
4F3
100
AcDbEntity
  8
Ebene 1
370
     0
100
AcDbVertex
100
AcDb2dVertex
 10
463.3671875
 20
62.05859375
 30
0.0
  0
VERTEX
  5
4F5
330
4F3
100
AcDbEntity
  8
Ebene 1
370
     0
100
AcDbVertex
100
AcDb2dVertex
 10
491.8671875
 20
62.05859375
 30
0.0
  0
SEQEND
  5
4F6
330
4F3
100
AcDbEntity
  8
Ebene 1
370
     0
  0
POLYLINE
  5
4F7
330
3C
100
AcDbEntity
  8
Ebene 1
370
     0
100
AcDb2dPolyline
 66
     1
 10
0.0
 20
0.0
 30
0.0
  0
VERTEX
  5
4F8
330
4F7
100
AcDbEntity
  8
Ebene 1
370
     0
100
AcDbVertex
100
AcDb2dVertex
 10
463.3671875
 20
69.25
 30
0.0
  0
VERTEX
  5
4F9
330
4F7
100
AcDbEntity
  8
Ebene 1
370
     0
100
AcDbVertex
100
AcDb2dVertex
 10
461.5146484375
 20
69.25
 30
0.0
  0
SEQEND
  5
4FA
330
4F7
100
AcDbEntity
  8
Ebene 1
370
     0
  0
POLYLINE
  5
4FB
330
3C
100
AcDbEntity
  8
Ebene 1
370
     0
100
AcDb2dPolyline
 66
     1
 10
0.0
 20
0.0
 30
0.0
  0
VERTEX
  5
4FC
330
4FB
100
AcDbEntity
  8
Ebene 1
370
     0
100
AcDbVertex
100
AcDb2dVertex
 10
463.3671875
 20
62.05859375
 30
0.0
  0
VERTEX
  5
4FD
330
4FB
100
AcDbEntity
  8
Ebene 1
370
     0
100
AcDbVertex
100
AcDb2dVertex
 10
461.5146484375
 20
62.05859375
 30
0.0
  0
SEQEND
  5
4FE
330
4FB
100
AcDbEntity
  8
Ebene 1
370
     0
  0
POLYLINE
  5
4FF
330
3C
100
AcDbEntity
  8
Ebene 1
370
     0
100
AcDb2dPolyline
 66
     1
 10
0.0
 20
0.0
 30
0.0
  0
VERTEX
  5
500
330
4FF
100
AcDbEntity
  8
Ebene 1
370
     0
100
AcDbVertex
100
AcDb2dVertex
 10
463.3671875
 20
32.6767578125
 30
0.0
  0
VERTEX
  5
501
330
4FF
100
AcDbEntity
  8
Ebene 1
370
     0
100
AcDbVertex
100
AcDb2dVertex
 10
463.3671875
 20
25.44140625
 30
0.0
  0
SEQEND
  5
502
330
4FF
100
AcDbEntity
  8
Ebene 1
370
     0
  0
POLYLINE
  5
503
330
3C
100
AcDbEntity
  8
Ebene 1
370
     0
100
AcDb2dPolyline
 66
     1
 10
0.0
 20
0.0
 30
0.0
  0
VERTEX
  5
504
330
503
100
AcDbEntity
  8
Ebene 1
370
     0
100
AcDbVertex
100
AcDb2dVertex
 10
495.0
 20
32.6767578125
 30
0.0
  0
VERTEX
  5
505
330
503
100
AcDbEntity
  8
Ebene 1
370
     0
100
AcDbVertex
100
AcDb2dVertex
 10
463.3671875
 20
32.6767578125
 30
0.0
  0
SEQEND
  5
506
330
503
100
AcDbEntity
  8
Ebene 1
370
     0
  0
POLYLINE
  5
507
330
3C
100
AcDbEntity
  8
Ebene 1
370
     0
100
AcDb2dPolyline
 66
     1
 10
0.0
 20
0.0
 30
0.0
  0
VERTEX
  5
508
330
507
100
AcDbEntity
  8
Ebene 1
370
     0
100
AcDbVertex
100
AcDb2dVertex
 10
463.3671875
 20
25.44140625
 30
0.0
  0
VERTEX
  5
509
330
507
100
AcDbEntity
  8
Ebene 1
370
     0
100
AcDbVertex
100
AcDb2dVertex
 10
495.0
 20
25.44140625
 30
0.0
  0
SEQEND
  5
50A
330
507
100
AcDbEntity
  8
Ebene 1
370
     0
  0
POLYLINE
  5
50B
330
3C
100
AcDbEntity
  8
Ebene 1
370
     0
100
AcDb2dPolyline
 66
     1
 10
0.0
 20
0.0
 30
0.0
  0
VERTEX
  5
50C
330
50B
100
AcDbEntity
  8
Ebene 1
370
     0
100
AcDbVertex
100
AcDb2dVertex
 10
463.3671875
 20
32.6767578125
 30
0.0
  0
VERTEX
  5
50D
330
50B
100
AcDbEntity
  8
Ebene 1
370
     0
100
AcDbVertex
100
AcDb2dVertex
 10
461.5146484375
 20
32.6767578125
 30
0.0
  0
SEQEND
  5
50E
330
50B
100
AcDbEntity
  8
Ebene 1
370
     0
  0
POLYLINE
  5
50F
330
3C
100
AcDbEntity
  8
Ebene 1
370
     0
100
AcDb2dPolyline
 66
     1
 10
0.0
 20
0.0
 30
0.0
  0
VERTEX
  5
510
330
50F
100
AcDbEntity
  8
Ebene 1
370
     0
100
AcDbVertex
100
AcDb2dVertex
 10
463.3671875
 20
25.44140625
 30
0.0
  0
VERTEX
  5
511
330
50F
100
AcDbEntity
  8
Ebene 1
370
     0
100
AcDbVertex
100
AcDb2dVertex
 10
461.5146484375
 20
25.44140625
 30
0.0
  0
SEQEND
  5
512
330
50F
100
AcDbEntity
  8
Ebene 1
370
     0
  0
POLYLINE
  5
513
330
3C
100
AcDbEntity
  8
Ebene 1
370
     0
100
AcDb2dPolyline
 66
     1
 10
0.0
 20
0.0
 30
0.0
  0
VERTEX
  5
514
330
513
100
AcDbEntity
  8
Ebene 1
370
     0
100
AcDbVertex
100
AcDb2dVertex
 10
455.2939453125
 20
17.8974609375
 30
0.0
  0
VERTEX
  5
515
330
513
100
AcDbEntity
  8
Ebene 1
370
     0
100
AcDbVertex
100
AcDb2dVertex
 10
495.0
 20
17.8974609375
 30
0.0
  0
SEQEND
  5
516
330
513
100
AcDbEntity
  8
Ebene 1
370
     0
  0
POLYLINE
  5
517
330
3C
100
AcDbEntity
  8
Ebene 1
370
     0
100
AcDb2dPolyline
 66
     1
 10
0.0
 20
0.0
 30
0.0
  0
VERTEX
  5
518
330
517
100
AcDbEntity
  8
Ebene 1
370
     0
100
AcDbVertex
100
AcDb2dVertex
 10
495.0
 20
25.087890625
 30
0.0
  0
VERTEX
  5
519
330
517
100
AcDbEntity
  8
Ebene 1
370
     0
100
AcDbVertex
100
AcDb2dVertex
 10
455.337890625
 20
25.087890625
 30
0.0
  0
SEQEND
  5
51A
330
517
100
AcDbEntity
  8
Ebene 1
370
     0
  0
POLYLINE
  5
51B
330
3C
100
AcDbEntity
  8
Ebene 1
370
     0
100
AcDb2dPolyline
 66
     1
 10
0.0
 20
0.0
 30
0.0
  0
VERTEX
  5
51C
330
51B
100
AcDbEntity
  8
Ebene 1
370
     0
100
AcDbVertex
100
AcDb2dVertex
 10
455.337890625
 20
69.6025390625
 30
0.0
  0
VERTEX
  5
51D
330
51B
100
AcDbEntity
  8
Ebene 1
370
     0
100
AcDbVertex
100
AcDb2dVertex
 10
491.8671875
 20
69.6025390625
 30
0.0
  0
SEQEND
  5
51E
330
51B
100
AcDbEntity
  8
Ebene 1
370
     0
  0
POLYLINE
  5
51F
330
3C
100
AcDbEntity
  8
Ebene 1
370
     0
100
AcDb2dPolyline
 66
     1
 10
0.0
 20
0.0
 30
0.0
  0
VERTEX
  5
520
330
51F
100
AcDbEntity
  8
Ebene 1
370
     0
100
AcDbVertex
100
AcDb2dVertex
 10
495.0
 20
76.837890625
 30
0.0
  0
VERTEX
  5
521
330
51F
100
AcDbEntity
  8
Ebene 1
370
     0
100
AcDbVertex
100
AcDb2dVertex
 10
455.2939453125
 20
76.837890625
 30
0.0
  0
SEQEND
  5
522
330
51F
100
AcDbEntity
  8
Ebene 1
370
     0
  0
POLYLINE
  5
523
330
3C
100
AcDbEntity
  8
Ebene 1
370
     0
100
AcDb2dPolyline
 66
     1
 10
0.0
 20
0.0
 30
0.0
  0
VERTEX
  5
524
330
523
100
AcDbEntity
  8
Ebene 1
370
     0
100
AcDbVertex
100
AcDb2dVertex
 10
495.0
 20
81.603515625
 30
0.0
  0
VERTEX
  5
525
330
523
100
AcDbEntity
  8
Ebene 1
370
     0
100
AcDbVertex
100
AcDb2dVertex
 10
491.3828125
 20
81.603515625
 30
0.0
  0
SEQEND
  5
526
330
523
100
AcDbEntity
  8
Ebene 1
370
     0
  0
POLYLINE
  5
527
330
3C
100
AcDbEntity
  8
Ebene 1
370
     0
100
AcDb2dPolyline
 66
     1
 10
0.0
 20
0.0
 30
0.0
  0
VERTEX
  5
528
330
527
100
AcDbEntity
  8
Ebene 1
370
     0
100
AcDbVertex
100
AcDb2dVertex
 10
494.646484375
 20
40.44140625
 30
0.0
  0
VERTEX
  5
529
330
527
100
AcDbEntity
  8
Ebene 1
370
     0
100
AcDbVertex
100
AcDb2dVertex
 10
494.912109375
 20
40.44140625
 30
0.0
  0
SEQEND
  5
52A
330
527
100
AcDbEntity
  8
Ebene 1
370
     0
  0
POLYLINE
  5
52B
330
3C
100
AcDbEntity
  8
Ebene 1
370
     0
100
AcDb2dPolyline
 66
     1
 10
0.0
 20
0.0
 30
0.0
  0
VERTEX
  5
52C
330
52B
100
AcDbEntity
  8
Ebene 1
370
     0
100
AcDbVertex
100
AcDb2dVertex
 10
494.646484375
 20
42.55859375
 30
0.0
  0
VERTEX
  5
52D
330
52B
100
AcDbEntity
  8
Ebene 1
370
     0
100
AcDbVertex
100
AcDb2dVertex
 10
494.646484375
 20
40.44140625
 30
0.0
  0
SEQEND
  5
52E
330
52B
100
AcDbEntity
  8
Ebene 1
370
     0
  0
POLYLINE
  5
52F
330
3C
100
AcDbEntity
  8
Ebene 1
370
     0
100
AcDb2dPolyline
 66
     1
 10
0.0
 20
0.0
 30
0.0
  0
VERTEX
  5
530
330
52F
100
AcDbEntity
  8
Ebene 1
370
     0
100
AcDbVertex
100
AcDb2dVertex
 10
494.646484375
 20
73.5732421875
 30
0.0
  0
VERTEX
  5
531
330
52F
100
AcDbEntity
  8
Ebene 1
370
     0
100
AcDbVertex
100
AcDb2dVertex
 10
494.646484375
 20
71.6328125
 30
0.0
  0
SEQEND
  5
532
330
52F
100
AcDbEntity
  8
Ebene 1
370
     0
  0
POLYLINE
  5
533
330
3C
100
AcDbEntity
  8
Ebene 1
370
     0
100
AcDb2dPolyline
 66
     1
 10
0.0
 20
0.0
 30
0.0
  0
VERTEX
  5
534
330
533
100
AcDbEntity
  8
Ebene 1
370
     0
100
AcDbVertex
100
AcDb2dVertex
 10
494.912109375
 20
73.5732421875
 30
0.0
  0
VERTEX
  5
535
330
533
100
AcDbEntity
  8
Ebene 1
370
     0
100
AcDbVertex
100
AcDb2dVertex
 10
494.646484375
 20
73.5732421875
 30
0.0
  0
SEQEND
  5
536
330
533
100
AcDbEntity
  8
Ebene 1
370
     0
  0
POLYLINE
  5
537
330
3C
100
AcDbEntity
  8
Ebene 1
370
     0
100
AcDb2dPolyline
 66
     1
 10
0.0
 20
0.0
 30
0.0
  0
VERTEX
  5
538
330
537
100
AcDbEntity
  8
Ebene 1
370
     0
100
AcDbVertex
100
AcDb2dVertex
 10
494.25
 20
40.44140625
 30
0.0
  0
VERTEX
  5
539
330
537
100
AcDbEntity
  8
Ebene 1
370
     0
100
AcDbVertex
100
AcDb2dVertex
 10
494.25
 20
42.8232421875
 30
0.0
  0
SEQEND
  5
53A
330
537
100
AcDbEntity
  8
Ebene 1
370
     0
  0
POLYLINE
  5
53B
330
3C
100
AcDbEntity
  8
Ebene 1
370
     0
100
AcDb2dPolyline
 66
     1
 10
0.0
 20
0.0
 30
0.0
  0
VERTEX
  5
53C
330
53B
100
AcDbEntity
  8
Ebene 1
370
     0
100
AcDbVertex
100
AcDb2dVertex
 10
494.25
 20
71.3232421875
 30
0.0
  0
VERTEX
  5
53D
330
53B
100
AcDbEntity
  8
Ebene 1
370
     0
100
AcDbVertex
100
AcDb2dVertex
 10
494.25
 20
73.5732421875
 30
0.0
  0
SEQEND
  5
53E
330
53B
100
AcDbEntity
  8
Ebene 1
370
     0
  0
POLYLINE
  5
53F
330
3C
100
AcDbEntity
  8
Ebene 1
370
     0
100
AcDb2dPolyline
 66
     1
 10
0.0
 20
0.0
 30
0.0
  0
VERTEX
  5
540
330
53F
100
AcDbEntity
  8
Ebene 1
370
     0
100
AcDbVertex
100
AcDb2dVertex
 10
494.7353515625
 20
39.69140625
 30
0.0
  0
VERTEX
  5
541
330
53F
100
AcDbEntity
  8
Ebene 1
370
     0
100
AcDbVertex
100
AcDb2dVertex
 10
494.25
 20
40.44140625
 30
0.0
  0
SEQEND
  5
542
330
53F
100
AcDbEntity
  8
Ebene 1
370
     0
  0
POLYLINE
  5
543
330
3C
100
AcDbEntity
  8
Ebene 1
370
     0
100
AcDb2dPolyline
 66
     1
 10
0.0
 20
0.0
 30
0.0
  0
VERTEX
  5
544
330
543
100
AcDbEntity
  8
Ebene 1
370
     0
100
AcDbVertex
100
AcDb2dVertex
 10
494.25
 20
73.5732421875
 30
0.0
  0
VERTEX
  5
545
330
543
100
AcDbEntity
  8
Ebene 1
370
     0
100
AcDbVertex
100
AcDb2dVertex
 10
494.7353515625
 20
74.3232421875
 30
0.0
  0
SEQEND
  5
546
330
543
100
AcDbEntity
  8
Ebene 1
370
     0
  0
POLYLINE
  5
547
330
3C
100
AcDbEntity
  8
Ebene 1
370
     0
100
AcDb2dPolyline
 66
     1
 10
0.0
 20
0.0
 30
0.0
  0
VERTEX
  5
548
330
547
100
AcDbEntity
  8
Ebene 1
370
     0
100
AcDbVertex
100
AcDb2dVertex
 10
494.25
 20
71.3232421875
 30
0.0
  0
VERTEX
  5
549
330
547
100
AcDbEntity
  8
Ebene 1
370
     0
100
AcDbVertex
100
AcDb2dVertex
 10
494.029296875
 20
71.3232421875
 30
0.0
  0
SEQEND
  5
54A
330
547
100
AcDbEntity
  8
Ebene 1
370
     0
  0
POLYLINE
  5
54B
330
3C
100
AcDbEntity
  8
Ebene 1
370
     0
100
AcDb2dPolyline
 66
     1
 10
0.0
 20
0.0
 30
0.0
  0
VERTEX
  5
54C
330
54B
100
AcDbEntity
  8
Ebene 1
370
     0
100
AcDbVertex
100
AcDb2dVertex
 10
494.029296875
 20
42.8232421875
 30
0.0
  0
VERTEX
  5
54D
330
54B
100
AcDbEntity
  8
Ebene 1
370
     0
100
AcDbVertex
100
AcDb2dVertex
 10
494.25
 20
42.8232421875
 30
0.0
  0
SEQEND
  5
54E
330
54B
100
AcDbEntity
  8
Ebene 1
370
     0
  0
POLYLINE
  5
54F
330
3C
100
AcDbEntity
  8
Ebene 1
370
     0
100
AcDb2dPolyline
 66
     1
 10
0.0
 20
0.0
 30
0.0
  0
VERTEX
  5
550
330
54F
100
AcDbEntity
  8
Ebene 1
370
     0
100
AcDbVertex
100
AcDb2dVertex
 10
494.25
 20
40.44140625
 30
0.0
  0
VERTEX
  5
551
330
54F
100
AcDbEntity
  8
Ebene 1
370
     0
100
AcDbVertex
100
AcDb2dVertex
 10
494.029296875
 20
40.44140625
 30
0.0
  0
VERTEX
  5
552
330
54F
100
AcDbEntity
  8
Ebene 1
370
     0
100
AcDbVertex
100
AcDb2dVertex
 10
494.029296875
 20
42.8232421875
 30
0.0
  0
SEQEND
  5
553
330
54F
100
AcDbEntity
  8
Ebene 1
370
     0
  0
POLYLINE
  5
554
330
3C
100
AcDbEntity
  8
Ebene 1
370
     0
100
AcDb2dPolyline
 66
     1
 10
0.0
 20
0.0
 30
0.0
  0
VERTEX
  5
555
330
554
100
AcDbEntity
  8
Ebene 1
370
     0
100
AcDbVertex
100
AcDb2dVertex
 10
494.029296875
 20
73.5732421875
 30
0.0
  0
VERTEX
  5
556
330
554
100
AcDbEntity
  8
Ebene 1
370
     0
100
AcDbVertex
100
AcDb2dVertex
 10
494.25
 20
73.5732421875
 30
0.0
  0
SEQEND
  5
557
330
554
100
AcDbEntity
  8
Ebene 1
370
     0
  0
POLYLINE
  5
558
330
3C
100
AcDbEntity
  8
Ebene 1
370
     0
100
AcDb2dPolyline
 66
     1
 10
0.0
 20
0.0
 30
0.0
  0
VERTEX
  5
559
330
558
100
AcDbEntity
  8
Ebene 1
370
     0
100
AcDbVertex
100
AcDb2dVertex
 10
494.029296875
 20
71.3232421875
 30
0.0
  0
VERTEX
  5
55A
330
558
100
AcDbEntity
  8
Ebene 1
370
     0
100
AcDbVertex
100
AcDb2dVertex
 10
494.029296875
 20
73.5732421875
 30
0.0
  0
SEQEND
  5
55B
330
558
100
AcDbEntity
  8
Ebene 1
370
     0
  0
POLYLINE
  5
55C
330
3C
100
AcDbEntity
  8
Ebene 1
370
     0
100
AcDb2dPolyline
 66
     1
 10
0.0
 20
0.0
 30
0.0
  0
VERTEX
  5
55D
330
55C
100
AcDbEntity
  8
Ebene 1
370
     0
100
AcDbVertex
100
AcDb2dVertex
 10
494.029296875
 20
40.44140625
 30
0.0
  0
VERTEX
  5
55E
330
55C
100
AcDbEntity
  8
Ebene 1
370
     0
100
AcDbVertex
100
AcDb2dVertex
 10
494.7353515625
 20
39.69140625
 30
0.0
  0
SEQEND
  5
55F
330
55C
100
AcDbEntity
  8
Ebene 1
370
     0
  0
POLYLINE
  5
560
330
3C
100
AcDbEntity
  8
Ebene 1
370
     0
100
AcDb2dPolyline
 66
     1
 10
0.0
 20
0.0
 30
0.0
  0
VERTEX
  5
561
330
560
100
AcDbEntity
  8
Ebene 1
370
     0
100
AcDbVertex
100
AcDb2dVertex
 10
493.6328125
 20
57.0732421875
 30
0.0
  0
VERTEX
  5
562
330
560
100
AcDbEntity
  8
Ebene 1
370
     0
100
AcDbVertex
100
AcDb2dVertex
 10
493.7646484375
 20
48.7353515625
 30
0.0
  0
VERTEX
  5
563
330
560
100
AcDbEntity
  8
Ebene 1
370
     0
100
AcDbVertex
100
AcDb2dVertex
 10
493.853515625
 20
45.337890625
 30
0.0
  0
VERTEX
  5
564
330
560
100
AcDbEntity
  8
Ebene 1
370
     0
100
AcDbVertex
100
AcDb2dVertex
 10
494.029296875
 20
42.8232421875
 30
0.0
  0
SEQEND
  5
565
330
560
100
AcDbEntity
  8
Ebene 1
370
     0
  0
POLYLINE
  5
566
330
3C
100
AcDbEntity
  8
Ebene 1
370
     0
100
AcDb2dPolyline
 66
     1
 10
0.0
 20
0.0
 30
0.0
  0
VERTEX
  5
567
330
566
100
AcDbEntity
  8
Ebene 1
370
     0
100
AcDbVertex
100
AcDb2dVertex
 10
493.6328125
 20
57.0732421875
 30
0.0
  0
VERTEX
  5
568
330
566
100
AcDbEntity
  8
Ebene 1
370
     0
100
AcDbVertex
100
AcDb2dVertex
 10
494.3828125
 20
57.0732421875
 30
0.0
  0
SEQEND
  5
569
330
566
100
AcDbEntity
  8
Ebene 1
370
     0
  0
POLYLINE
  5
56A
330
3C
100
AcDbEntity
  8
Ebene 1
370
     0
100
AcDb2dPolyline
 66
     1
 10
0.0
 20
0.0
 30
0.0
  0
VERTEX
  5
56B
330
56A
100
AcDbEntity
  8
Ebene 1
370
     0
100
AcDbVertex
100
AcDb2dVertex
 10
494.029296875
 20
71.3232421875
 30
0.0
  0
VERTEX
  5
56C
330
56A
100
AcDbEntity
  8
Ebene 1
370
     0
100
AcDbVertex
100
AcDb2dVertex
 10
493.853515625
 20
68.80859375
 30
0.0
  0
VERTEX
  5
56D
330
56A
100
AcDbEntity
  8
Ebene 1
370
     0
100
AcDbVertex
100
AcDb2dVertex
 10
493.7646484375
 20
65.4560546875
 30
0.0
  0
VERTEX
  5
56E
330
56A
100
AcDbEntity
  8
Ebene 1
370
     0
100
AcDbVertex
100
AcDb2dVertex
 10
493.6328125
 20
57.0732421875
 30
0.0
  0
SEQEND
  5
56F
330
56A
100
AcDbEntity
  8
Ebene 1
370
     0
  0
POLYLINE
  5
570
330
3C
100
AcDbEntity
  8
Ebene 1
370
     0
100
AcDb2dPolyline
 66
     1
 10
0.0
 20
0.0
 30
0.0
  0
VERTEX
  5
571
330
570
100
AcDbEntity
  8
Ebene 1
370
     0
100
AcDbVertex
100
AcDb2dVertex
 10
493.5439453125
 20
40.44140625
 30
0.0
  0
VERTEX
  5
572
330
570
100
AcDbEntity
  8
Ebene 1
370
     0
100
AcDbVertex
100
AcDb2dVertex
 10
494.029296875
 20
40.44140625
 30
0.0
  0
SEQEND
  5
573
330
570
100
AcDbEntity
  8
Ebene 1
370
     0
  0
POLYLINE
  5
574
330
3C
100
AcDbEntity
  8
Ebene 1
370
     0
100
AcDb2dPolyline
 66
     1
 10
0.0
 20
0.0
 30
0.0
  0
VERTEX
  5
575
330
574
100
AcDbEntity
  8
Ebene 1
370
     0
100
AcDbVertex
100
AcDb2dVertex
 10
493.146484375
 20
37.970703125
 30
0.0
  0
VERTEX
  5
576
330
574
100
AcDbEntity
  8
Ebene 1
370
     0
100
AcDbVertex
100
AcDb2dVertex
 10
493.32421875
 20
39.779296875
 30
0.0
  0
VERTEX
  5
577
330
574
100
AcDbEntity
  8
Ebene 1
370
     0
100
AcDbVertex
100
AcDb2dVertex
 10
493.5439453125
 20
40.44140625
 30
0.0
  0
SEQEND
  5
578
330
574
100
AcDbEntity
  8
Ebene 1
370
     0
  0
POLYLINE
  5
579
330
3C
100
AcDbEntity
  8
Ebene 1
370
     0
100
AcDb2dPolyline
 66
     1
 10
0.0
 20
0.0
 30
0.0
  0
VERTEX
  5
57A
330
579
100
AcDbEntity
  8
Ebene 1
370
     0
100
AcDbVertex
100
AcDb2dVertex
 10
492.837890625
 20
35.6328125
 30
0.0
  0
VERTEX
  5
57B
330
579
100
AcDbEntity
  8
Ebene 1
370
     0
100
AcDbVertex
100
AcDb2dVertex
 10
493.146484375
 20
37.970703125
 30
0.0
  0
SEQEND
  5
57C
330
579
100
AcDbEntity
  8
Ebene 1
370
     0
  0
POLYLINE
  5
57D
330
3C
100
AcDbEntity
  8
Ebene 1
370
     0
100
AcDb2dPolyline
 66
     1
 10
0.0
 20
0.0
 30
0.0
  0
VERTEX
  5
57E
330
57D
100
AcDbEntity
  8
Ebene 1
370
     0
100
AcDbVertex
100
AcDb2dVertex
 10
492.75
 20
35.412109375
 30
0.0
  0
VERTEX
  5
57F
330
57D
100
AcDbEntity
  8
Ebene 1
370
     0
100
AcDbVertex
100
AcDb2dVertex
 10
492.837890625
 20
35.6328125
 30
0.0
  0
SEQEND
  5
580
330
57D
100
AcDbEntity
  8
Ebene 1
370
     0
  0
POLYLINE
  5
581
330
3C
100
AcDbEntity
  8
Ebene 1
370
     0
100
AcDb2dPolyline
 66
     1
 10
0.0
 20
0.0
 30
0.0
  0
VERTEX
  5
582
330
581
100
AcDbEntity
  8
Ebene 1
370
     0
100
AcDbVertex
100
AcDb2dVertex
 10
491.8671875
 20
60.779296875
 30
0.0
  0
VERTEX
  5
583
330
581
100
AcDbEntity
  8
Ebene 1
370
     0
100
AcDbVertex
100
AcDb2dVertex
 10
491.779296875
 20
59.279296875
 30
0.0
  0
SEQEND
  5
584
330
581
100
AcDbEntity
  8
Ebene 1
370
     0
  0
POLYLINE
  5
585
330
3C
100
AcDbEntity
  8
Ebene 1
370
     0
100
AcDb2dPolyline
 66
     1
 10
0.0
 20
0.0
 30
0.0
  0
VERTEX
  5
586
330
585
100
AcDbEntity
  8
Ebene 1
370
     0
100
AcDbVertex
100
AcDb2dVertex
 10
492.1328125
 20
73.5732421875
 30
0.0
  0
VERTEX
  5
587
330
585
100
AcDbEntity
  8
Ebene 1
370
     0
100
AcDbVertex
100
AcDb2dVertex
 10
492.0
 20
73.087890625
 30
0.0
  0
VERTEX
  5
588
330
585
100
AcDbEntity
  8
Ebene 1
370
     0
100
AcDbVertex
100
AcDb2dVertex
 10
491.912109375
 20
71.6767578125
 30
0.0
  0
VERTEX
  5
589
330
585
100
AcDbEntity
  8
Ebene 1
370
     0
100
AcDbVertex
100
AcDb2dVertex
 10
491.8671875
 20
67.087890625
 30
0.0
  0
SEQEND
  5
58A
330
585
100
AcDbEntity
  8
Ebene 1
370
     0
  0
POLYLINE
  5
58B
330
3C
100
AcDbEntity
  8
Ebene 1
370
     0
100
AcDb2dPolyline
 66
     1
 10
0.0
 20
0.0
 30
0.0
  0
VERTEX
  5
58C
330
58B
100
AcDbEntity
  8
Ebene 1
370
     0
100
AcDbVertex
100
AcDb2dVertex
 10
492.30859375
 20
73.5732421875
 30
0.0
  0
VERTEX
  5
58D
330
58B
100
AcDbEntity
  8
Ebene 1
370
     0
100
AcDbVertex
100
AcDb2dVertex
 10
492.1328125
 20
73.5732421875
 30
0.0
  0
SEQEND
  5
58E
330
58B
100
AcDbEntity
  8
Ebene 1
370
     0
  0
POLYLINE
  5
58F
330
3C
100
AcDbEntity
  8
Ebene 1
370
     0
100
AcDb2dPolyline
 66
     1
 10
0.0
 20
0.0
 30
0.0
  0
VERTEX
  5
590
330
58F
100
AcDbEntity
  8
Ebene 1
370
     0
100
AcDbVertex
100
AcDb2dVertex
 10
491.912109375
 20
57.0732421875
 30
0.0
  0
VERTEX
  5
591
330
58F
100
AcDbEntity
  8
Ebene 1
370
     0
100
AcDbVertex
100
AcDb2dVertex
 10
492.0
 20
65.4560546875
 30
0.0
  0
VERTEX
  5
592
330
58F
100
AcDbEntity
  8
Ebene 1
370
     0
100
AcDbVertex
100
AcDb2dVertex
 10
492.1328125
 20
68.80859375
 30
0.0
  0
VERTEX
  5
593
330
58F
100
AcDbEntity
  8
Ebene 1
370
     0
100
AcDbVertex
100
AcDb2dVertex
 10
492.30859375
 20
71.3232421875
 30
0.0
  0
SEQEND
  5
594
330
58F
100
AcDbEntity
  8
Ebene 1
370
     0
  0
POLYLINE
  5
595
330
3C
100
AcDbEntity
  8
Ebene 1
370
     0
100
AcDb2dPolyline
 66
     1
 10
0.0
 20
0.0
 30
0.0
  0
VERTEX
  5
596
330
595
100
AcDbEntity
  8
Ebene 1
370
     0
100
AcDbVertex
100
AcDb2dVertex
 10
492.0
 20
50.3671875
 30
0.0
  0
VERTEX
  5
597
330
595
100
AcDbEntity
  8
Ebene 1
370
     0
100
AcDbVertex
100
AcDb2dVertex
 10
491.912109375
 20
57.0732421875
 30
0.0
  0
SEQEND
  5
598
330
595
100
AcDbEntity
  8
Ebene 1
370
     0
  0
POLYLINE
  5
599
330
3C
100
AcDbEntity
  8
Ebene 1
370
     0
100
AcDb2dPolyline
 66
     1
 10
0.0
 20
0.0
 30
0.0
  0
VERTEX
  5
59A
330
599
100
AcDbEntity
  8
Ebene 1
370
     0
100
AcDbVertex
100
AcDb2dVertex
 10
493.32421875
 20
57.0732421875
 30
0.0
  0
VERTEX
  5
59B
330
599
100
AcDbEntity
  8
Ebene 1
370
     0
100
AcDbVertex
100
AcDb2dVertex
 10
493.279296875
 20
51.6025390625
 30
0.0
  0
VERTEX
  5
59C
330
599
100
AcDbEntity
  8
Ebene 1
370
     0
100
AcDbVertex
100
AcDb2dVertex
 10
493.146484375
 20
46.7060546875
 30
0.0
  0
VERTEX
  5
59D
330
599
100
AcDbEntity
  8
Ebene 1
370
     0
100
AcDbVertex
100
AcDb2dVertex
 10
492.970703125
 20
43.1328125
 30
0.0
  0
VERTEX
  5
59E
330
599
100
AcDbEntity
  8
Ebene 1
370
     0
100
AcDbVertex
100
AcDb2dVertex
 10
492.75
 20
41.279296875
 30
0.0
  0
SEQEND
  5
59F
330
599
100
AcDbEntity
  8
Ebene 1
370
     0
  0
POLYLINE
  5
5A0
330
3C
100
AcDbEntity
  8
Ebene 1
370
     0
100
AcDb2dPolyline
 66
     1
 10
0.0
 20
0.0
 30
0.0
  0
VERTEX
  5
5A1
330
5A0
100
AcDbEntity
  8
Ebene 1
370
     0
100
AcDbVertex
100
AcDb2dVertex
 10
492.92578125
 20
71.6328125
 30
0.0
  0
VERTEX
  5
5A2
330
5A0
100
AcDbEntity
  8
Ebene 1
370
     0
100
AcDbVertex
100
AcDb2dVertex
 10
493.05859375
 20
69.162109375
 30
0.0
  0
VERTEX
  5
5A3
330
5A0
100
AcDbEntity
  8
Ebene 1
370
     0
100
AcDbVertex
100
AcDb2dVertex
 10
493.19140625
 20
65.6767578125
 30
0.0
  0
VERTEX
  5
5A4
330
5A0
100
AcDbEntity
  8
Ebene 1
370
     0
100
AcDbVertex
100
AcDb2dVertex
 10
493.32421875
 20
57.0732421875
 30
0.0
  0
SEQEND
  5
5A5
330
5A0
100
AcDbEntity
  8
Ebene 1
370
     0
  0
POLYLINE
  5
5A6
330
3C
100
AcDbEntity
  8
Ebene 1
370
     0
100
AcDb2dPolyline
 66
     1
 10
0.0
 20
0.0
 30
0.0
  0
VERTEX
  5
5A7
330
5A6
100
AcDbEntity
  8
Ebene 1
370
     0
100
AcDbVertex
100
AcDb2dVertex
 10
492.92578125
 20
73.5732421875
 30
0.0
  0
VERTEX
  5
5A8
330
5A6
100
AcDbEntity
  8
Ebene 1
370
     0
100
AcDbVertex
100
AcDb2dVertex
 10
492.92578125
 20
71.6328125
 30
0.0
  0
SEQEND
  5
5A9
330
5A6
100
AcDbEntity
  8
Ebene 1
370
     0
  0
POLYLINE
  5
5AA
330
3C
100
AcDbEntity
  8
Ebene 1
370
     0
100
AcDb2dPolyline
 66
     1
 10
0.0
 20
0.0
 30
0.0
  0
VERTEX
  5
5AB
330
5AA
100
AcDbEntity
  8
Ebene 1
370
     0
100
AcDbVertex
100
AcDb2dVertex
 10
494.029296875
 20
73.5732421875
 30
0.0
  0
VERTEX
  5
5AC
330
5AA
100
AcDbEntity
  8
Ebene 1
370
     0
100
AcDbVertex
100
AcDb2dVertex
 10
492.92578125
 20
73.5732421875
 30
0.0
  0
SEQEND
  5
5AD
330
5AA
100
AcDbEntity
  8
Ebene 1
370
     0
  0
POLYLINE
  5
5AE
330
3C
100
AcDbEntity
  8
Ebene 1
370
     0
100
AcDb2dPolyline
 66
     1
 10
0.0
 20
0.0
 30
0.0
  0
VERTEX
  5
5AF
330
5AE
100
AcDbEntity
  8
Ebene 1
370
     0
100
AcDbVertex
100
AcDb2dVertex
 10
493.5439453125
 20
40.3974609375
 30
0.0
  0
VERTEX
  5
5B0
330
5AE
100
AcDbEntity
  8
Ebene 1
370
     0
100
AcDbVertex
100
AcDb2dVertex
 10
493.587890625
 20
40.1328125
 30
0.0
  0
VERTEX
  5
5B1
330
5AE
100
AcDbEntity
  8
Ebene 1
370
     0
100
AcDbVertex
100
AcDb2dVertex
 10
493.7646484375
 20
39.912109375
 30
0.0
  0
VERTEX
  5
5B2
330
5AE
100
AcDbEntity
  8
Ebene 1
370
     0
100
AcDbVertex
100
AcDb2dVertex
 10
493.9853515625
 20
39.7353515625
 30
0.0
  0
VERTEX
  5
5B3
330
5AE
100
AcDbEntity
  8
Ebene 1
370
     0
100
AcDbVertex
100
AcDb2dVertex
 10
494.25
 20
39.69140625
 30
0.0
  0
SEQEND
  5
5B4
330
5AE
100
AcDbEntity
  8
Ebene 1
370
     0
  0
POLYLINE
  5
5B5
330
3C
100
AcDbEntity
  8
Ebene 1
370
     0
100
AcDb2dPolyline
 66
     1
 10
0.0
 20
0.0
 30
0.0
  0
VERTEX
  5
5B6
330
5B5
100
AcDbEntity
  8
Ebene 1
370
     0
100
AcDbVertex
100
AcDb2dVertex
 10
492.92578125
 20
73.5732421875
 30
0.0
  0
VERTEX
  5
5B7
330
5B5
100
AcDbEntity
  8
Ebene 1
370
     0
100
AcDbVertex
100
AcDb2dVertex
 10
493.6328125
 20
74.3232421875
 30
0.0
  0
VERTEX
  5
5B8
330
5B5
100
AcDbEntity
  8
Ebene 1
370
     0
100
AcDbVertex
100
AcDb2dVertex
 10
494.7353515625
 20
74.3232421875
 30
0.0
  0
SEQEND
  5
5B9
330
5B5
100
AcDbEntity
  8
Ebene 1
370
     0
  0
POLYLINE
  5
5BA
330
3C
100
AcDbEntity
  8
Ebene 1
370
     0
100
AcDb2dPolyline
 66
     1
 10
0.0
 20
0.0
 30
0.0
  0
VERTEX
  5
5BB
330
5BA
100
AcDbEntity
  8
Ebene 1
370
     0
100
AcDbVertex
100
AcDb2dVertex
 10
494.25
 20
39.69140625
 30
0.0
  0
VERTEX
  5
5BC
330
5BA
100
AcDbEntity
  8
Ebene 1
370
     0
100
AcDbVertex
100
AcDb2dVertex
 10
494.07421875
 20
39.0732421875
 30
0.0
  0
VERTEX
  5
5BD
330
5BA
100
AcDbEntity
  8
Ebene 1
370
     0
100
AcDbVertex
100
AcDb2dVertex
 10
493.853515625
 20
37.3525390625
 30
0.0
  0
SEQEND
  5
5BE
330
5BA
100
AcDbEntity
  8
Ebene 1
370
     0
  0
POLYLINE
  5
5BF
330
3C
100
AcDbEntity
  8
Ebene 1
370
     0
100
AcDb2dPolyline
 66
     1
 10
0.0
 20
0.0
 30
0.0
  0
VERTEX
  5
5C0
330
5BF
100
AcDbEntity
  8
Ebene 1
370
     0
100
AcDbVertex
100
AcDb2dVertex
 10
493.146484375
 20
37.970703125
 30
0.0
  0
VERTEX
  5
5C1
330
5BF
100
AcDbEntity
  8
Ebene 1
370
     0
100
AcDbVertex
100
AcDb2dVertex
 10
493.853515625
 20
37.3525390625
 30
0.0
  0
VERTEX
  5
5C2
330
5BF
100
AcDbEntity
  8
Ebene 1
370
     0
100
AcDbVertex
100
AcDb2dVertex
 10
493.4560546875
 20
34.9267578125
 30
0.0
  0
SEQEND
  5
5C3
330
5BF
100
AcDbEntity
  8
Ebene 1
370
     0
  0
POLYLINE
  5
5C4
330
3C
100
AcDbEntity
  8
Ebene 1
370
     0
100
AcDb2dPolyline
 66
     1
 10
0.0
 20
0.0
 30
0.0
  0
VERTEX
  5
5C5
330
5C4
100
AcDbEntity
  8
Ebene 1
370
     0
100
AcDbVertex
100
AcDb2dVertex
 10
492.8828125
 20
35.6328125
 30
0.0
  0
VERTEX
  5
5C6
330
5C4
100
AcDbEntity
  8
Ebene 1
370
     0
100
AcDbVertex
100
AcDb2dVertex
 10
492.970703125
 20
35.3232421875
 30
0.0
  0
VERTEX
  5
5C7
330
5C4
100
AcDbEntity
  8
Ebene 1
370
     0
100
AcDbVertex
100
AcDb2dVertex
 10
493.19140625
 20
35.05859375
 30
0.0
  0
VERTEX
  5
5C8
330
5C4
100
AcDbEntity
  8
Ebene 1
370
     0
100
AcDbVertex
100
AcDb2dVertex
 10
493.5
 20
34.9267578125
 30
0.0
  0
SEQEND
  5
5C9
330
5C4
100
AcDbEntity
  8
Ebene 1
370
     0
  0
POLYLINE
  5
5CA
330
3C
100
AcDbEntity
  8
Ebene 1
370
     0
100
AcDb2dPolyline
 66
     1
 10
0.0
 20
0.0
 30
0.0
  0
VERTEX
  5
5CB
330
5CA
100
AcDbEntity
  8
Ebene 1
370
     0
100
AcDbVertex
100
AcDb2dVertex
 10
493.32421875
 20
34.7060546875
 30
0.0
  0
VERTEX
  5
5CC
330
5CA
100
AcDbEntity
  8
Ebene 1
370
     0
100
AcDbVertex
100
AcDb2dVertex
 10
493.4560546875
 20
34.9267578125
 30
0.0
  0
SEQEND
  5
5CD
330
5CA
100
AcDbEntity
  8
Ebene 1
370
     0
  0
POLYLINE
  5
5CE
330
3C
100
AcDbEntity
  8
Ebene 1
370
     0
100
AcDb2dPolyline
 66
     1
 10
0.0
 20
0.0
 30
0.0
  0
VERTEX
  5
5CF
330
5CE
100
AcDbEntity
  8
Ebene 1
370
     0
100
AcDbVertex
100
AcDb2dVertex
 10
492.75
 20
35.412109375
 30
0.0
  0
VERTEX
  5
5D0
330
5CE
100
AcDbEntity
  8
Ebene 1
370
     0
100
AcDbVertex
100
AcDb2dVertex
 10
492.837890625
 20
35.1025390625
 30
0.0
  0
VERTEX
  5
5D1
330
5CE
100
AcDbEntity
  8
Ebene 1
370
     0
100
AcDbVertex
100
AcDb2dVertex
 10
493.0146484375
 20
34.837890625
 30
0.0
  0
VERTEX
  5
5D2
330
5CE
100
AcDbEntity
  8
Ebene 1
370
     0
100
AcDbVertex
100
AcDb2dVertex
 10
493.32421875
 20
34.7060546875
 30
0.0
  0
SEQEND
  5
5D3
330
5CE
100
AcDbEntity
  8
Ebene 1
370
     0
  0
POLYLINE
  5
5D4
330
3C
100
AcDbEntity
  8
Ebene 1
370
     0
100
AcDb2dPolyline
 66
     1
 10
0.0
 20
0.0
 30
0.0
  0
VERTEX
  5
5D5
330
5D4
100
AcDbEntity
  8
Ebene 1
370
     0
100
AcDbVertex
100
AcDb2dVertex
 10
491.912109375
 20
57.0732421875
 30
0.0
  0
VERTEX
  5
5D6
330
5D4
100
AcDbEntity
  8
Ebene 1
370
     0
100
AcDbVertex
100
AcDb2dVertex
 10
492.6171875
 20
57.0732421875
 30
0.0
  0
VERTEX
  5
5D7
330
5D4
100
AcDbEntity
  8
Ebene 1
370
     0
100
AcDbVertex
100
AcDb2dVertex
 10
492.7060546875
 20
50.8525390625
 30
0.0
  0
SEQEND
  5
5D8
330
5D4
100
AcDbEntity
  8
Ebene 1
370
     0
  0
POLYLINE
  5
5D9
330
3C
100
AcDbEntity
  8
Ebene 1
370
     0
100
AcDb2dPolyline
 66
     1
 10
0.0
 20
0.0
 30
0.0
  0
VERTEX
  5
5DA
330
5D9
100
AcDbEntity
  8
Ebene 1
370
     0
100
AcDbVertex
100
AcDb2dVertex
 10
492.4853515625
 20
73.5732421875
 30
0.0
  0
VERTEX
  5
5DB
330
5D9
100
AcDbEntity
  8
Ebene 1
370
     0
100
AcDbVertex
100
AcDb2dVertex
 10
492.4853515625
 20
71.3232421875
 30
0.0
  0
SEQEND
  5
5DC
330
5D9
100
AcDbEntity
  8
Ebene 1
370
     0
  0
POLYLINE
  5
5DD
330
3C
100
AcDbEntity
  8
Ebene 1
370
     0
100
AcDb2dPolyline
 66
     1
 10
0.0
 20
0.0
 30
0.0
  0
VERTEX
  5
5DE
330
5DD
100
AcDbEntity
  8
Ebene 1
370
     0
100
AcDbVertex
100
AcDb2dVertex
 10
492.4853515625
 20
73.5732421875
 30
0.0
  0
VERTEX
  5
5DF
330
5DD
100
AcDbEntity
  8
Ebene 1
370
     0
100
AcDbVertex
100
AcDb2dVertex
 10
493.0146484375
 20
74.3232421875
 30
0.0
  0
SEQEND
  5
5E0
330
5DD
100
AcDbEntity
  8
Ebene 1
370
     0
  0
POLYLINE
  5
5E1
330
3C
100
AcDbEntity
  8
Ebene 1
370
     0
100
AcDb2dPolyline
 66
     1
 10
0.0
 20
0.0
 30
0.0
  0
VERTEX
  5
5E2
330
5E1
100
AcDbEntity
  8
Ebene 1
370
     0
100
AcDbVertex
100
AcDb2dVertex
 10
492.4853515625
 20
71.3232421875
 30
0.0
  0
VERTEX
  5
5E3
330
5E1
100
AcDbEntity
  8
Ebene 1
370
     0
100
AcDbVertex
100
AcDb2dVertex
 10
492.30859375
 20
71.3232421875
 30
0.0
  0
SEQEND
  5
5E4
330
5E1
100
AcDbEntity
  8
Ebene 1
370
     0
  0
POLYLINE
  5
5E5
330
3C
100
AcDbEntity
  8
Ebene 1
370
     0
100
AcDb2dPolyline
 66
     1
 10
0.0
 20
0.0
 30
0.0
  0
VERTEX
  5
5E6
330
5E5
100
AcDbEntity
  8
Ebene 1
370
     0
100
AcDbVertex
100
AcDb2dVertex
 10
492.30859375
 20
73.5732421875
 30
0.0
  0
VERTEX
  5
5E7
330
5E5
100
AcDbEntity
  8
Ebene 1
370
     0
100
AcDbVertex
100
AcDb2dVertex
 10
492.4853515625
 20
73.5732421875
 30
0.0
  0
SEQEND
  5
5E8
330
5E5
100
AcDbEntity
  8
Ebene 1
370
     0
  0
POLYLINE
  5
5E9
330
3C
100
AcDbEntity
  8
Ebene 1
370
     0
100
AcDb2dPolyline
 66
     1
 10
0.0
 20
0.0
 30
0.0
  0
VERTEX
  5
5EA
330
5E9
100
AcDbEntity
  8
Ebene 1
370
     0
100
AcDbVertex
100
AcDb2dVertex
 10
493.0146484375
 20
74.3232421875
 30
0.0
  0
VERTEX
  5
5EB
330
5E9
100
AcDbEntity
  8
Ebene 1
370
     0
100
AcDbVertex
100
AcDb2dVertex
 10
492.30859375
 20
73.5732421875
 30
0.0
  0
SEQEND
  5
5EC
330
5E9
100
AcDbEntity
  8
Ebene 1
370
     0
  0
POLYLINE
  5
5ED
330
3C
100
AcDbEntity
  8
Ebene 1
370
     0
100
AcDb2dPolyline
 66
     1
 10
0.0
 20
0.0
 30
0.0
  0
VERTEX
  5
5EE
330
5ED
100
AcDbEntity
  8
Ebene 1
370
     0
100
AcDbVertex
100
AcDb2dVertex
 10
464.912109375
 20
93.25
 30
0.0
  0
VERTEX
  5
5EF
330
5ED
100
AcDbEntity
  8
Ebene 1
370
     0
100
AcDbVertex
100
AcDb2dVertex
 10
441.4853515625
 20
93.25
 30
0.0
  0
SEQEND
  5
5F0
330
5ED
100
AcDbEntity
  8
Ebene 1
370
     0
  0
POLYLINE
  5
5F1
330
3C
100
AcDbEntity
  8
Ebene 1
370
     0
100
AcDb2dPolyline
 66
     1
 10
0.0
 20
0.0
 30
0.0
  0
VERTEX
  5
5F2
330
5F1
100
AcDbEntity
  8
Ebene 1
370
     0
100
AcDbVertex
100
AcDb2dVertex
 10
495.0
 20
93.25
 30
0.0
  0
VERTEX
  5
5F3
330
5F1
100
AcDbEntity
  8
Ebene 1
370
     0
100
AcDbVertex
100
AcDb2dVertex
 10
476.9560546875
 20
93.25
 30
0.0
  0
SEQEND
  5
5F4
330
5F1
100
AcDbEntity
  8
Ebene 1
370
     0
  0
POLYLINE
  5
5F5
330
3C
100
AcDbEntity
  8
Ebene 1
370
     0
100
AcDb2dPolyline
 66
     1
 10
0.0
 20
0.0
 30
0.0
  0
VERTEX
  5
5F6
330
5F5
100
AcDbEntity
  8
Ebene 1
370
     0
100
AcDbVertex
100
AcDb2dVertex
 10
413.69140625
 20
93.25
 30
0.0
  0
VERTEX
  5
5F7
330
5F5
100
AcDbEntity
  8
Ebene 1
370
     0
100
AcDbVertex
100
AcDb2dVertex
 10
397.146484375
 20
93.25
 30
0.0
  0
SEQEND
  5
5F8
330
5F5
100
AcDbEntity
  8
Ebene 1
370
     0
  0
POLYLINE
  5
5F9
330
3C
100
AcDbEntity
  8
Ebene 1
370
     0
100
AcDb2dPolyline
 66
     1
 10
0.0
 20
0.0
 30
0.0
  0
VERTEX
  5
5FA
330
5F9
100
AcDbEntity
  8
Ebene 1
370
     0
100
AcDbVertex
100
AcDb2dVertex
 10
441.4853515625
 20
93.25
 30
0.0
  0
VERTEX
  5
5FB
330
5F9
100
AcDbEntity
  8
Ebene 1
370
     0
100
AcDbVertex
100
AcDb2dVertex
 10
413.69140625
 20
93.25
 30
0.0
  0
SEQEND
  5
5FC
330
5F9
100
AcDbEntity
  8
Ebene 1
370
     0
  0
POLYLINE
  5
5FD
330
3C
100
AcDbEntity
  8
Ebene 1
370
     0
100
AcDb2dPolyline
 66
     1
 10
0.0
 20
0.0
 30
0.0
  0
VERTEX
  5
5FE
330
5FD
100
AcDbEntity
  8
Ebene 1
370
     0
100
AcDbVertex
100
AcDb2dVertex
 10
383.2939453125
 20
59.9853515625
 30
0.0
  0
VERTEX
  5
5FF
330
5FD
100
AcDbEntity
  8
Ebene 1
370
     0
100
AcDbVertex
100
AcDb2dVertex
 10
455.337890625
 20
59.9853515625
 30
0.0
  0
SEQEND
  5
600
330
5FD
100
AcDbEntity
  8
Ebene 1
370
     0
  0
POLYLINE
  5
601
330
3C
100
AcDbEntity
  8
Ebene 1
370
     0
100
AcDb2dPolyline
 66
     1
 10
0.0
 20
0.0
 30
0.0
  0
VERTEX
  5
602
330
601
100
AcDbEntity
  8
Ebene 1
370
     0
100
AcDbVertex
100
AcDb2dVertex
 10
383.2939453125
 20
18.5146484375
 30
0.0
  0
VERTEX
  5
603
330
601
100
AcDbEntity
  8
Ebene 1
370
     0
100
AcDbVertex
100
AcDb2dVertex
 10
455.337890625
 20
18.5146484375
 30
0.0
  0
SEQEND
  5
604
330
601
100
AcDbEntity
  8
Ebene 1
370
     0
  0
POLYLINE
  5
605
330
3C
100
AcDbEntity
  8
Ebene 1
370
     0
100
AcDb2dPolyline
 66
     1
 10
0.0
 20
0.0
 30
0.0
  0
VERTEX
  5
606
330
605
100
AcDbEntity
  8
Ebene 1
370
     0
100
AcDbVertex
100
AcDb2dVertex
 10
402.7060546875
 20
34.75
 30
0.0
  0
VERTEX
  5
607
330
605
100
AcDbEntity
  8
Ebene 1
370
     0
100
AcDbVertex
100
AcDb2dVertex
 10
383.2939453125
 20
34.75
 30
0.0
  0
SEQEND
  5
608
330
605
100
AcDbEntity
  8
Ebene 1
370
     0
  0
POLYLINE
  5
609
330
3C
100
AcDbEntity
  8
Ebene 1
370
     0
100
AcDb2dPolyline
 66
     1
 10
0.0
 20
0.0
 30
0.0
  0
VERTEX
  5
60A
330
609
100
AcDbEntity
  8
Ebene 1
370
     0
100
AcDbVertex
100
AcDb2dVertex
 10
455.337890625
 20
34.75
 30
0.0
  0
VERTEX
  5
60B
330
609
100
AcDbEntity
  8
Ebene 1
370
     0
100
AcDbVertex
100
AcDb2dVertex
 10
402.7060546875
 20
34.75
 30
0.0
  0
SEQEND
  5
60C
330
609
100
AcDbEntity
  8
Ebene 1
370
     0
  0
POLYLINE
  5
60D
330
3C
100
AcDbEntity
  8
Ebene 1
370
     0
100
AcDb2dPolyline
 66
     1
 10
0.0
 20
0.0
 30
0.0
  0
VERTEX
  5
60E
330
60D
100
AcDbEntity
  8
Ebene 1
370
     0
100
AcDbVertex
100
AcDb2dVertex
 10
455.337890625
 20
76.220703125
 30
0.0
  0
VERTEX
  5
60F
330
60D
100
AcDbEntity
  8
Ebene 1
370
     0
100
AcDbVertex
100
AcDb2dVertex
 10
383.2939453125
 20
76.220703125
 30
0.0
  0
SEQEND
  5
610
330
60D
100
AcDbEntity
  8
Ebene 1
370
     0
  0
POLYLINE
  5
611
330
3C
100
AcDbEntity
  8
Ebene 1
370
     0
100
AcDb2dPolyline
 66
     1
 10
0.0
 20
0.0
 30
0.0
  0
VERTEX
  5
612
330
611
100
AcDbEntity
  8
Ebene 1
370
     0
100
AcDbVertex
100
AcDb2dVertex
 10
410.162109375
 20
40.1328125
 30
0.0
  0
VERTEX
  5
613
330
611
100
AcDbEntity
  8
Ebene 1
370
     0
100
AcDbVertex
100
AcDb2dVertex
 10
439.146484375
 20
40.1328125
 30
0.0
  0
SEQEND
  5
614
330
611
100
AcDbEntity
  8
Ebene 1
370
     0
  0
POLYLINE
  5
615
330
3C
100
AcDbEntity
  8
Ebene 1
370
     0
100
AcDb2dPolyline
 66
     1
 10
0.0
 20
0.0
 30
0.0
  0
VERTEX
  5
616
330
615
100
AcDbEntity
  8
Ebene 1
370
     0
100
AcDbVertex
100
AcDb2dVertex
 10
399.4853515625
 20
40.1328125
 30
0.0
  0
VERTEX
  5
617
330
615
100
AcDbEntity
  8
Ebene 1
370
     0
100
AcDbVertex
100
AcDb2dVertex
 10
410.162109375
 20
40.1328125
 30
0.0
  0
SEQEND
  5
618
330
615
100
AcDbEntity
  8
Ebene 1
370
     0
  0
POLYLINE
  5
619
330
3C
100
AcDbEntity
  8
Ebene 1
370
     0
100
AcDb2dPolyline
 66
     1
 10
0.0
 20
0.0
 30
0.0
  0
VERTEX
  5
61A
330
619
100
AcDbEntity
  8
Ebene 1
370
     0
100
AcDbVertex
100
AcDb2dVertex
 10
439.146484375
 20
54.55859375
 30
0.0
  0
VERTEX
  5
61B
330
619
100
AcDbEntity
  8
Ebene 1
370
     0
100
AcDbVertex
100
AcDb2dVertex
 10
399.4853515625
 20
54.55859375
 30
0.0
  0
SEQEND
  5
61C
330
619
100
AcDbEntity
  8
Ebene 1
370
     0
  0
POLYLINE
  5
61D
330
3C
100
AcDbEntity
  8
Ebene 1
370
     0
100
AcDb2dPolyline
 66
     1
 10
0.0
 20
0.0
 30
0.0
  0
VERTEX
  5
61E
330
61D
100
AcDbEntity
  8
Ebene 1
370
     0
100
AcDbVertex
100
AcDb2dVertex
 10
491.9560546875
 20
60.69140625
 30
0.0
  0
VERTEX
  5
61F
330
61D
100
AcDbEntity
  8
Ebene 1
370
     0
100
AcDbVertex
100
AcDb2dVertex
 10
471.7060546875
 20
60.69140625
 30
0.0
  0
SEQEND
  5
620
330
61D
100
AcDbEntity
  8
Ebene 1
370
     0
  0
POLYLINE
  5
621
330
3C
100
AcDbEntity
  8
Ebene 1
370
     0
100
AcDb2dPolyline
 66
     1
 10
0.0
 20
0.0
 30
0.0
  0
VERTEX
  5
622
330
621
100
AcDbEntity
  8
Ebene 1
370
     0
100
AcDbVertex
100
AcDb2dVertex
 10
471.7060546875
 20
48.25
 30
0.0
  0
VERTEX
  5
623
330
621
100
AcDbEntity
  8
Ebene 1
370
     0
100
AcDbVertex
100
AcDb2dVertex
 10
491.07421875
 20
48.25
 30
0.0
  0
SEQEND
  5
624
330
621
100
AcDbEntity
  8
Ebene 1
370
     0
  0
POLYLINE
  5
625
330
3C
100
AcDbEntity
  8
Ebene 1
370
     0
100
AcDb2dPolyline
 66
     1
 10
0.0
 20
0.0
 30
0.0
  0
VERTEX
  5
626
330
625
100
AcDbEntity
  8
Ebene 1
370
     0
100
AcDbVertex
100
AcDb2dVertex
 10
491.07421875
 20
46.44140625
 30
0.0
  0
VERTEX
  5
627
330
625
100
AcDbEntity
  8
Ebene 1
370
     0
100
AcDbVertex
100
AcDb2dVertex
 10
471.7060546875
 20
46.44140625
 30
0.0
  0
SEQEND
  5
628
330
625
100
AcDbEntity
  8
Ebene 1
370
     0
  0
POLYLINE
  5
629
330
3C
100
AcDbEntity
  8
Ebene 1
370
     0
100
AcDb2dPolyline
 66
     1
 10
0.0
 20
0.0
 30
0.0
  0
VERTEX
  5
62A
330
629
100
AcDbEntity
  8
Ebene 1
370
     0
100
AcDbVertex
100
AcDb2dVertex
 10
471.7060546875
 20
34.0
 30
0.0
  0
VERTEX
  5
62B
330
629
100
AcDbEntity
  8
Ebene 1
370
     0
100
AcDbVertex
100
AcDb2dVertex
 10
495.0
 20
34.0
 30
0.0
  0
SEQEND
  5
62C
330
629
100
AcDbEntity
  8
Ebene 1
370
     0
  0
POLYLINE
  5
62D
330
3C
100
AcDbEntity
  8
Ebene 1
370
     0
100
AcDb2dPolyline
 66
     1
 10
0.0
 20
0.0
 30
0.0
  0
VERTEX
  5
62E
330
62D
100
AcDbEntity
  8
Ebene 1
370
     0
100
AcDbVertex
100
AcDb2dVertex
 10
479.5146484375
 20
14.5439453125
 30
0.0
  0
VERTEX
  5
62F
330
62D
100
AcDbEntity
  8
Ebene 1
370
     0
100
AcDbVertex
100
AcDb2dVertex
 10
478.94140625
 20
14.5439453125
 30
0.0
  0
SEQEND
  5
630
330
62D
100
AcDbEntity
  8
Ebene 1
370
     0
  0
POLYLINE
  5
631
330
3C
100
AcDbEntity
  8
Ebene 1
370
     0
100
AcDb2dPolyline
 66
     1
 10
0.0
 20
0.0
 30
0.0
  0
VERTEX
  5
632
330
631
100
AcDbEntity
  8
Ebene 1
370
     0
100
AcDbVertex
100
AcDb2dVertex
 10
494.9560546875
 20
14.5439453125
 30
0.0
  0
VERTEX
  5
633
330
631
100
AcDbEntity
  8
Ebene 1
370
     0
100
AcDbVertex
100
AcDb2dVertex
 10
491.8671875
 20
14.5439453125
 30
0.0
  0
SEQEND
  5
634
330
631
100
AcDbEntity
  8
Ebene 1
370
     0
  0
POLYLINE
  5
635
330
3C
100
AcDbEntity
  8
Ebene 1
370
     0
100
AcDb2dPolyline
 66
     1
 10
0.0
 20
0.0
 30
0.0
  0
VERTEX
  5
636
330
635
100
AcDbEntity
  8
Ebene 1
370
     0
100
AcDbVertex
100
AcDb2dVertex
 10
-165.0
 20
-1043.1328125
 30
0.0
  0
VERTEX
  5
637
330
635
100
AcDbEntity
  8
Ebene 1
370
     0
100
AcDbVertex
100
AcDb2dVertex
 10
-165.0
 20
-1043.1328125
 30
0.0
  0
SEQEND
  5
638
330
635
100
AcDbEntity
  8
Ebene 1
370
     0
  0
POLYLINE
  5
639
330
3C
100
AcDbEntity
  8
Ebene 1
370
     0
100
AcDb2dPolyline
 66
     1
 10
0.0
 20
0.0
 30
0.0
  0
VERTEX
  5
63A
330
639
100
AcDbEntity
  8
Ebene 1
370
     0
100
AcDbVertex
100
AcDb2dVertex
 10
-165.0
 20
-1043.1328125
 30
0.0
  0
VERTEX
  5
63B
330
639
100
AcDbEntity
  8
Ebene 1
370
     0
100
AcDbVertex
100
AcDb2dVertex
 10
-165.0
 20
-1043.1328125
 30
0.0
  0
SEQEND
  5
63C
330
639
100
AcDbEntity
  8
Ebene 1
370
     0
  0
POLYLINE
  5
63D
330
3C
100
AcDbEntity
  8
Ebene 1
370
     0
100
AcDb2dPolyline
 66
     1
 10
0.0
 20
0.0
 30
0.0
  0
VERTEX
  5
63E
330
63D
100
AcDbEntity
  8
Ebene 1
370
     0
100
AcDbVertex
100
AcDb2dVertex
 10
-165.0
 20
-1043.1328125
 30
0.0
  0
VERTEX
  5
63F
330
63D
100
AcDbEntity
  8
Ebene 1
370
     0
100
AcDbVertex
100
AcDb2dVertex
 10
-165.0
 20
-1043.1328125
 30
0.0
  0
SEQEND
  5
640
330
63D
100
AcDbEntity
  8
Ebene 1
370
     0
  0
POLYLINE
  5
641
330
3C
100
AcDbEntity
  8
Ebene 1
370
     0
100
AcDb2dPolyline
 66
     1
 10
0.0
 20
0.0
 30
0.0
  0
VERTEX
  5
642
330
641
100
AcDbEntity
  8
Ebene 1
370
     0
100
AcDbVertex
100
AcDb2dVertex
 10
-159.35302734375
 20
1834.0
 30
0.0
  0
VERTEX
  5
643
330
641
100
AcDbEntity
  8
Ebene 1
370
     0
100
AcDbVertex
100
AcDb2dVertex
 10
-159.35302734375
 20
1834.0
 30
0.0
  0
SEQEND
  5
644
330
641
100
AcDbEntity
  8
Ebene 1
370
     0
  0
POLYLINE
  5
645
330
3C
100
AcDbEntity
  8
Ebene 1
370
     0
100
AcDb2dPolyline
 66
     1
 10
0.0
 20
0.0
 30
0.0
  0
VERTEX
  5
646
330
645
100
AcDbEntity
  8
Ebene 1
370
     0
100
AcDbVertex
100
AcDb2dVertex
 10
495.0
 20
73.8828125
 30
0.0
  0
VERTEX
  5
647
330
645
100
AcDbEntity
  8
Ebene 1
370
     0
100
AcDbVertex
100
AcDb2dVertex
 10
494.912109375
 20
73.5732421875
 30
0.0
  0
SEQEND
  5
648
330
645
100
AcDbEntity
  8
Ebene 1
370
     0
  0
POLYLINE
  5
649
330
3C
100
AcDbEntity
  8
Ebene 1
370
     0
100
AcDb2dPolyline
 66
     1
 10
0.0
 20
0.0
 30
0.0
  0
VERTEX
  5
64A
330
649
100
AcDbEntity
  8
Ebene 1
370
     0
100
AcDbVertex
100
AcDb2dVertex
 10
-165.0
 20
-1043.1328125
 30
0.0
  0
VERTEX
  5
64B
330
649
100
AcDbEntity
  8
Ebene 1
370
     0
100
AcDbVertex
100
AcDb2dVertex
 10
-165.0
 20
-1043.1328125
 30
0.0
  0
SEQEND
  5
64C
330
649
100
AcDbEntity
  8
Ebene 1
370
     0
  0
POLYLINE
  5
64D
330
3C
100
AcDbEntity
  8
Ebene 1
370
     0
100
AcDb2dPolyline
 66
     1
 10
0.0
 20
0.0
 30
0.0
  0
VERTEX
  5
64E
330
64D
100
AcDbEntity
  8
Ebene 1
370
     0
100
AcDbVertex
100
AcDb2dVertex
 10
494.646484375
 20
40.44140625
 30
0.0
  0
VERTEX
  5
64F
330
64D
100
AcDbEntity
  8
Ebene 1
370
     0
100
AcDbVertex
100
AcDb2dVertex
 10
494.25
 20
40.44140625
 30
0.0
  0
SEQEND
  5
650
330
64D
100
AcDbEntity
  8
Ebene 1
370
     0
  0
POLYLINE
  5
651
330
3C
100
AcDbEntity
  8
Ebene 1
370
     0
100
AcDb2dPolyline
 66
     1
 10
0.0
 20
0.0
 30
0.0
  0
VERTEX
  5
652
330
651
100
AcDbEntity
  8
Ebene 1
370
     0
100
AcDbVertex
100
AcDb2dVertex
 10
491.07421875
 20
35.412109375
 30
0.0
  0
VERTEX
  5
653
330
651
100
AcDbEntity
  8
Ebene 1
370
     0
100
AcDbVertex
100
AcDb2dVertex
 10
492.75
 20
35.412109375
 30
0.0
  0
SEQEND
  5
654
330
651
100
AcDbEntity
  8
Ebene 1
370
     0
  0
POLYLINE
  5
655
330
3C
100
AcDbEntity
  8
Ebene 1
370
     0
100
AcDb2dPolyline
 66
     1
 10
0.0
 20
0.0
 30
0.0
  0
VERTEX
  5
656
330
655
100
AcDbEntity
  8
Ebene 1
370
     0
100
AcDbVertex
100
AcDb2dVertex
 10
491.779296875
 20
59.279296875
 30
0.0
  0
VERTEX
  5
657
330
655
100
AcDbEntity
  8
Ebene 1
370
     0
100
AcDbVertex
100
AcDb2dVertex
 10
491.07421875
 20
59.279296875
 30
0.0
  0
SEQEND
  5
658
330
655
100
AcDbEntity
  8
Ebene 1
370
     0
  0
POLYLINE
  5
659
330
3C
100
AcDbEntity
  8
Ebene 1
370
     0
100
AcDb2dPolyline
 66
     1
 10
0.0
 20
0.0
 30
0.0
  0
VERTEX
  5
65A
330
659
100
AcDbEntity
  8
Ebene 1
370
     0
100
AcDbVertex
100
AcDb2dVertex
 10
491.8671875
 20
62.05859375
 30
0.0
  0
VERTEX
  5
65B
330
659
100
AcDbEntity
  8
Ebene 1
370
     0
100
AcDbVertex
100
AcDb2dVertex
 10
491.8671875
 20
60.779296875
 30
0.0
  0
SEQEND
  5
65C
330
659
100
AcDbEntity
  8
Ebene 1
370
     0
  0
POLYLINE
  5
65D
330
3C
100
AcDbEntity
  8
Ebene 1
370
     0
100
AcDb2dPolyline
 66
     1
 10
0.0
 20
0.0
 30
0.0
  0
VERTEX
  5
65E
330
65D
100
AcDbEntity
  8
Ebene 1
370
     0
100
AcDbVertex
100
AcDb2dVertex
 10
492.75
 20
41.279296875
 30
0.0
  0
VERTEX
  5
65F
330
65D
100
AcDbEntity
  8
Ebene 1
370
     0
100
AcDbVertex
100
AcDb2dVertex
 10
492.4853515625
 20
41.2353515625
 30
0.0
  0
VERTEX
  5
660
330
65D
100
AcDbEntity
  8
Ebene 1
370
     0
100
AcDbVertex
100
AcDb2dVertex
 10
492.30859375
 20
42.912109375
 30
0.0
  0
VERTEX
  5
661
330
65D
100
AcDbEntity
  8
Ebene 1
370
     0
100
AcDbVertex
100
AcDb2dVertex
 10
492.087890625
 20
46.0439453125
 30
0.0
  0
VERTEX
  5
662
330
65D
100
AcDbEntity
  8
Ebene 1
370
     0
100
AcDbVertex
100
AcDb2dVertex
 10
492.0
 20
50.3671875
 30
0.0
  0
SEQEND
  5
663
330
65D
100
AcDbEntity
  8
Ebene 1
370
     0
  0
POLYLINE
  5
664
330
3C
100
AcDbEntity
  8
Ebene 1
370
     0
100
AcDb2dPolyline
 66
     1
 10
0.0
 20
0.0
 30
0.0
  0
VERTEX
  5
665
330
664
100
AcDbEntity
  8
Ebene 1
370
     0
100
AcDbVertex
100
AcDb2dVertex
 10
495.0
 20
37.220703125
 30
0.0
  0
VERTEX
  5
666
330
664
100
AcDbEntity
  8
Ebene 1
370
     0
100
AcDbVertex
100
AcDb2dVertex
 10
493.853515625
 20
37.3525390625
 30
0.0
  0
SEQEND
  5
667
330
664
100
AcDbEntity
  8
Ebene 1
370
     0
  0
POLYLINE
  5
668
330
3C
100
AcDbEntity
  8
Ebene 1
370
     0
100
AcDb2dPolyline
 66
     1
 10
0.0
 20
0.0
 30
0.0
  0
VERTEX
  5
669
330
668
100
AcDbEntity
  8
Ebene 1
370
     0
100
AcDbVertex
100
AcDb2dVertex
 10
492.75
 20
41.279296875
 30
0.0
  0
VERTEX
  5
66A
330
668
100
AcDbEntity
  8
Ebene 1
370
     0
100
AcDbVertex
100
AcDb2dVertex
 10
492.75
 20
41.412109375
 30
0.0
  0
VERTEX
  5
66B
330
668
100
AcDbEntity
  8
Ebene 1
370
     0
100
AcDbVertex
100
AcDb2dVertex
 10
492.75
 20
41.4560546875
 30
0.0
  0
SEQEND
  5
66C
330
668
100
AcDbEntity
  8
Ebene 1
370
     0
  0
POLYLINE
  5
66D
330
3C
100
AcDbEntity
  8
Ebene 1
370
     0
100
AcDb2dPolyline
 66
     1
 10
0.0
 20
0.0
 30
0.0
  0
VERTEX
  5
66E
330
66D
100
AcDbEntity
  8
Ebene 1
370
     0
100
AcDbVertex
100
AcDb2dVertex
 10
495.0
 20
35.8974609375
 30
0.0
  0
VERTEX
  5
66F
330
66D
100
AcDbEntity
  8
Ebene 1
370
     0
100
AcDbVertex
100
AcDb2dVertex
 10
493.4560546875
 20
34.9267578125
 30
0.0
  0
SEQEND
  5
670
330
66D
100
AcDbEntity
  8
Ebene 1
370
     0
  0
POLYLINE
  5
671
330
3C
100
AcDbEntity
  8
Ebene 1
370
     0
100
AcDb2dPolyline
 66
     1
 10
0.0
 20
0.0
 30
0.0
  0
VERTEX
  5
672
330
671
100
AcDbEntity
  8
Ebene 1
370
     0
100
AcDbVertex
100
AcDb2dVertex
 10
493.32421875
 20
34.7060546875
 30
0.0
  0
VERTEX
  5
673
330
671
100
AcDbEntity
  8
Ebene 1
370
     0
100
AcDbVertex
100
AcDb2dVertex
 10
495.0
 20
34.3525390625
 30
0.0
  0
SEQEND
  5
674
330
671
100
AcDbEntity
  8
Ebene 1
370
     0
  0
POLYLINE
  5
675
330
3C
100
AcDbEntity
  8
Ebene 1
370
     0
100
AcDb2dPolyline
 66
     1
 10
0.0
 20
0.0
 30
0.0
  0
VERTEX
  5
676
330
675
100
AcDbEntity
  8
Ebene 1
370
     0
100
AcDbVertex
100
AcDb2dVertex
 10
493.32421875
 20
34.7060546875
 30
0.0
  0
VERTEX
  5
677
330
675
100
AcDbEntity
  8
Ebene 1
370
     0
100
AcDbVertex
100
AcDb2dVertex
 10
491.646484375
 20
34.7060546875
 30
0.0
  0
SEQEND
  5
678
330
675
100
AcDbEntity
  8
Ebene 1
370
     0
  0
POLYLINE
  5
679
330
3C
100
AcDbEntity
  8
Ebene 1
370
     0
100
AcDb2dPolyline
 66
     1
 10
0.0
 20
0.0
 30
0.0
  0
VERTEX
  5
67A
330
679
100
AcDbEntity
  8
Ebene 1
370
     0
100
AcDbVertex
100
AcDb2dVertex
 10
494.646484375
 20
34.087890625
 30
0.0
  0
VERTEX
  5
67B
330
679
100
AcDbEntity
  8
Ebene 1
370
     0
100
AcDbVertex
100
AcDb2dVertex
 10
495.0
 20
34.087890625
 30
0.0
  0
SEQEND
  5
67C
330
679
100
AcDbEntity
  8
Ebene 1
370
     0
  0
POLYLINE
  5
67D
330
3C
100
AcDbEntity
  8
Ebene 1
370
     0
100
AcDb2dPolyline
 66
     1
 10
0.0
 20
0.0
 30
0.0
  0
VERTEX
  5
67E
330
67D
100
AcDbEntity
  8
Ebene 1
370
     0
100
AcDbVertex
100
AcDb2dVertex
 10
491.82421875
 20
59.5
 30
0.0
  0
VERTEX
  5
67F
330
67D
100
AcDbEntity
  8
Ebene 1
370
     0
100
AcDbVertex
100
AcDb2dVertex
 10
491.779296875
 20
59.412109375
 30
0.0
  0
VERTEX
  5
680
330
67D
100
AcDbEntity
  8
Ebene 1
370
     0
100
AcDbVertex
100
AcDb2dVertex
 10
491.779296875
 20
59.279296875
 30
0.0
  0
SEQEND
  5
681
330
67D
100
AcDbEntity
  8
Ebene 1
370
     0
  0
POLYLINE
  5
682
330
3C
100
AcDbEntity
  8
Ebene 1
370
     0
100
AcDb2dPolyline
 66
     1
 10
0.0
 20
0.0
 30
0.0
  0
VERTEX
  5
683
330
682
100
AcDbEntity
  8
Ebene 1
370
     0
100
AcDbVertex
100
AcDb2dVertex
 10
491.8671875
 20
60.779296875
 30
0.0
  0
VERTEX
  5
684
330
682
100
AcDbEntity
  8
Ebene 1
370
     0
100
AcDbVertex
100
AcDb2dVertex
 10
491.82421875
 20
60.779296875
 30
0.0
  0
SEQEND
  5
685
330
682
100
AcDbEntity
  8
Ebene 1
370
     0
  0
POLYLINE
  5
686
330
3C
100
AcDbEntity
  8
Ebene 1
370
     0
100
AcDb2dPolyline
 66
     1
 10
0.0
 20
0.0
 30
0.0
  0
VERTEX
  5
687
330
686
100
AcDbEntity
  8
Ebene 1
370
     0
100
AcDbVertex
100
AcDb2dVertex
 10
455.337890625
 20
18.5146484375
 30
0.0
  0
VERTEX
  5
688
330
686
100
AcDbEntity
  8
Ebene 1
370
     0
100
AcDbVertex
100
AcDb2dVertex
 10
455.337890625
 20
34.75
 30
0.0
  0
SEQEND
  5
689
330
686
100
AcDbEntity
  8
Ebene 1
370
     0
  0
POLYLINE
  5
68A
330
3C
100
AcDbEntity
  8
Ebene 1
370
     0
100
AcDb2dPolyline
 66
     1
 10
0.0
 20
0.0
 30
0.0
  0
VERTEX
  5
68B
330
68A
100
AcDbEntity
  8
Ebene 1
370
     0
100
AcDbVertex
100
AcDb2dVertex
 10
455.337890625
 20
59.9853515625
 30
0.0
  0
VERTEX
  5
68C
330
68A
100
AcDbEntity
  8
Ebene 1
370
     0
100
AcDbVertex
100
AcDb2dVertex
 10
455.337890625
 20
76.220703125
 30
0.0
  0
SEQEND
  5
68D
330
68A
100
AcDbEntity
  8
Ebene 1
370
     0
  0
POLYLINE
  5
68E
330
3C
100
AcDbEntity
  8
Ebene 1
370
     0
100
AcDb2dPolyline
 66
     1
 10
0.0
 20
0.0
 30
0.0
  0
VERTEX
  5
68F
330
68E
100
AcDbEntity
  8
Ebene 1
370
     0
100
AcDbVertex
100
AcDb2dVertex
 10
383.2939453125
 20
76.220703125
 30
0.0
  0
VERTEX
  5
690
330
68E
100
AcDbEntity
  8
Ebene 1
370
     0
100
AcDbVertex
100
AcDb2dVertex
 10
383.2939453125
 20
59.9853515625
 30
0.0
  0
SEQEND
  5
691
330
68E
100
AcDbEntity
  8
Ebene 1
370
     0
  0
POLYLINE
  5
692
330
3C
100
AcDbEntity
  8
Ebene 1
370
     0
100
AcDb2dPolyline
 66
     1
 10
0.0
 20
0.0
 30
0.0
  0
VERTEX
  5
693
330
692
100
AcDbEntity
  8
Ebene 1
370
     0
100
AcDbVertex
100
AcDb2dVertex
 10
383.2939453125
 20
34.75
 30
0.0
  0
VERTEX
  5
694
330
692
100
AcDbEntity
  8
Ebene 1
370
     0
100
AcDbVertex
100
AcDb2dVertex
 10
383.2939453125
 20
18.5146484375
 30
0.0
  0
SEQEND
  5
695
330
692
100
AcDbEntity
  8
Ebene 1
370
     0
  0
POLYLINE
  5
696
330
3C
100
AcDbEntity
  8
Ebene 1
370
     0
100
AcDb2dPolyline
 66
     1
 10
0.0
 20
0.0
 30
0.0
  0
VERTEX
  5
697
330
696
100
AcDbEntity
  8
Ebene 1
370
     0
100
AcDbVertex
100
AcDb2dVertex
 10
386.912109375
 20
79.7939453125
 30
0.0
  0
VERTEX
  5
698
330
696
100
AcDbEntity
  8
Ebene 1
370
     0
100
AcDbVertex
100
AcDb2dVertex
 10
386.2939453125
 20
79.75
 30
0.0
  0
VERTEX
  5
699
330
696
100
AcDbEntity
  8
Ebene 1
370
     0
100
AcDbVertex
100
AcDb2dVertex
 10
385.67578125
 20
79.5732421875
 30
0.0
  0
VERTEX
  5
69A
330
696
100
AcDbEntity
  8
Ebene 1
370
     0
100
AcDbVertex
100
AcDb2dVertex
 10
385.146484375
 20
79.30859375
 30
0.0
  0
VERTEX
  5
69B
330
696
100
AcDbEntity
  8
Ebene 1
370
     0
100
AcDbVertex
100
AcDb2dVertex
 10
384.6171875
 20
78.9560546875
 30
0.0
  0
VERTEX
  5
69C
330
696
100
AcDbEntity
  8
Ebene 1
370
     0
100
AcDbVertex
100
AcDb2dVertex
 10
384.17578125
 20
78.5146484375
 30
0.0
  0
VERTEX
  5
69D
330
696
100
AcDbEntity
  8
Ebene 1
370
     0
100
AcDbVertex
100
AcDb2dVertex
 10
383.82421875
 20
78.029296875
 30
0.0
  0
VERTEX
  5
69E
330
696
100
AcDbEntity
  8
Ebene 1
370
     0
100
AcDbVertex
100
AcDb2dVertex
 10
383.55859375
 20
77.4560546875
 30
0.0
  0
VERTEX
  5
69F
330
696
100
AcDbEntity
  8
Ebene 1
370
     0
100
AcDbVertex
100
AcDb2dVertex
 10
383.3828125
 20
76.837890625
 30
0.0
  0
VERTEX
  5
6A0
330
696
100
AcDbEntity
  8
Ebene 1
370
     0
100
AcDbVertex
100
AcDb2dVertex
 10
383.337890625
 20
76.220703125
 30
0.0
  0
SEQEND
  5
6A1
330
696
100
AcDbEntity
  8
Ebene 1
370
     0
  0
POLYLINE
  5
6A2
330
3C
100
AcDbEntity
  8
Ebene 1
370
     0
100
AcDb2dPolyline
 66
     1
 10
0.0
 20
0.0
 30
0.0
  0
VERTEX
  5
6A3
330
6A2
100
AcDbEntity
  8
Ebene 1
370
     0
100
AcDbVertex
100
AcDb2dVertex
 10
455.337890625
 20
76.220703125
 30
0.0
  0
VERTEX
  5
6A4
330
6A2
100
AcDbEntity
  8
Ebene 1
370
     0
100
AcDbVertex
100
AcDb2dVertex
 10
455.2939453125
 20
76.837890625
 30
0.0
  0
VERTEX
  5
6A5
330
6A2
100
AcDbEntity
  8
Ebene 1
370
     0
100
AcDbVertex
100
AcDb2dVertex
 10
455.1171875
 20
77.4560546875
 30
0.0
  0
VERTEX
  5
6A6
330
6A2
100
AcDbEntity
  8
Ebene 1
370
     0
100
AcDbVertex
100
AcDb2dVertex
 10
454.853515625
 20
78.029296875
 30
0.0
  0
VERTEX
  5
6A7
330
6A2
100
AcDbEntity
  8
Ebene 1
370
     0
100
AcDbVertex
100
AcDb2dVertex
 10
454.5
 20
78.5146484375
 30
0.0
  0
VERTEX
  5
6A8
330
6A2
100
AcDbEntity
  8
Ebene 1
370
     0
100
AcDbVertex
100
AcDb2dVertex
 10
454.05859375
 20
78.9560546875
 30
0.0
  0
VERTEX
  5
6A9
330
6A2
100
AcDbEntity
  8
Ebene 1
370
     0
100
AcDbVertex
100
AcDb2dVertex
 10
453.57421875
 20
79.30859375
 30
0.0
  0
VERTEX
  5
6AA
330
6A2
100
AcDbEntity
  8
Ebene 1
370
     0
100
AcDbVertex
100
AcDb2dVertex
 10
453.0
 20
79.5732421875
 30
0.0
  0
VERTEX
  5
6AB
330
6A2
100
AcDbEntity
  8
Ebene 1
370
     0
100
AcDbVertex
100
AcDb2dVertex
 10
452.3828125
 20
79.75
 30
0.0
  0
VERTEX
  5
6AC
330
6A2
100
AcDbEntity
  8
Ebene 1
370
     0
100
AcDbVertex
100
AcDb2dVertex
 10
451.7646484375
 20
79.7939453125
 30
0.0
  0
SEQEND
  5
6AD
330
6A2
100
AcDbEntity
  8
Ebene 1
370
     0
  0
POLYLINE
  5
6AE
330
3C
100
AcDbEntity
  8
Ebene 1
370
     0
100
AcDb2dPolyline
 66
     1
 10
0.0
 20
0.0
 30
0.0
  0
VERTEX
  5
6AF
330
6AE
100
AcDbEntity
  8
Ebene 1
370
     0
100
AcDbVertex
100
AcDb2dVertex
 10
383.337890625
 20
18.5146484375
 30
0.0
  0
VERTEX
  5
6B0
330
6AE
100
AcDbEntity
  8
Ebene 1
370
     0
100
AcDbVertex
100
AcDb2dVertex
 10
383.42578125
 20
17.80859375
 30
0.0
  0
VERTEX
  5
6B1
330
6AE
100
AcDbEntity
  8
Ebene 1
370
     0
100
AcDbVertex
100
AcDb2dVertex
 10
383.603515625
 20
17.1474609375
 30
0.0
  0
VERTEX
  5
6B2
330
6AE
100
AcDbEntity
  8
Ebene 1
370
     0
100
AcDbVertex
100
AcDb2dVertex
 10
383.9560546875
 20
16.529296875
 30
0.0
  0
VERTEX
  5
6B3
330
6AE
100
AcDbEntity
  8
Ebene 1
370
     0
100
AcDbVertex
100
AcDb2dVertex
 10
384.396484375
 20
16.0
 30
0.0
  0
VERTEX
  5
6B4
330
6AE
100
AcDbEntity
  8
Ebene 1
370
     0
100
AcDbVertex
100
AcDb2dVertex
 10
384.92578125
 20
15.55859375
 30
0.0
  0
VERTEX
  5
6B5
330
6AE
100
AcDbEntity
  8
Ebene 1
370
     0
100
AcDbVertex
100
AcDb2dVertex
 10
385.5439453125
 20
15.2060546875
 30
0.0
  0
VERTEX
  5
6B6
330
6AE
100
AcDbEntity
  8
Ebene 1
370
     0
100
AcDbVertex
100
AcDb2dVertex
 10
386.2060546875
 20
15.029296875
 30
0.0
  0
VERTEX
  5
6B7
330
6AE
100
AcDbEntity
  8
Ebene 1
370
     0
100
AcDbVertex
100
AcDb2dVertex
 10
386.912109375
 20
14.94140625
 30
0.0
  0
SEQEND
  5
6B8
330
6AE
100
AcDbEntity
  8
Ebene 1
370
     0
  0
POLYLINE
  5
6B9
330
3C
100
AcDbEntity
  8
Ebene 1
370
     0
100
AcDb2dPolyline
 66
     1
 10
0.0
 20
0.0
 30
0.0
  0
VERTEX
  5
6BA
330
6B9
100
AcDbEntity
  8
Ebene 1
370
     0
100
AcDbVertex
100
AcDb2dVertex
 10
451.7646484375
 20
14.94140625
 30
0.0
  0
VERTEX
  5
6BB
330
6B9
100
AcDbEntity
  8
Ebene 1
370
     0
100
AcDbVertex
100
AcDb2dVertex
 10
452.3828125
 20
14.9853515625
 30
0.0
  0
VERTEX
  5
6BC
330
6B9
100
AcDbEntity
  8
Ebene 1
370
     0
100
AcDbVertex
100
AcDb2dVertex
 10
453.0
 20
15.162109375
 30
0.0
  0
VERTEX
  5
6BD
330
6B9
100
AcDbEntity
  8
Ebene 1
370
     0
100
AcDbVertex
100
AcDb2dVertex
 10
453.57421875
 20
15.4267578125
 30
0.0
  0
VERTEX
  5
6BE
330
6B9
100
AcDbEntity
  8
Ebene 1
370
     0
100
AcDbVertex
100
AcDb2dVertex
 10
454.05859375
 20
15.779296875
 30
0.0
  0
VERTEX
  5
6BF
330
6B9
100
AcDbEntity
  8
Ebene 1
370
     0
100
AcDbVertex
100
AcDb2dVertex
 10
454.5
 20
16.220703125
 30
0.0
  0
VERTEX
  5
6C0
330
6B9
100
AcDbEntity
  8
Ebene 1
370
     0
100
AcDbVertex
100
AcDb2dVertex
 10
454.853515625
 20
16.75
 30
0.0
  0
VERTEX
  5
6C1
330
6B9
100
AcDbEntity
  8
Ebene 1
370
     0
100
AcDbVertex
100
AcDb2dVertex
 10
455.1171875
 20
17.279296875
 30
0.0
  0
VERTEX
  5
6C2
330
6B9
100
AcDbEntity
  8
Ebene 1
370
     0
100
AcDbVertex
100
AcDb2dVertex
 10
455.2939453125
 20
17.8974609375
 30
0.0
  0
VERTEX
  5
6C3
330
6B9
100
AcDbEntity
  8
Ebene 1
370
     0
100
AcDbVertex
100
AcDb2dVertex
 10
455.337890625
 20
18.5146484375
 30
0.0
  0
SEQEND
  5
6C4
330
6B9
100
AcDbEntity
  8
Ebene 1
370
     0
  0
POLYLINE
  5
6C5
330
3C
100
AcDbEntity
  8
Ebene 1
370
     0
100
AcDb2dPolyline
 66
     1
 10
0.0
 20
0.0
 30
0.0
  0
VERTEX
  5
6C6
330
6C5
100
AcDbEntity
  8
Ebene 1
370
     0
100
AcDbVertex
100
AcDb2dVertex
 10
386.912109375
 20
79.7939453125
 30
0.0
  0
VERTEX
  5
6C7
330
6C5
100
AcDbEntity
  8
Ebene 1
370
     0
100
AcDbVertex
100
AcDb2dVertex
 10
451.7646484375
 20
79.7939453125
 30
0.0
  0
SEQEND
  5
6C8
330
6C5
100
AcDbEntity
  8
Ebene 1
370
     0
  0
POLYLINE
  5
6C9
330
3C
100
AcDbEntity
  8
Ebene 1
370
     0
100
AcDb2dPolyline
 66
     1
 10
0.0
 20
0.0
 30
0.0
  0
VERTEX
  5
6CA
330
6C9
100
AcDbEntity
  8
Ebene 1
370
     0
100
AcDbVertex
100
AcDb2dVertex
 10
451.7646484375
 20
14.8974609375
 30
0.0
  0
VERTEX
  5
6CB
330
6C9
100
AcDbEntity
  8
Ebene 1
370
     0
100
AcDbVertex
100
AcDb2dVertex
 10
386.912109375
 20
14.8974609375
 30
0.0
  0
SEQEND
  5
6CC
330
6C9
100
AcDbEntity
  8
Ebene 1
370
     0
  0
POLYLINE
  5
6CD
330
3C
100
AcDbEntity
  8
Ebene 1
370
     0
100
AcDb2dPolyline
 66
     1
 10
0.0
 20
0.0
 30
0.0
  0
VERTEX
  5
6CE
330
6CD
100
AcDbEntity
  8
Ebene 1
370
     0
100
AcDbVertex
100
AcDb2dVertex
 10
383.2939453125
 20
18.5146484375
 30
0.0
  0
VERTEX
  5
6CF
330
6CD
100
AcDbEntity
  8
Ebene 1
370
     0
100
AcDbVertex
100
AcDb2dVertex
 10
455.337890625
 20
18.5146484375
 30
0.0
  0
SEQEND
  5
6D0
330
6CD
100
AcDbEntity
  8
Ebene 1
370
     0
  0
POLYLINE
  5
6D1
330
3C
100
AcDbEntity
  8
Ebene 1
370
     0
100
AcDb2dPolyline
 66
     1
 10
0.0
 20
0.0
 30
0.0
  0
VERTEX
  5
6D2
330
6D1
100
AcDbEntity
  8
Ebene 1
370
     0
100
AcDbVertex
100
AcDb2dVertex
 10
455.337890625
 20
76.220703125
 30
0.0
  0
VERTEX
  5
6D3
330
6D1
100
AcDbEntity
  8
Ebene 1
370
     0
100
AcDbVertex
100
AcDb2dVertex
 10
383.2939453125
 20
76.220703125
 30
0.0
  0
SEQEND
  5
6D4
330
6D1
100
AcDbEntity
  8
Ebene 1
370
     0
  0
POLYLINE
  5
6D5
330
3C
100
AcDbEntity
  8
Ebene 1
370
     0
100
AcDb2dPolyline
 66
     1
 10
0.0
 20
0.0
 30
0.0
  0
VERTEX
  5
6D6
330
6D5
100
AcDbEntity
  8
Ebene 1
370
     0
100
AcDbVertex
100
AcDb2dVertex
 10
386.912109375
 20
56.3671875
 30
0.0
  0
VERTEX
  5
6D7
330
6D5
100
AcDbEntity
  8
Ebene 1
370
     0
100
AcDbVertex
100
AcDb2dVertex
 10
451.7646484375
 20
56.3671875
 30
0.0
  0
SEQEND
  5
6D8
330
6D5
100
AcDbEntity
  8
Ebene 1
370
     0
  0
POLYLINE
  5
6D9
330
3C
100
AcDbEntity
  8
Ebene 1
370
     0
100
AcDb2dPolyline
 66
     1
 10
0.0
 20
0.0
 30
0.0
  0
VERTEX
  5
6DA
330
6D9
100
AcDbEntity
  8
Ebene 1
370
     0
100
AcDbVertex
100
AcDb2dVertex
 10
386.912109375
 20
38.3671875
 30
0.0
  0
VERTEX
  5
6DB
330
6D9
100
AcDbEntity
  8
Ebene 1
370
     0
100
AcDbVertex
100
AcDb2dVertex
 10
451.7646484375
 20
38.3671875
 30
0.0
  0
SEQEND
  5
6DC
330
6D9
100
AcDbEntity
  8
Ebene 1
370
     0
  0
POLYLINE
  5
6DD
330
3C
100
AcDbEntity
  8
Ebene 1
370
     0
100
AcDb2dPolyline
 66
     1
 10
0.0
 20
0.0
 30
0.0
  0
VERTEX
  5
6DE
330
6DD
100
AcDbEntity
  8
Ebene 1
370
     0
100
AcDbVertex
100
AcDb2dVertex
 10
399.4853515625
 20
56.3671875
 30
0.0
  0
VERTEX
  5
6DF
330
6DD
100
AcDbEntity
  8
Ebene 1
370
     0
100
AcDbVertex
100
AcDb2dVertex
 10
399.4853515625
 20
38.3671875
 30
0.0
  0
SEQEND
  5
6E0
330
6DD
100
AcDbEntity
  8
Ebene 1
370
     0
  0
POLYLINE
  5
6E1
330
3C
100
AcDbEntity
  8
Ebene 1
370
     0
100
AcDb2dPolyline
 66
     1
 10
0.0
 20
0.0
 30
0.0
  0
VERTEX
  5
6E2
330
6E1
100
AcDbEntity
  8
Ebene 1
370
     0
100
AcDbVertex
100
AcDb2dVertex
 10
439.146484375
 20
56.3671875
 30
0.0
  0
VERTEX
  5
6E3
330
6E1
100
AcDbEntity
  8
Ebene 1
370
     0
100
AcDbVertex
100
AcDb2dVertex
 10
439.146484375
 20
38.3671875
 30
0.0
  0
SEQEND
  5
6E4
330
6E1
100
AcDbEntity
  8
Ebene 1
370
     0
  0
POLYLINE
  5
6E5
330
3C
100
AcDbEntity
  8
Ebene 1
370
     0
100
AcDb2dPolyline
 66
     1
 10
0.0
 20
0.0
 30
0.0
  0
VERTEX
  5
6E6
330
6E5
100
AcDbEntity
  8
Ebene 1
370
     0
100
AcDbVertex
100
AcDb2dVertex
 10
383.337890625
 20
59.9853515625
 30
0.0
  0
VERTEX
  5
6E7
330
6E5
100
AcDbEntity
  8
Ebene 1
370
     0
100
AcDbVertex
100
AcDb2dVertex
 10
383.42578125
 20
59.279296875
 30
0.0
  0
VERTEX
  5
6E8
330
6E5
100
AcDbEntity
  8
Ebene 1
370
     0
100
AcDbVertex
100
AcDb2dVertex
 10
383.603515625
 20
58.6171875
 30
0.0
  0
VERTEX
  5
6E9
330
6E5
100
AcDbEntity
  8
Ebene 1
370
     0
100
AcDbVertex
100
AcDb2dVertex
 10
383.9560546875
 20
58.0
 30
0.0
  0
VERTEX
  5
6EA
330
6E5
100
AcDbEntity
  8
Ebene 1
370
     0
100
AcDbVertex
100
AcDb2dVertex
 10
384.396484375
 20
57.470703125
 30
0.0
  0
VERTEX
  5
6EB
330
6E5
100
AcDbEntity
  8
Ebene 1
370
     0
100
AcDbVertex
100
AcDb2dVertex
 10
384.92578125
 20
57.029296875
 30
0.0
  0
VERTEX
  5
6EC
330
6E5
100
AcDbEntity
  8
Ebene 1
370
     0
100
AcDbVertex
100
AcDb2dVertex
 10
385.5439453125
 20
56.6767578125
 30
0.0
  0
VERTEX
  5
6ED
330
6E5
100
AcDbEntity
  8
Ebene 1
370
     0
100
AcDbVertex
100
AcDb2dVertex
 10
386.2060546875
 20
56.5
 30
0.0
  0
VERTEX
  5
6EE
330
6E5
100
AcDbEntity
  8
Ebene 1
370
     0
100
AcDbVertex
100
AcDb2dVertex
 10
386.912109375
 20
56.412109375
 30
0.0
  0
SEQEND
  5
6EF
330
6E5
100
AcDbEntity
  8
Ebene 1
370
     0
  0
POLYLINE
  5
6F0
330
3C
100
AcDbEntity
  8
Ebene 1
370
     0
100
AcDb2dPolyline
 66
     1
 10
0.0
 20
0.0
 30
0.0
  0
VERTEX
  5
6F1
330
6F0
100
AcDbEntity
  8
Ebene 1
370
     0
100
AcDbVertex
100
AcDb2dVertex
 10
451.7646484375
 20
56.412109375
 30
0.0
  0
VERTEX
  5
6F2
330
6F0
100
AcDbEntity
  8
Ebene 1
370
     0
100
AcDbVertex
100
AcDb2dVertex
 10
452.3828125
 20
56.4560546875
 30
0.0
  0
VERTEX
  5
6F3
330
6F0
100
AcDbEntity
  8
Ebene 1
370
     0
100
AcDbVertex
100
AcDb2dVertex
 10
453.0
 20
56.6328125
 30
0.0
  0
VERTEX
  5
6F4
330
6F0
100
AcDbEntity
  8
Ebene 1
370
     0
100
AcDbVertex
100
AcDb2dVertex
 10
453.57421875
 20
56.8974609375
 30
0.0
  0
VERTEX
  5
6F5
330
6F0
100
AcDbEntity
  8
Ebene 1
370
     0
100
AcDbVertex
100
AcDb2dVertex
 10
454.05859375
 20
57.25
 30
0.0
  0
VERTEX
  5
6F6
330
6F0
100
AcDbEntity
  8
Ebene 1
370
     0
100
AcDbVertex
100
AcDb2dVertex
 10
454.5
 20
57.69140625
 30
0.0
  0
VERTEX
  5
6F7
330
6F0
100
AcDbEntity
  8
Ebene 1
370
     0
100
AcDbVertex
100
AcDb2dVertex
 10
454.853515625
 20
58.220703125
 30
0.0
  0
VERTEX
  5
6F8
330
6F0
100
AcDbEntity
  8
Ebene 1
370
     0
100
AcDbVertex
100
AcDb2dVertex
 10
455.1171875
 20
58.75
 30
0.0
  0
VERTEX
  5
6F9
330
6F0
100
AcDbEntity
  8
Ebene 1
370
     0
100
AcDbVertex
100
AcDb2dVertex
 10
455.2939453125
 20
59.3671875
 30
0.0
  0
VERTEX
  5
6FA
330
6F0
100
AcDbEntity
  8
Ebene 1
370
     0
100
AcDbVertex
100
AcDb2dVertex
 10
455.337890625
 20
59.9853515625
 30
0.0
  0
SEQEND
  5
6FB
330
6F0
100
AcDbEntity
  8
Ebene 1
370
     0
  0
POLYLINE
  5
6FC
330
3C
100
AcDbEntity
  8
Ebene 1
370
     0
100
AcDb2dPolyline
 66
     1
 10
0.0
 20
0.0
 30
0.0
  0
VERTEX
  5
6FD
330
6FC
100
AcDbEntity
  8
Ebene 1
370
     0
100
AcDbVertex
100
AcDb2dVertex
 10
455.337890625
 20
59.9853515625
 30
0.0
  0
VERTEX
  5
6FE
330
6FC
100
AcDbEntity
  8
Ebene 1
370
     0
100
AcDbVertex
100
AcDb2dVertex
 10
383.2939453125
 20
59.9853515625
 30
0.0
  0
SEQEND
  5
6FF
330
6FC
100
AcDbEntity
  8
Ebene 1
370
     0
  0
POLYLINE
  5
700
330
3C
100
AcDbEntity
  8
Ebene 1
370
     0
100
AcDb2dPolyline
 66
     1
 10
0.0
 20
0.0
 30
0.0
  0
VERTEX
  5
701
330
700
100
AcDbEntity
  8
Ebene 1
370
     0
100
AcDbVertex
100
AcDb2dVertex
 10
386.912109375
 20
38.3232421875
 30
0.0
  0
VERTEX
  5
702
330
700
100
AcDbEntity
  8
Ebene 1
370
     0
100
AcDbVertex
100
AcDb2dVertex
 10
386.2939453125
 20
38.279296875
 30
0.0
  0
VERTEX
  5
703
330
700
100
AcDbEntity
  8
Ebene 1
370
     0
100
AcDbVertex
100
AcDb2dVertex
 10
385.67578125
 20
38.1025390625
 30
0.0
  0
VERTEX
  5
704
330
700
100
AcDbEntity
  8
Ebene 1
370
     0
100
AcDbVertex
100
AcDb2dVertex
 10
385.146484375
 20
37.837890625
 30
0.0
  0
VERTEX
  5
705
330
700
100
AcDbEntity
  8
Ebene 1
370
     0
100
AcDbVertex
100
AcDb2dVertex
 10
384.6171875
 20
37.4853515625
 30
0.0
  0
VERTEX
  5
706
330
700
100
AcDbEntity
  8
Ebene 1
370
     0
100
AcDbVertex
100
AcDb2dVertex
 10
384.17578125
 20
37.0439453125
 30
0.0
  0
VERTEX
  5
707
330
700
100
AcDbEntity
  8
Ebene 1
370
     0
100
AcDbVertex
100
AcDb2dVertex
 10
383.82421875
 20
36.55859375
 30
0.0
  0
VERTEX
  5
708
330
700
100
AcDbEntity
  8
Ebene 1
370
     0
100
AcDbVertex
100
AcDb2dVertex
 10
383.55859375
 20
35.9853515625
 30
0.0
  0
VERTEX
  5
709
330
700
100
AcDbEntity
  8
Ebene 1
370
     0
100
AcDbVertex
100
AcDb2dVertex
 10
383.3828125
 20
35.3671875
 30
0.0
  0
VERTEX
  5
70A
330
700
100
AcDbEntity
  8
Ebene 1
370
     0
100
AcDbVertex
100
AcDb2dVertex
 10
383.337890625
 20
34.75
 30
0.0
  0
SEQEND
  5
70B
330
700
100
AcDbEntity
  8
Ebene 1
370
     0
  0
POLYLINE
  5
70C
330
3C
100
AcDbEntity
  8
Ebene 1
370
     0
100
AcDb2dPolyline
 66
     1
 10
0.0
 20
0.0
 30
0.0
  0
VERTEX
  5
70D
330
70C
100
AcDbEntity
  8
Ebene 1
370
     0
100
AcDbVertex
100
AcDb2dVertex
 10
455.337890625
 20
34.75
 30
0.0
  0
VERTEX
  5
70E
330
70C
100
AcDbEntity
  8
Ebene 1
370
     0
100
AcDbVertex
100
AcDb2dVertex
 10
455.2939453125
 20
35.3671875
 30
0.0
  0
VERTEX
  5
70F
330
70C
100
AcDbEntity
  8
Ebene 1
370
     0
100
AcDbVertex
100
AcDb2dVertex
 10
455.1171875
 20
35.9853515625
 30
0.0
  0
VERTEX
  5
710
330
70C
100
AcDbEntity
  8
Ebene 1
370
     0
100
AcDbVertex
100
AcDb2dVertex
 10
454.853515625
 20
36.55859375
 30
0.0
  0
VERTEX
  5
711
330
70C
100
AcDbEntity
  8
Ebene 1
370
     0
100
AcDbVertex
100
AcDb2dVertex
 10
454.5
 20
37.0439453125
 30
0.0
  0
VERTEX
  5
712
330
70C
100
AcDbEntity
  8
Ebene 1
370
     0
100
AcDbVertex
100
AcDb2dVertex
 10
454.05859375
 20
37.4853515625
 30
0.0
  0
VERTEX
  5
713
330
70C
100
AcDbEntity
  8
Ebene 1
370
     0
100
AcDbVertex
100
AcDb2dVertex
 10
453.57421875
 20
37.837890625
 30
0.0
  0
VERTEX
  5
714
330
70C
100
AcDbEntity
  8
Ebene 1
370
     0
100
AcDbVertex
100
AcDb2dVertex
 10
453.0
 20
38.1025390625
 30
0.0
  0
VERTEX
  5
715
330
70C
100
AcDbEntity
  8
Ebene 1
370
     0
100
AcDbVertex
100
AcDb2dVertex
 10
452.3828125
 20
38.279296875
 30
0.0
  0
VERTEX
  5
716
330
70C
100
AcDbEntity
  8
Ebene 1
370
     0
100
AcDbVertex
100
AcDb2dVertex
 10
451.7646484375
 20
38.3232421875
 30
0.0
  0
SEQEND
  5
717
330
70C
100
AcDbEntity
  8
Ebene 1
370
     0
  0
POLYLINE
  5
718
330
3C
100
AcDbEntity
  8
Ebene 1
370
     0
100
AcDb2dPolyline
 66
     1
 10
0.0
 20
0.0
 30
0.0
  0
VERTEX
  5
719
330
718
100
AcDbEntity
  8
Ebene 1
370
     0
100
AcDbVertex
100
AcDb2dVertex
 10
383.2939453125
 20
34.75
 30
0.0
  0
VERTEX
  5
71A
330
718
100
AcDbEntity
  8
Ebene 1
370
     0
100
AcDbVertex
100
AcDb2dVertex
 10
455.337890625
 20
34.75
 30
0.0
  0
SEQEND
  5
71B
330
718
100
AcDbEntity
  8
Ebene 1
370
     0
  0
POLYLINE
  5
71C
330
3C
100
AcDbEntity
  8
Ebene 1
370
     0
100
AcDb2dPolyline
 66
     1
 10
0.0
 20
0.0
 30
0.0
  0
VERTEX
  5
71D
330
71C
100
AcDbEntity
  8
Ebene 1
370
     0
100
AcDbVertex
100
AcDb2dVertex
 10
562.5439453125
 20
127.353515625
 30
0.0
  0
VERTEX
  5
71E
330
71C
100
AcDbEntity
  8
Ebene 1
370
     0
100
AcDbVertex
100
AcDb2dVertex
 10
562.5439453125
 20
-8.1328125
 30
0.0
  0
SEQEND
  5
71F
330
71C
100
AcDbEntity
  8
Ebene 1
370
     0
  0
POLYLINE
  5
720
330
3C
100
AcDbEntity
  8
Ebene 1
370
     0
100
AcDb2dPolyline
 66
     1
 10
0.0
 20
0.0
 30
0.0
  0
VERTEX
  5
721
330
720
100
AcDbEntity
  8
Ebene 1
370
     0
100
AcDbVertex
100
AcDb2dVertex
 10
616.587890625
 20
127.662109375
 30
0.0
  0
VERTEX
  5
722
330
720
100
AcDbEntity
  8
Ebene 1
370
     0
100
AcDbVertex
100
AcDb2dVertex
 10
616.587890625
 20
-7.8232421875
 30
0.0
  0
SEQEND
  5
723
330
720
100
AcDbEntity
  8
Ebene 1
370
     0
  0
POLYLINE
  5
724
330
3C
100
AcDbEntity
  8
Ebene 1
370
     0
100
AcDb2dPolyline
 66
     1
 10
0.0
 20
0.0
 30
0.0
  0
VERTEX
  5
725
330
724
100
AcDbEntity
  8
Ebene 1
370
     0
100
AcDbVertex
100
AcDb2dVertex
 10
635.4267578125
 20
37.7939453125
 30
0.0
  0
VERTEX
  5
726
330
724
100
AcDbEntity
  8
Ebene 1
370
     0
100
AcDbVertex
100
AcDb2dVertex
 10
636.4853515625
 20
37.5732421875
 30
0.0
  0
VERTEX
  5
727
330
724
100
AcDbEntity
  8
Ebene 1
370
     0
100
AcDbVertex
100
AcDb2dVertex
 10
637.587890625
 20
37.44140625
 30
0.0
  0
VERTEX
  5
728
330
724
100
AcDbEntity
  8
Ebene 1
370
     0
100
AcDbVertex
100
AcDb2dVertex
 10
638.69140625
 20
37.44140625
 30
0.0
  0
VERTEX
  5
729
330
724
100
AcDbEntity
  8
Ebene 1
370
     0
100
AcDbVertex
100
AcDb2dVertex
 10
639.7939453125
 20
37.5732421875
 30
0.0
  0
VERTEX
  5
72A
330
724
100
AcDbEntity
  8
Ebene 1
370
     0
100
AcDbVertex
100
AcDb2dVertex
 10
640.8525390625
 20
37.7939453125
 30
0.0
  0
VERTEX
  5
72B
330
724
100
AcDbEntity
  8
Ebene 1
370
     0
100
AcDbVertex
100
AcDb2dVertex
 10
641.912109375
 20
38.1025390625
 30
0.0
  0
VERTEX
  5
72C
330
724
100
AcDbEntity
  8
Ebene 1
370
     0
100
AcDbVertex
100
AcDb2dVertex
 10
642.9267578125
 20
38.5439453125
 30
0.0
  0
VERTEX
  5
72D
330
724
100
AcDbEntity
  8
Ebene 1
370
     0
100
AcDbVertex
100
AcDb2dVertex
 10
643.8974609375
 20
39.0732421875
 30
0.0
  0
VERTEX
  5
72E
330
724
100
AcDbEntity
  8
Ebene 1
370
     0
100
AcDbVertex
100
AcDb2dVertex
 10
644.8232421875
 20
39.69140625
 30
0.0
  0
VERTEX
  5
72F
330
724
100
AcDbEntity
  8
Ebene 1
370
     0
100
AcDbVertex
100
AcDb2dVertex
 10
645.662109375
 20
40.44140625
 30
0.0
  0
VERTEX
  5
730
330
724
100
AcDbEntity
  8
Ebene 1
370
     0
100
AcDbVertex
100
AcDb2dVertex
 10
646.412109375
 20
41.2353515625
 30
0.0
  0
VERTEX
  5
731
330
724
100
AcDbEntity
  8
Ebene 1
370
     0
100
AcDbVertex
100
AcDb2dVertex
 10
647.0732421875
 20
42.1171875
 30
0.0
  0
VERTEX
  5
732
330
724
100
AcDbEntity
  8
Ebene 1
370
     0
100
AcDbVertex
100
AcDb2dVertex
 10
647.6474609375
 20
43.0439453125
 30
0.0
  0
VERTEX
  5
733
330
724
100
AcDbEntity
  8
Ebene 1
370
     0
100
AcDbVertex
100
AcDb2dVertex
 10
648.1328125
 20
44.05859375
 30
0.0
  0
VERTEX
  5
734
330
724
100
AcDbEntity
  8
Ebene 1
370
     0
100
AcDbVertex
100
AcDb2dVertex
 10
648.4853515625
 20
45.1171875
 30
0.0
  0
VERTEX
  5
735
330
724
100
AcDbEntity
  8
Ebene 1
370
     0
100
AcDbVertex
100
AcDb2dVertex
 10
648.75
 20
46.1767578125
 30
0.0
  0
VERTEX
  5
736
330
724
100
AcDbEntity
  8
Ebene 1
370
     0
100
AcDbVertex
100
AcDb2dVertex
 10
648.9267578125
 20
47.279296875
 30
0.0
  0
VERTEX
  5
737
330
724
100
AcDbEntity
  8
Ebene 1
370
     0
100
AcDbVertex
100
AcDb2dVertex
 10
648.970703125
 20
48.3828125
 30
0.0
  0
VERTEX
  5
738
330
724
100
AcDbEntity
  8
Ebene 1
370
     0
100
AcDbVertex
100
AcDb2dVertex
 10
648.8828125
 20
49.4853515625
 30
0.0
  0
VERTEX
  5
739
330
724
100
AcDbEntity
  8
Ebene 1
370
     0
100
AcDbVertex
100
AcDb2dVertex
 10
648.7060546875
 20
50.587890625
 30
0.0
  0
VERTEX
  5
73A
330
724
100
AcDbEntity
  8
Ebene 1
370
     0
100
AcDbVertex
100
AcDb2dVertex
 10
648.44140625
 20
51.6474609375
 30
0.0
  0
VERTEX
  5
73B
330
724
100
AcDbEntity
  8
Ebene 1
370
     0
100
AcDbVertex
100
AcDb2dVertex
 10
648.0439453125
 20
52.662109375
 30
0.0
  0
VERTEX
  5
73C
330
724
100
AcDbEntity
  8
Ebene 1
370
     0
100
AcDbVertex
100
AcDb2dVertex
 10
647.5146484375
 20
53.6767578125
 30
0.0
  0
VERTEX
  5
73D
330
724
100
AcDbEntity
  8
Ebene 1
370
     0
100
AcDbVertex
100
AcDb2dVertex
 10
646.94140625
 20
54.6025390625
 30
0.0
  0
VERTEX
  5
73E
330
724
100
AcDbEntity
  8
Ebene 1
370
     0
100
AcDbVertex
100
AcDb2dVertex
 10
646.2353515625
 20
55.44140625
 30
0.0
  0
VERTEX
  5
73F
330
724
100
AcDbEntity
  8
Ebene 1
370
     0
100
AcDbVertex
100
AcDb2dVertex
 10
645.4853515625
 20
56.2353515625
 30
0.0
  0
VERTEX
  5
740
330
724
100
AcDbEntity
  8
Ebene 1
370
     0
100
AcDbVertex
100
AcDb2dVertex
 10
644.6025390625
 20
56.94140625
 30
0.0
  0
VERTEX
  5
741
330
724
100
AcDbEntity
  8
Ebene 1
370
     0
100
AcDbVertex
100
AcDb2dVertex
 10
643.6767578125
 20
57.55859375
 30
0.0
  0
VERTEX
  5
742
330
724
100
AcDbEntity
  8
Ebene 1
370
     0
100
AcDbVertex
100
AcDb2dVertex
 10
642.7060546875
 20
58.0439453125
 30
0.0
  0
VERTEX
  5
743
330
724
100
AcDbEntity
  8
Ebene 1
370
     0
100
AcDbVertex
100
AcDb2dVertex
 10
641.69140625
 20
58.4853515625
 30
0.0
  0
VERTEX
  5
744
330
724
100
AcDbEntity
  8
Ebene 1
370
     0
100
AcDbVertex
100
AcDb2dVertex
 10
640.6328125
 20
58.7939453125
 30
0.0
  0
VERTEX
  5
745
330
724
100
AcDbEntity
  8
Ebene 1
370
     0
100
AcDbVertex
100
AcDb2dVertex
 10
639.529296875
 20
58.970703125
 30
0.0
  0
VERTEX
  5
746
330
724
100
AcDbEntity
  8
Ebene 1
370
     0
100
AcDbVertex
100
AcDb2dVertex
 10
638.470703125
 20
59.05859375
 30
0.0
  0
VERTEX
  5
747
330
724
100
AcDbEntity
  8
Ebene 1
370
     0
100
AcDbVertex
100
AcDb2dVertex
 10
637.3671875
 20
59.0146484375
 30
0.0
  0
VERTEX
  5
748
330
724
100
AcDbEntity
  8
Ebene 1
370
     0
100
AcDbVertex
100
AcDb2dVertex
 10
636.2646484375
 20
58.8828125
 30
0.0
  0
VERTEX
  5
749
330
724
100
AcDbEntity
  8
Ebene 1
370
     0
100
AcDbVertex
100
AcDb2dVertex
 10
635.2060546875
 20
58.6171875
 30
0.0
  0
VERTEX
  5
74A
330
724
100
AcDbEntity
  8
Ebene 1
370
     0
100
AcDbVertex
100
AcDb2dVertex
 10
634.1474609375
 20
58.2646484375
 30
0.0
  0
VERTEX
  5
74B
330
724
100
AcDbEntity
  8
Ebene 1
370
     0
100
AcDbVertex
100
AcDb2dVertex
 10
633.1328125
 20
57.779296875
 30
0.0
  0
VERTEX
  5
74C
330
724
100
AcDbEntity
  8
Ebene 1
370
     0
100
AcDbVertex
100
AcDb2dVertex
 10
632.2060546875
 20
57.2060546875
 30
0.0
  0
VERTEX
  5
74D
330
724
100
AcDbEntity
  8
Ebene 1
370
     0
100
AcDbVertex
100
AcDb2dVertex
 10
631.3232421875
 20
56.5439453125
 30
0.0
  0
VERTEX
  5
74E
330
724
100
AcDbEntity
  8
Ebene 1
370
     0
100
AcDbVertex
100
AcDb2dVertex
 10
630.529296875
 20
55.7939453125
 30
0.0
  0
VERTEX
  5
74F
330
724
100
AcDbEntity
  8
Ebene 1
370
     0
100
AcDbVertex
100
AcDb2dVertex
 10
629.779296875
 20
54.9560546875
 30
0.0
  0
VERTEX
  5
750
330
724
100
AcDbEntity
  8
Ebene 1
370
     0
100
AcDbVertex
100
AcDb2dVertex
 10
629.1171875
 20
54.0732421875
 30
0.0
  0
VERTEX
  5
751
330
724
100
AcDbEntity
  8
Ebene 1
370
     0
100
AcDbVertex
100
AcDb2dVertex
 10
628.587890625
 20
53.1025390625
 30
0.0
  0
VERTEX
  5
752
330
724
100
AcDbEntity
  8
Ebene 1
370
     0
100
AcDbVertex
100
AcDb2dVertex
 10
628.1474609375
 20
52.087890625
 30
0.0
  0
VERTEX
  5
753
330
724
100
AcDbEntity
  8
Ebene 1
370
     0
100
AcDbVertex
100
AcDb2dVertex
 10
627.7939453125
 20
51.029296875
 30
0.0
  0
SEQEND
  5
754
330
724
100
AcDbEntity
  8
Ebene 1
370
     0
  0
POLYLINE
  5
755
330
3C
100
AcDbEntity
  8
Ebene 1
370
     0
100
AcDb2dPolyline
 66
     1
 10
0.0
 20
0.0
 30
0.0
  0
VERTEX
  5
756
330
755
100
AcDbEntity
  8
Ebene 1
370
     0
100
AcDbVertex
100
AcDb2dVertex
 10
539.9560546875
 20
37.7939453125
 30
0.0
  0
VERTEX
  5
757
330
755
100
AcDbEntity
  8
Ebene 1
370
     0
100
AcDbVertex
100
AcDb2dVertex
 10
541.0146484375
 20
37.5732421875
 30
0.0
  0
VERTEX
  5
758
330
755
100
AcDbEntity
  8
Ebene 1
370
     0
100
AcDbVertex
100
AcDb2dVertex
 10
542.1171875
 20
37.44140625
 30
0.0
  0
VERTEX
  5
759
330
755
100
AcDbEntity
  8
Ebene 1
370
     0
100
AcDbVertex
100
AcDb2dVertex
 10
543.220703125
 20
37.44140625
 30
0.0
  0
VERTEX
  5
75A
330
755
100
AcDbEntity
  8
Ebene 1
370
     0
100
AcDbVertex
100
AcDb2dVertex
 10
544.32421875
 20
37.5732421875
 30
0.0
  0
VERTEX
  5
75B
330
755
100
AcDbEntity
  8
Ebene 1
370
     0
100
AcDbVertex
100
AcDb2dVertex
 10
545.3828125
 20
37.7939453125
 30
0.0
  0
VERTEX
  5
75C
330
755
100
AcDbEntity
  8
Ebene 1
370
     0
100
AcDbVertex
100
AcDb2dVertex
 10
546.44140625
 20
38.1025390625
 30
0.0
  0
VERTEX
  5
75D
330
755
100
AcDbEntity
  8
Ebene 1
370
     0
100
AcDbVertex
100
AcDb2dVertex
 10
547.4560546875
 20
38.5439453125
 30
0.0
  0
VERTEX
  5
75E
330
755
100
AcDbEntity
  8
Ebene 1
370
     0
100
AcDbVertex
100
AcDb2dVertex
 10
548.42578125
 20
39.0732421875
 30
0.0
  0
VERTEX
  5
75F
330
755
100
AcDbEntity
  8
Ebene 1
370
     0
100
AcDbVertex
100
AcDb2dVertex
 10
549.353515625
 20
39.69140625
 30
0.0
  0
VERTEX
  5
760
330
755
100
AcDbEntity
  8
Ebene 1
370
     0
100
AcDbVertex
100
AcDb2dVertex
 10
550.19140625
 20
40.44140625
 30
0.0
  0
VERTEX
  5
761
330
755
100
AcDbEntity
  8
Ebene 1
370
     0
100
AcDbVertex
100
AcDb2dVertex
 10
550.94140625
 20
41.2353515625
 30
0.0
  0
VERTEX
  5
762
330
755
100
AcDbEntity
  8
Ebene 1
370
     0
100
AcDbVertex
100
AcDb2dVertex
 10
551.603515625
 20
42.1171875
 30
0.0
  0
VERTEX
  5
763
330
755
100
AcDbEntity
  8
Ebene 1
370
     0
100
AcDbVertex
100
AcDb2dVertex
 10
552.1767578125
 20
43.0439453125
 30
0.0
  0
VERTEX
  5
764
330
755
100
AcDbEntity
  8
Ebene 1
370
     0
100
AcDbVertex
100
AcDb2dVertex
 10
552.662109375
 20
44.05859375
 30
0.0
  0
VERTEX
  5
765
330
755
100
AcDbEntity
  8
Ebene 1
370
     0
100
AcDbVertex
100
AcDb2dVertex
 10
553.0146484375
 20
45.1171875
 30
0.0
  0
VERTEX
  5
766
330
755
100
AcDbEntity
  8
Ebene 1
370
     0
100
AcDbVertex
100
AcDb2dVertex
 10
553.279296875
 20
46.1767578125
 30
0.0
  0
VERTEX
  5
767
330
755
100
AcDbEntity
  8
Ebene 1
370
     0
100
AcDbVertex
100
AcDb2dVertex
 10
553.4560546875
 20
47.279296875
 30
0.0
  0
VERTEX
  5
768
330
755
100
AcDbEntity
  8
Ebene 1
370
     0
100
AcDbVertex
100
AcDb2dVertex
 10
553.5
 20
48.3828125
 30
0.0
  0
VERTEX
  5
769
330
755
100
AcDbEntity
  8
Ebene 1
370
     0
100
AcDbVertex
100
AcDb2dVertex
 10
553.412109375
 20
49.4853515625
 30
0.0
  0
VERTEX
  5
76A
330
755
100
AcDbEntity
  8
Ebene 1
370
     0
100
AcDbVertex
100
AcDb2dVertex
 10
553.2353515625
 20
50.587890625
 30
0.0
  0
VERTEX
  5
76B
330
755
100
AcDbEntity
  8
Ebene 1
370
     0
100
AcDbVertex
100
AcDb2dVertex
 10
552.970703125
 20
51.6474609375
 30
0.0
  0
VERTEX
  5
76C
330
755
100
AcDbEntity
  8
Ebene 1
370
     0
100
AcDbVertex
100
AcDb2dVertex
 10
552.5732421875
 20
52.662109375
 30
0.0
  0
VERTEX
  5
76D
330
755
100
AcDbEntity
  8
Ebene 1
370
     0
100
AcDbVertex
100
AcDb2dVertex
 10
552.0439453125
 20
53.6767578125
 30
0.0
  0
VERTEX
  5
76E
330
755
100
AcDbEntity
  8
Ebene 1
370
     0
100
AcDbVertex
100
AcDb2dVertex
 10
551.470703125
 20
54.6025390625
 30
0.0
  0
VERTEX
  5
76F
330
755
100
AcDbEntity
  8
Ebene 1
370
     0
100
AcDbVertex
100
AcDb2dVertex
 10
550.7646484375
 20
55.44140625
 30
0.0
  0
VERTEX
  5
770
330
755
100
AcDbEntity
  8
Ebene 1
370
     0
100
AcDbVertex
100
AcDb2dVertex
 10
550.0146484375
 20
56.2353515625
 30
0.0
  0
VERTEX
  5
771
330
755
100
AcDbEntity
  8
Ebene 1
370
     0
100
AcDbVertex
100
AcDb2dVertex
 10
549.1328125
 20
56.94140625
 30
0.0
  0
VERTEX
  5
772
330
755
100
AcDbEntity
  8
Ebene 1
370
     0
100
AcDbVertex
100
AcDb2dVertex
 10
548.2060546875
 20
57.55859375
 30
0.0
  0
VERTEX
  5
773
330
755
100
AcDbEntity
  8
Ebene 1
370
     0
100
AcDbVertex
100
AcDb2dVertex
 10
547.2353515625
 20
58.0439453125
 30
0.0
  0
VERTEX
  5
774
330
755
100
AcDbEntity
  8
Ebene 1
370
     0
100
AcDbVertex
100
AcDb2dVertex
 10
546.220703125
 20
58.4853515625
 30
0.0
  0
VERTEX
  5
775
330
755
100
AcDbEntity
  8
Ebene 1
370
     0
100
AcDbVertex
100
AcDb2dVertex
 10
545.162109375
 20
58.7939453125
 30
0.0
  0
VERTEX
  5
776
330
755
100
AcDbEntity
  8
Ebene 1
370
     0
100
AcDbVertex
100
AcDb2dVertex
 10
544.05859375
 20
58.970703125
 30
0.0
  0
VERTEX
  5
777
330
755
100
AcDbEntity
  8
Ebene 1
370
     0
100
AcDbVertex
100
AcDb2dVertex
 10
543.0
 20
59.05859375
 30
0.0
  0
VERTEX
  5
778
330
755
100
AcDbEntity
  8
Ebene 1
370
     0
100
AcDbVertex
100
AcDb2dVertex
 10
541.896484375
 20
59.0146484375
 30
0.0
  0
VERTEX
  5
779
330
755
100
AcDbEntity
  8
Ebene 1
370
     0
100
AcDbVertex
100
AcDb2dVertex
 10
540.7939453125
 20
58.8828125
 30
0.0
  0
VERTEX
  5
77A
330
755
100
AcDbEntity
  8
Ebene 1
370
     0
100
AcDbVertex
100
AcDb2dVertex
 10
539.7353515625
 20
58.6171875
 30
0.0
  0
VERTEX
  5
77B
330
755
100
AcDbEntity
  8
Ebene 1
370
     0
100
AcDbVertex
100
AcDb2dVertex
 10
538.67578125
 20
58.2646484375
 30
0.0
  0
VERTEX
  5
77C
330
755
100
AcDbEntity
  8
Ebene 1
370
     0
100
AcDbVertex
100
AcDb2dVertex
 10
537.662109375
 20
57.779296875
 30
0.0
  0
VERTEX
  5
77D
330
755
100
AcDbEntity
  8
Ebene 1
370
     0
100
AcDbVertex
100
AcDb2dVertex
 10
536.7353515625
 20
57.2060546875
 30
0.0
  0
VERTEX
  5
77E
330
755
100
AcDbEntity
  8
Ebene 1
370
     0
100
AcDbVertex
100
AcDb2dVertex
 10
535.853515625
 20
56.5439453125
 30
0.0
  0
VERTEX
  5
77F
330
755
100
AcDbEntity
  8
Ebene 1
370
     0
100
AcDbVertex
100
AcDb2dVertex
 10
535.05859375
 20
55.7939453125
 30
0.0
  0
VERTEX
  5
780
330
755
100
AcDbEntity
  8
Ebene 1
370
     0
100
AcDbVertex
100
AcDb2dVertex
 10
534.30859375
 20
54.9560546875
 30
0.0
  0
VERTEX
  5
781
330
755
100
AcDbEntity
  8
Ebene 1
370
     0
100
AcDbVertex
100
AcDb2dVertex
 10
533.646484375
 20
54.0732421875
 30
0.0
  0
VERTEX
  5
782
330
755
100
AcDbEntity
  8
Ebene 1
370
     0
100
AcDbVertex
100
AcDb2dVertex
 10
533.1171875
 20
53.1025390625
 30
0.0
  0
VERTEX
  5
783
330
755
100
AcDbEntity
  8
Ebene 1
370
     0
100
AcDbVertex
100
AcDb2dVertex
 10
532.67578125
 20
52.087890625
 30
0.0
  0
VERTEX
  5
784
330
755
100
AcDbEntity
  8
Ebene 1
370
     0
100
AcDbVertex
100
AcDb2dVertex
 10
532.32421875
 20
51.029296875
 30
0.0
  0
SEQEND
  5
785
330
755
100
AcDbEntity
  8
Ebene 1
370
     0
  0
POLYLINE
  5
786
330
3C
100
AcDbEntity
  8
Ebene 1
370
     0
100
AcDb2dPolyline
 66
     1
 10
0.0
 20
0.0
 30
0.0
  0
VERTEX
  5
787
330
786
100
AcDbEntity
  8
Ebene 1
370
     0
100
AcDbVertex
100
AcDb2dVertex
 10
500.779296875
 20
101.4560546875
 30
0.0
  0
VERTEX
  5
788
330
786
100
AcDbEntity
  8
Ebene 1
370
     0
100
AcDbVertex
100
AcDb2dVertex
 10
680.6025390625
 20
101.4560546875
 30
0.0
  0
SEQEND
  5
789
330
786
100
AcDbEntity
  8
Ebene 1
370
     0
  0
POLYLINE
  5
78A
330
3C
100
AcDbEntity
  8
Ebene 1
370
     0
100
AcDb2dPolyline
 66
     1
 10
0.0
 20
0.0
 30
0.0
  0
VERTEX
  5
78B
330
78A
100
AcDbEntity
  8
Ebene 1
370
     0
100
AcDbVertex
100
AcDb2dVertex
 10
500.779296875
 20
30.25
 30
0.0
  0
VERTEX
  5
78C
330
78A
100
AcDbEntity
  8
Ebene 1
370
     0
100
AcDbVertex
100
AcDb2dVertex
 10
680.6025390625
 20
30.25
 30
0.0
  0
SEQEND
  5
78D
330
78A
100
AcDbEntity
  8
Ebene 1
370
     0
  0
POLYLINE
  5
78E
330
3C
100
AcDbEntity
  8
Ebene 1
370
     0
100
AcDb2dPolyline
 66
     1
 10
0.0
 20
0.0
 30
0.0
  0
VERTEX
  5
78F
330
78E
100
AcDbEntity
  8
Ebene 1
370
     0
100
AcDbVertex
100
AcDb2dVertex
 10
676.94140625
 20
-3.1025390625
 30
0.0
  0
VERTEX
  5
790
330
78E
100
AcDbEntity
  8
Ebene 1
370
     0
100
AcDbVertex
100
AcDb2dVertex
 10
776.470703125
 20
-3.1025390625
 30
0.0
  0
SEQEND
  5
791
330
78E
100
AcDbEntity
  8
Ebene 1
370
     0
  0
POLYLINE
  5
792
330
3C
100
AcDbEntity
  8
Ebene 1
370
     0
100
AcDb2dPolyline
 66
     1
 10
0.0
 20
0.0
 30
0.0
  0
VERTEX
  5
793
330
792
100
AcDbEntity
  8
Ebene 1
370
     0
100
AcDbVertex
100
AcDb2dVertex
 10
676.94140625
 20
121.2646484375
 30
0.0
  0
VERTEX
  5
794
330
792
100
AcDbEntity
  8
Ebene 1
370
     0
100
AcDbVertex
100
AcDb2dVertex
 10
776.470703125
 20
121.2646484375
 30
0.0
  0
SEQEND
  5
795
330
792
100
AcDbEntity
  8
Ebene 1
370
     0
  0
POLYLINE
  5
796
330
3C
100
AcDbEntity
  8
Ebene 1
370
     0
100
AcDb2dPolyline
 66
     1
 10
0.0
 20
0.0
 30
0.0
  0
VERTEX
  5
797
330
796
100
AcDbEntity
  8
Ebene 1
370
     0
100
AcDbVertex
100
AcDb2dVertex
 10
762.0439453125
 20
14.8974609375
 30
0.0
  0
VERTEX
  5
798
330
796
100
AcDbEntity
  8
Ebene 1
370
     0
100
AcDbVertex
100
AcDb2dVertex
 10
762.0439453125
 20
103.220703125
 30
0.0
  0
SEQEND
  5
799
330
796
100
AcDbEntity
  8
Ebene 1
370
     0
  0
POLYLINE
  5
79A
330
3C
100
AcDbEntity
  8
Ebene 1
370
     0
100
AcDb2dPolyline
 66
     1
 10
0.0
 20
0.0
 30
0.0
  0
VERTEX
  5
79B
330
79A
100
AcDbEntity
  8
Ebene 1
370
     0
100
AcDbVertex
100
AcDb2dVertex
 10
759.0439453125
 20
14.8974609375
 30
0.0
  0
VERTEX
  5
79C
330
79A
100
AcDbEntity
  8
Ebene 1
370
     0
100
AcDbVertex
100
AcDb2dVertex
 10
765.0439453125
 20
14.8974609375
 30
0.0
  0
VERTEX
  5
79D
330
79A
100
AcDbEntity
  8
Ebene 1
370
     0
100
AcDbVertex
100
AcDb2dVertex
 10
762.0439453125
 20
-3.1025390625
 30
0.0
  0
VERTEX
  5
79E
330
79A
100
AcDbEntity
  8
Ebene 1
370
     0
100
AcDbVertex
100
AcDb2dVertex
 10
759.0439453125
 20
14.8974609375
 30
0.0
  0
SEQEND
  5
79F
330
79A
100
AcDbEntity
  8
Ebene 1
370
     0
  0
HATCH
  5
7A0
330
3C
100
AcDbEntity
  8
Ebene 1
 62
   251
420
  6710886
100
AcDbHatch
 10
0.0
 20
0.0
 30
0.0
210
0.0
220
0.0
230
1.0
  2
SOLID
 70
     1
 71
     0
 91
        1
 92
        1
 93
        3
 72
     1
 10
759.0439453125
 20
14.8974609375
 11
765.0439453125
 21
14.8974609375
 72
     1
 10
765.0439453125
 20
14.8974609375
 11
762.0439453125
 21
-3.1025390625
 72
     1
 10
762.0439453125
 20
-3.1025390625
 11
759.0439453125
 21
14.8974609375
 97
        0
 75
     0
 76
     1
 98
        0
  0
POLYLINE
  5
7A1
330
3C
100
AcDbEntity
  8
Ebene 1
370
     0
100
AcDb2dPolyline
 66
     1
 10
0.0
 20
0.0
 30
0.0
  0
VERTEX
  5
7A2
330
7A1
100
AcDbEntity
  8
Ebene 1
370
     0
100
AcDbVertex
100
AcDb2dVertex
 10
759.0439453125
 20
103.220703125
 30
0.0
  0
VERTEX
  5
7A3
330
7A1
100
AcDbEntity
  8
Ebene 1
370
     0
100
AcDbVertex
100
AcDb2dVertex
 10
765.0439453125
 20
103.220703125
 30
0.0
  0
VERTEX
  5
7A4
330
7A1
100
AcDbEntity
  8
Ebene 1
370
     0
100
AcDbVertex
100
AcDb2dVertex
 10
762.0439453125
 20
121.2646484375
 30
0.0
  0
VERTEX
  5
7A5
330
7A1
100
AcDbEntity
  8
Ebene 1
370
     0
100
AcDbVertex
100
AcDb2dVertex
 10
759.0439453125
 20
103.220703125
 30
0.0
  0
SEQEND
  5
7A6
330
7A1
100
AcDbEntity
  8
Ebene 1
370
     0
  0
HATCH
  5
7A7
330
3C
100
AcDbEntity
  8
Ebene 1
 62
   251
420
  6710886
100
AcDbHatch
 10
0.0
 20
0.0
 30
0.0
210
0.0
220
0.0
230
1.0
  2
SOLID
 70
     1
 71
     0
 91
        1
 92
        1
 93
        3
 72
     1
 10
759.0439453125
 20
103.220703125
 11
765.0439453125
 21
103.220703125
 72
     1
 10
765.0439453125
 20
103.220703125
 11
762.0439453125
 21
121.2646484375
 72
     1
 10
762.0439453125
 20
121.2646484375
 11
759.0439453125
 21
103.220703125
 97
        0
 75
     0
 76
     1
 98
        0
  0
POLYLINE
  5
7A8
330
3C
100
AcDbEntity
  8
Ebene 1
370
     0
100
AcDb2dPolyline
 66
     1
 10
0.0
 20
0.0
 30
0.0
  0
VERTEX
  5
7A9
330
7A8
100
AcDbEntity
  8
Ebene 1
370
     0
100
AcDbVertex
100
AcDb2dVertex
 10
733.2353515625
 20
34.3525390625
 30
0.0
  0
VERTEX
  5
7AA
330
7A8
100
AcDbEntity
  8
Ebene 1
370
     0
100
AcDbVertex
100
AcDb2dVertex
 10
733.2353515625
 20
43.44140625
 30
0.0
  0
VERTEX
  5
7AB
330
7A8
100
AcDbEntity
  8
Ebene 1
370
     0
100
AcDbVertex
100
AcDb2dVertex
 10
741.44140625
 20
38.4560546875
 30
0.0
  0
VERTEX
  5
7AC
330
7A8
100
AcDbEntity
  8
Ebene 1
370
     0
100
AcDbVertex
100
AcDb2dVertex
 10
741.44140625
 20
40.9267578125
 30
0.0
  0
VERTEX
  5
7AD
330
7A8
100
AcDbEntity
  8
Ebene 1
370
     0
100
AcDbVertex
100
AcDb2dVertex
 10
742.5
 20
42.6025390625
 30
0.0
  0
VERTEX
  5
7AE
330
7A8
100
AcDbEntity
  8
Ebene 1
370
     0
100
AcDbVertex
100
AcDb2dVertex
 10
743.5146484375
 20
43.44140625
 30
0.0
  0
VERTEX
  5
7AF
330
7A8
100
AcDbEntity
  8
Ebene 1
370
     0
100
AcDbVertex
100
AcDb2dVertex
 10
746.6025390625
 20
44.2353515625
 30
0.0
  0
VERTEX
  5
7B0
330
7A8
100
AcDbEntity
  8
Ebene 1
370
     0
100
AcDbVertex
100
AcDb2dVertex
 10
748.6767578125
 20
44.2353515625
 30
0.0
  0
VERTEX
  5
7B1
330
7A8
100
AcDbEntity
  8
Ebene 1
370
     0
100
AcDbVertex
100
AcDb2dVertex
 10
751.7646484375
 20
43.44140625
 30
0.0
  0
VERTEX
  5
7B2
330
7A8
100
AcDbEntity
  8
Ebene 1
370
     0
100
AcDbVertex
100
AcDb2dVertex
 10
753.7939453125
 20
41.7646484375
 30
0.0
  0
VERTEX
  5
7B3
330
7A8
100
AcDbEntity
  8
Ebene 1
370
     0
100
AcDbVertex
100
AcDb2dVertex
 10
754.8525390625
 20
39.2939453125
 30
0.0
  0
VERTEX
  5
7B4
330
7A8
100
AcDbEntity
  8
Ebene 1
370
     0
100
AcDbVertex
100
AcDb2dVertex
 10
754.8525390625
 20
36.8232421875
 30
0.0
  0
VERTEX
  5
7B5
330
7A8
100
AcDbEntity
  8
Ebene 1
370
     0
100
AcDbVertex
100
AcDb2dVertex
 10
753.7939453125
 20
34.3525390625
 30
0.0
  0
VERTEX
  5
7B6
330
7A8
100
AcDbEntity
  8
Ebene 1
370
     0
100
AcDbVertex
100
AcDb2dVertex
 10
752.779296875
 20
33.5146484375
 30
0.0
  0
VERTEX
  5
7B7
330
7A8
100
AcDbEntity
  8
Ebene 1
370
     0
100
AcDbVertex
100
AcDb2dVertex
 10
750.7060546875
 20
32.720703125
 30
0.0
  0
SEQEND
  5
7B8
330
7A8
100
AcDbEntity
  8
Ebene 1
370
     0
  0
POLYLINE
  5
7B9
330
3C
100
AcDbEntity
  8
Ebene 1
370
     0
100
AcDb2dPolyline
 66
     1
 10
0.0
 20
0.0
 30
0.0
  0
VERTEX
  5
7BA
330
7B9
100
AcDbEntity
  8
Ebene 1
370
     0
100
AcDbVertex
100
AcDb2dVertex
 10
733.2353515625
 20
57.4267578125
 30
0.0
  0
VERTEX
  5
7BB
330
7B9
100
AcDbEntity
  8
Ebene 1
370
     0
100
AcDbVertex
100
AcDb2dVertex
 10
747.6171875
 20
49.1767578125
 30
0.0
  0
VERTEX
  5
7BC
330
7B9
100
AcDbEntity
  8
Ebene 1
370
     0
100
AcDbVertex
100
AcDb2dVertex
 10
747.6171875
 20
61.529296875
 30
0.0
  0
SEQEND
  5
7BD
330
7B9
100
AcDbEntity
  8
Ebene 1
370
     0
  0
POLYLINE
  5
7BE
330
3C
100
AcDbEntity
  8
Ebene 1
370
     0
100
AcDb2dPolyline
 66
     1
 10
0.0
 20
0.0
 30
0.0
  0
VERTEX
  5
7BF
330
7BE
100
AcDbEntity
  8
Ebene 1
370
     0
100
AcDbVertex
100
AcDb2dVertex
 10
733.2353515625
 20
57.4267578125
 30
0.0
  0
VERTEX
  5
7C0
330
7BE
100
AcDbEntity
  8
Ebene 1
370
     0
100
AcDbVertex
100
AcDb2dVertex
 10
754.8525390625
 20
57.4267578125
 30
0.0
  0
SEQEND
  5
7C1
330
7BE
100
AcDbEntity
  8
Ebene 1
370
     0
  0
POLYLINE
  5
7C2
330
3C
100
AcDbEntity
  8
Ebene 1
370
     0
100
AcDb2dPolyline
 66
     1
 10
0.0
 20
0.0
 30
0.0
  0
VERTEX
  5
7C3
330
7C2
100
AcDbEntity
  8
Ebene 1
370
     0
100
AcDbVertex
100
AcDb2dVertex
 10
752.779296875
 20
67.30859375
 30
0.0
  0
VERTEX
  5
7C4
330
7C2
100
AcDbEntity
  8
Ebene 1
370
     0
100
AcDbVertex
100
AcDb2dVertex
 10
753.7939453125
 20
66.5146484375
 30
0.0
  0
VERTEX
  5
7C5
330
7C2
100
AcDbEntity
  8
Ebene 1
370
     0
100
AcDbVertex
100
AcDb2dVertex
 10
754.8525390625
 20
67.30859375
 30
0.0
  0
VERTEX
  5
7C6
330
7C2
100
AcDbEntity
  8
Ebene 1
370
     0
100
AcDbVertex
100
AcDb2dVertex
 10
753.7939453125
 20
68.1474609375
 30
0.0
  0
VERTEX
  5
7C7
330
7C2
100
AcDbEntity
  8
Ebene 1
370
     0
100
AcDbVertex
100
AcDb2dVertex
 10
752.779296875
 20
67.30859375
 30
0.0
  0
VERTEX
  5
7C8
330
7C2
100
AcDbEntity
  8
Ebene 1
370
     0
100
AcDbVertex
100
AcDb2dVertex
 10
752.779296875
 20
67.30859375
 30
0.0
  0
SEQEND
  5
7C9
330
7C2
100
AcDbEntity
  8
Ebene 1
370
     0
  0
POLYLINE
  5
7CA
330
3C
100
AcDbEntity
  8
Ebene 1
370
     0
100
AcDb2dPolyline
 66
     1
 10
0.0
 20
0.0
 30
0.0
  0
VERTEX
  5
7CB
330
7CA
100
AcDbEntity
  8
Ebene 1
370
     0
100
AcDbVertex
100
AcDb2dVertex
 10
-162.88232421875
 20
-59.220703125
 30
0.0
  0
VERTEX
  5
7CC
330
7CA
100
AcDbEntity
  8
Ebene 1
370
     0
100
AcDbVertex
100
AcDb2dVertex
 10
-162.88232421875
 20
-59.220703125
 30
0.0
  0
SEQEND
  5
7CD
330
7CA
100
AcDbEntity
  8
Ebene 1
370
     0
  0
POLYLINE
  5
7CE
330
3C
100
AcDbEntity
  8
Ebene 1
370
     0
100
AcDb2dPolyline
 66
     1
 10
0.0
 20
0.0
 30
0.0
  0
VERTEX
  5
7CF
330
7CE
100
AcDbEntity
  8
Ebene 1
370
     0
100
AcDbVertex
100
AcDb2dVertex
 10
-162.88232421875
 20
-59.220703125
 30
0.0
  0
VERTEX
  5
7D0
330
7CE
100
AcDbEntity
  8
Ebene 1
370
     0
100
AcDbVertex
100
AcDb2dVertex
 10
-162.88232421875
 20
-59.220703125
 30
0.0
  0
SEQEND
  5
7D1
330
7CE
100
AcDbEntity
  8
Ebene 1
370
     0
  0
POLYLINE
  5
7D2
330
3C
100
AcDbEntity
  8
Ebene 1
370
     0
100
AcDb2dPolyline
 66
     1
 10
0.0
 20
0.0
 30
0.0
  0
VERTEX
  5
7D3
330
7D2
100
AcDbEntity
  8
Ebene 1
370
     0
100
AcDbVertex
100
AcDb2dVertex
 10
-162.88232421875
 20
-59.220703125
 30
0.0
  0
VERTEX
  5
7D4
330
7D2
100
AcDbEntity
  8
Ebene 1
370
     0
100
AcDbVertex
100
AcDb2dVertex
 10
-162.88232421875
 20
-59.220703125
 30
0.0
  0
SEQEND
  5
7D5
330
7D2
100
AcDbEntity
  8
Ebene 1
370
     0
  0
POLYLINE
  5
7D6
330
3C
100
AcDbEntity
  8
Ebene 1
370
     0
100
AcDb2dPolyline
 66
     1
 10
0.0
 20
0.0
 30
0.0
  0
VERTEX
  5
7D7
330
7D6
100
AcDbEntity
  8
Ebene 1
370
     0
100
AcDbVertex
100
AcDb2dVertex
 10
733.2353515625
 20
83.80859375
 30
0.0
  0
VERTEX
  5
7D8
330
7D6
100
AcDbEntity
  8
Ebene 1
370
     0
100
AcDbVertex
100
AcDb2dVertex
 10
733.2353515625
 20
75.55859375
 30
0.0
  0
VERTEX
  5
7D9
330
7D6
100
AcDbEntity
  8
Ebene 1
370
     0
100
AcDbVertex
100
AcDb2dVertex
 10
742.5
 20
74.720703125
 30
0.0
  0
VERTEX
  5
7DA
330
7D6
100
AcDbEntity
  8
Ebene 1
370
     0
100
AcDbVertex
100
AcDb2dVertex
 10
741.44140625
 20
75.55859375
 30
0.0
  0
VERTEX
  5
7DB
330
7D6
100
AcDbEntity
  8
Ebene 1
370
     0
100
AcDbVertex
100
AcDb2dVertex
 10
740.4267578125
 20
78.029296875
 30
0.0
  0
VERTEX
  5
7DC
330
7D6
100
AcDbEntity
  8
Ebene 1
370
     0
100
AcDbVertex
100
AcDb2dVertex
 10
740.4267578125
 20
80.5
 30
0.0
  0
VERTEX
  5
7DD
330
7D6
100
AcDbEntity
  8
Ebene 1
370
     0
100
AcDbVertex
100
AcDb2dVertex
 10
741.44140625
 20
82.970703125
 30
0.0
  0
VERTEX
  5
7DE
330
7D6
100
AcDbEntity
  8
Ebene 1
370
     0
100
AcDbVertex
100
AcDb2dVertex
 10
743.5146484375
 20
84.603515625
 30
0.0
  0
VERTEX
  5
7DF
330
7D6
100
AcDbEntity
  8
Ebene 1
370
     0
100
AcDbVertex
100
AcDb2dVertex
 10
746.6025390625
 20
85.44140625
 30
0.0
  0
VERTEX
  5
7E0
330
7D6
100
AcDbEntity
  8
Ebene 1
370
     0
100
AcDbVertex
100
AcDb2dVertex
 10
748.6767578125
 20
85.44140625
 30
0.0
  0
VERTEX
  5
7E1
330
7D6
100
AcDbEntity
  8
Ebene 1
370
     0
100
AcDbVertex
100
AcDb2dVertex
 10
751.7646484375
 20
84.603515625
 30
0.0
  0
VERTEX
  5
7E2
330
7D6
100
AcDbEntity
  8
Ebene 1
370
     0
100
AcDbVertex
100
AcDb2dVertex
 10
753.7939453125
 20
82.970703125
 30
0.0
  0
VERTEX
  5
7E3
330
7D6
100
AcDbEntity
  8
Ebene 1
370
     0
100
AcDbVertex
100
AcDb2dVertex
 10
754.8525390625
 20
80.5
 30
0.0
  0
VERTEX
  5
7E4
330
7D6
100
AcDbEntity
  8
Ebene 1
370
     0
100
AcDbVertex
100
AcDb2dVertex
 10
754.8525390625
 20
78.029296875
 30
0.0
  0
VERTEX
  5
7E5
330
7D6
100
AcDbEntity
  8
Ebene 1
370
     0
100
AcDbVertex
100
AcDb2dVertex
 10
753.7939453125
 20
75.55859375
 30
0.0
  0
VERTEX
  5
7E6
330
7D6
100
AcDbEntity
  8
Ebene 1
370
     0
100
AcDbVertex
100
AcDb2dVertex
 10
752.779296875
 20
74.720703125
 30
0.0
  0
VERTEX
  5
7E7
330
7D6
100
AcDbEntity
  8
Ebene 1
370
     0
100
AcDbVertex
100
AcDb2dVertex
 10
750.7060546875
 20
73.9267578125
 30
0.0
  0
SEQEND
  5
7E8
330
7D6
100
AcDbEntity
  8
Ebene 1
370
     0
  0
POLYLINE
  5
7E9
330
3C
100
AcDbEntity
  8
Ebene 1
370
     0
100
AcDb2dPolyline
 66
     1
 10
0.0
 20
0.0
 30
0.0
  0
VERTEX
  5
7EA
330
7E9
100
AcDbEntity
  8
Ebene 1
370
     0
100
AcDbVertex
100
AcDb2dVertex
 10
675.1328125
 20
123.07421875
 30
0.0
  0
VERTEX
  5
7EB
330
7E9
100
AcDbEntity
  8
Ebene 1
370
     0
100
AcDbVertex
100
AcDb2dVertex
 10
675.1328125
 20
216.029296875
 30
0.0
  0
SEQEND
  5
7EC
330
7E9
100
AcDbEntity
  8
Ebene 1
370
     0
  0
POLYLINE
  5
7ED
330
3C
100
AcDbEntity
  8
Ebene 1
370
     0
100
AcDb2dPolyline
 66
     1
 10
0.0
 20
0.0
 30
0.0
  0
VERTEX
  5
7EE
330
7ED
100
AcDbEntity
  8
Ebene 1
370
     0
100
AcDbVertex
100
AcDb2dVertex
 10
383.2939453125
 20
83.412109375
 30
0.0
  0
VERTEX
  5
7EF
330
7ED
100
AcDbEntity
  8
Ebene 1
370
     0
100
AcDbVertex
100
AcDb2dVertex
 10
383.2939453125
 20
216.029296875
 30
0.0
  0
SEQEND
  5
7F0
330
7ED
100
AcDbEntity
  8
Ebene 1
370
     0
  0
POLYLINE
  5
7F1
330
3C
100
AcDbEntity
  8
Ebene 1
370
     0
100
AcDb2dPolyline
 66
     1
 10
0.0
 20
0.0
 30
0.0
  0
VERTEX
  5
7F2
330
7F1
100
AcDbEntity
  8
Ebene 1
370
     0
100
AcDbVertex
100
AcDb2dVertex
 10
657.1328125
 20
201.603515625
 30
0.0
  0
VERTEX
  5
7F3
330
7F1
100
AcDbEntity
  8
Ebene 1
370
     0
100
AcDbVertex
100
AcDb2dVertex
 10
401.2939453125
 20
201.603515625
 30
0.0
  0
SEQEND
  5
7F4
330
7F1
100
AcDbEntity
  8
Ebene 1
370
     0
  0
POLYLINE
  5
7F5
330
3C
100
AcDbEntity
  8
Ebene 1
370
     0
100
AcDb2dPolyline
 66
     1
 10
0.0
 20
0.0
 30
0.0
  0
VERTEX
  5
7F6
330
7F5
100
AcDbEntity
  8
Ebene 1
370
     0
100
AcDbVertex
100
AcDb2dVertex
 10
657.1328125
 20
204.646484375
 30
0.0
  0
VERTEX
  5
7F7
330
7F5
100
AcDbEntity
  8
Ebene 1
370
     0
100
AcDbVertex
100
AcDb2dVertex
 10
657.1328125
 20
198.603515625
 30
0.0
  0
VERTEX
  5
7F8
330
7F5
100
AcDbEntity
  8
Ebene 1
370
     0
100
AcDbVertex
100
AcDb2dVertex
 10
675.1328125
 20
201.603515625
 30
0.0
  0
VERTEX
  5
7F9
330
7F5
100
AcDbEntity
  8
Ebene 1
370
     0
100
AcDbVertex
100
AcDb2dVertex
 10
657.1328125
 20
204.646484375
 30
0.0
  0
SEQEND
  5
7FA
330
7F5
100
AcDbEntity
  8
Ebene 1
370
     0
  0
HATCH
  5
7FB
330
3C
100
AcDbEntity
  8
Ebene 1
 62
   251
420
  6710886
100
AcDbHatch
 10
0.0
 20
0.0
 30
0.0
210
0.0
220
0.0
230
1.0
  2
SOLID
 70
     1
 71
     0
 91
        1
 92
        1
 93
        3
 72
     1
 10
657.1328125
 20
204.646484375
 11
657.1328125
 21
198.603515625
 72
     1
 10
657.1328125
 20
198.603515625
 11
675.1328125
 21
201.603515625
 72
     1
 10
675.1328125
 20
201.603515625
 11
657.1328125
 21
204.646484375
 97
        0
 75
     0
 76
     1
 98
        0
  0
POLYLINE
  5
7FC
330
3C
100
AcDbEntity
  8
Ebene 1
370
     0
100
AcDb2dPolyline
 66
     1
 10
0.0
 20
0.0
 30
0.0
  0
VERTEX
  5
7FD
330
7FC
100
AcDbEntity
  8
Ebene 1
370
     0
100
AcDbVertex
100
AcDb2dVertex
 10
401.2939453125
 20
204.646484375
 30
0.0
  0
VERTEX
  5
7FE
330
7FC
100
AcDbEntity
  8
Ebene 1
370
     0
100
AcDbVertex
100
AcDb2dVertex
 10
401.2939453125
 20
198.603515625
 30
0.0
  0
VERTEX
  5
7FF
330
7FC
100
AcDbEntity
  8
Ebene 1
370
     0
100
AcDbVertex
100
AcDb2dVertex
 10
383.2939453125
 20
201.603515625
 30
0.0
  0
VERTEX
  5
800
330
7FC
100
AcDbEntity
  8
Ebene 1
370
     0
100
AcDbVertex
100
AcDb2dVertex
 10
401.2939453125
 20
204.646484375
 30
0.0
  0
SEQEND
  5
801
330
7FC
100
AcDbEntity
  8
Ebene 1
370
     0
  0
HATCH
  5
802
330
3C
100
AcDbEntity
  8
Ebene 1
 62
   251
420
  6710886
100
AcDbHatch
 10
0.0
 20
0.0
 30
0.0
210
0.0
220
0.0
230
1.0
  2
SOLID
 70
     1
 71
     0
 91
        1
 92
        1
 93
        3
 72
     1
 10
401.2939453125
 20
204.646484375
 11
401.2939453125
 21
198.603515625
 72
     1
 10
401.2939453125
 20
198.603515625
 11
383.2939453125
 21
201.603515625
 72
     1
 10
383.2939453125
 20
201.603515625
 11
401.2939453125
 21
204.646484375
 97
        0
 75
     0
 76
     1
 98
        0
  0
POLYLINE
  5
803
330
3C
100
AcDbEntity
  8
Ebene 1
370
     0
100
AcDb2dPolyline
 66
     1
 10
0.0
 20
0.0
 30
0.0
  0
VERTEX
  5
804
330
803
100
AcDbEntity
  8
Ebene 1
370
     0
100
AcDbVertex
100
AcDb2dVertex
 10
481.853515625
 20
223.2646484375
 30
0.0
  0
VERTEX
  5
805
330
803
100
AcDbEntity
  8
Ebene 1
370
     0
100
AcDbVertex
100
AcDb2dVertex
 10
481.853515625
 20
208.837890625
 30
0.0
  0
SEQEND
  5
806
330
803
100
AcDbEntity
  8
Ebene 1
370
     0
  0
POLYLINE
  5
807
330
3C
100
AcDbEntity
  8
Ebene 1
370
     0
100
AcDb2dPolyline
 66
     1
 10
0.0
 20
0.0
 30
0.0
  0
VERTEX
  5
808
330
807
100
AcDbEntity
  8
Ebene 1
370
     0
100
AcDbVertex
100
AcDb2dVertex
 10
481.853515625
 20
219.1171875
 30
0.0
  0
VERTEX
  5
809
330
807
100
AcDbEntity
  8
Ebene 1
370
     0
100
AcDbVertex
100
AcDb2dVertex
 10
484.32421875
 20
222.2060546875
 30
0.0
  0
VERTEX
  5
80A
330
807
100
AcDbEntity
  8
Ebene 1
370
     0
100
AcDbVertex
100
AcDb2dVertex
 10
485.9560546875
 20
223.2646484375
 30
0.0
  0
VERTEX
  5
80B
330
807
100
AcDbEntity
  8
Ebene 1
370
     0
100
AcDbVertex
100
AcDb2dVertex
 10
488.42578125
 20
223.2646484375
 30
0.0
  0
VERTEX
  5
80C
330
807
100
AcDbEntity
  8
Ebene 1
370
     0
100
AcDbVertex
100
AcDb2dVertex
 10
490.103515625
 20
222.2060546875
 30
0.0
  0
VERTEX
  5
80D
330
807
100
AcDbEntity
  8
Ebene 1
370
     0
100
AcDbVertex
100
AcDb2dVertex
 10
490.896484375
 20
219.1171875
 30
0.0
  0
VERTEX
  5
80E
330
807
100
AcDbEntity
  8
Ebene 1
370
     0
100
AcDbVertex
100
AcDb2dVertex
 10
490.896484375
 20
208.837890625
 30
0.0
  0
SEQEND
  5
80F
330
807
100
AcDbEntity
  8
Ebene 1
370
     0
  0
POLYLINE
  5
810
330
3C
100
AcDbEntity
  8
Ebene 1
370
     0
100
AcDb2dPolyline
 66
     1
 10
0.0
 20
0.0
 30
0.0
  0
VERTEX
  5
811
330
810
100
AcDbEntity
  8
Ebene 1
370
     0
100
AcDbVertex
100
AcDb2dVertex
 10
490.896484375
 20
219.1171875
 30
0.0
  0
VERTEX
  5
812
330
810
100
AcDbEntity
  8
Ebene 1
370
     0
100
AcDbVertex
100
AcDb2dVertex
 10
493.3671875
 20
222.2060546875
 30
0.0
  0
VERTEX
  5
813
330
810
100
AcDbEntity
  8
Ebene 1
370
     0
100
AcDbVertex
100
AcDb2dVertex
 10
495.0439453125
 20
223.2646484375
 30
0.0
  0
VERTEX
  5
814
330
810
100
AcDbEntity
  8
Ebene 1
370
     0
100
AcDbVertex
100
AcDb2dVertex
 10
497.5146484375
 20
223.2646484375
 30
0.0
  0
VERTEX
  5
815
330
810
100
AcDbEntity
  8
Ebene 1
370
     0
100
AcDbVertex
100
AcDb2dVertex
 10
499.146484375
 20
222.2060546875
 30
0.0
  0
VERTEX
  5
816
330
810
100
AcDbEntity
  8
Ebene 1
370
     0
100
AcDbVertex
100
AcDb2dVertex
 10
499.9853515625
 20
219.1171875
 30
0.0
  0
VERTEX
  5
817
330
810
100
AcDbEntity
  8
Ebene 1
370
     0
100
AcDbVertex
100
AcDb2dVertex
 10
499.9853515625
 20
208.837890625
 30
0.0
  0
SEQEND
  5
818
330
810
100
AcDbEntity
  8
Ebene 1
370
     0
  0
POLYLINE
  5
819
330
3C
100
AcDbEntity
  8
Ebene 1
370
     0
100
AcDb2dPolyline
 66
     1
 10
0.0
 20
0.0
 30
0.0
  0
VERTEX
  5
81A
330
819
100
AcDbEntity
  8
Ebene 1
370
     0
100
AcDbVertex
100
AcDb2dVertex
 10
505.720703125
 20
229.44140625
 30
0.0
  0
VERTEX
  5
81B
330
819
100
AcDbEntity
  8
Ebene 1
370
     0
100
AcDbVertex
100
AcDb2dVertex
 10
506.55859375
 20
228.3828125
 30
0.0
  0
VERTEX
  5
81C
330
819
100
AcDbEntity
  8
Ebene 1
370
     0
100
AcDbVertex
100
AcDb2dVertex
 10
507.396484375
 20
229.44140625
 30
0.0
  0
VERTEX
  5
81D
330
819
100
AcDbEntity
  8
Ebene 1
370
     0
100
AcDbVertex
100
AcDb2dVertex
 10
506.55859375
 20
230.4560546875
 30
0.0
  0
VERTEX
  5
81E
330
819
100
AcDbEntity
  8
Ebene 1
370
     0
100
AcDbVertex
100
AcDb2dVertex
 10
505.720703125
 20
229.44140625
 30
0.0
  0
VERTEX
  5
81F
330
819
100
AcDbEntity
  8
Ebene 1
370
     0
100
AcDbVertex
100
AcDb2dVertex
 10
505.720703125
 20
229.44140625
 30
0.0
  0
SEQEND
  5
820
330
819
100
AcDbEntity
  8
Ebene 1
370
     0
  0
POLYLINE
  5
821
330
3C
100
AcDbEntity
  8
Ebene 1
370
     0
100
AcDb2dPolyline
 66
     1
 10
0.0
 20
0.0
 30
0.0
  0
VERTEX
  5
822
330
821
100
AcDbEntity
  8
Ebene 1
370
     0
100
AcDbVertex
100
AcDb2dVertex
 10
506.55859375
 20
222.2060546875
 30
0.0
  0
VERTEX
  5
823
330
821
100
AcDbEntity
  8
Ebene 1
370
     0
100
AcDbVertex
100
AcDb2dVertex
 10
506.55859375
 20
208.837890625
 30
0.0
  0
SEQEND
  5
824
330
821
100
AcDbEntity
  8
Ebene 1
370
     0
  0
POLYLINE
  5
825
330
3C
100
AcDbEntity
  8
Ebene 1
370
     0
100
AcDb2dPolyline
 66
     1
 10
0.0
 20
0.0
 30
0.0
  0
VERTEX
  5
826
330
825
100
AcDbEntity
  8
Ebene 1
370
     0
100
AcDbVertex
100
AcDb2dVertex
 10
513.1328125
 20
223.2646484375
 30
0.0
  0
VERTEX
  5
827
330
825
100
AcDbEntity
  8
Ebene 1
370
     0
100
AcDbVertex
100
AcDb2dVertex
 10
513.1328125
 20
208.837890625
 30
0.0
  0
SEQEND
  5
828
330
825
100
AcDbEntity
  8
Ebene 1
370
     0
  0
POLYLINE
  5
829
330
3C
100
AcDbEntity
  8
Ebene 1
370
     0
100
AcDb2dPolyline
 66
     1
 10
0.0
 20
0.0
 30
0.0
  0
VERTEX
  5
82A
330
829
100
AcDbEntity
  8
Ebene 1
370
     0
100
AcDbVertex
100
AcDb2dVertex
 10
513.1328125
 20
219.1171875
 30
0.0
  0
VERTEX
  5
82B
330
829
100
AcDbEntity
  8
Ebene 1
370
     0
100
AcDbVertex
100
AcDb2dVertex
 10
515.603515625
 20
222.2060546875
 30
0.0
  0
VERTEX
  5
82C
330
829
100
AcDbEntity
  8
Ebene 1
370
     0
100
AcDbVertex
100
AcDb2dVertex
 10
517.279296875
 20
223.2646484375
 30
0.0
  0
VERTEX
  5
82D
330
829
100
AcDbEntity
  8
Ebene 1
370
     0
100
AcDbVertex
100
AcDb2dVertex
 10
519.75
 20
223.2646484375
 30
0.0
  0
VERTEX
  5
82E
330
829
100
AcDbEntity
  8
Ebene 1
370
     0
100
AcDbVertex
100
AcDb2dVertex
 10
521.3828125
 20
222.2060546875
 30
0.0
  0
VERTEX
  5
82F
330
829
100
AcDbEntity
  8
Ebene 1
370
     0
100
AcDbVertex
100
AcDb2dVertex
 10
522.220703125
 20
219.1171875
 30
0.0
  0
VERTEX
  5
830
330
829
100
AcDbEntity
  8
Ebene 1
370
     0
100
AcDbVertex
100
AcDb2dVertex
 10
522.220703125
 20
208.837890625
 30
0.0
  0
SEQEND
  5
831
330
829
100
AcDbEntity
  8
Ebene 1
370
     0
  0
POLYLINE
  5
832
330
3C
100
AcDbEntity
  8
Ebene 1
370
     0
100
AcDb2dPolyline
 66
     1
 10
0.0
 20
0.0
 30
0.0
  0
VERTEX
  5
833
330
832
100
AcDbEntity
  8
Ebene 1
370
     0
100
AcDbVertex
100
AcDb2dVertex
 10
529.6328125
 20
210.912109375
 30
0.0
  0
VERTEX
  5
834
330
832
100
AcDbEntity
  8
Ebene 1
370
     0
100
AcDbVertex
100
AcDb2dVertex
 10
528.7939453125
 20
209.853515625
 30
0.0
  0
VERTEX
  5
835
330
832
100
AcDbEntity
  8
Ebene 1
370
     0
100
AcDbVertex
100
AcDb2dVertex
 10
529.6328125
 20
208.837890625
 30
0.0
  0
VERTEX
  5
836
330
832
100
AcDbEntity
  8
Ebene 1
370
     0
100
AcDbVertex
100
AcDb2dVertex
 10
530.42578125
 20
209.853515625
 30
0.0
  0
VERTEX
  5
837
330
832
100
AcDbEntity
  8
Ebene 1
370
     0
100
AcDbVertex
100
AcDb2dVertex
 10
529.6328125
 20
210.912109375
 30
0.0
  0
VERTEX
  5
838
330
832
100
AcDbEntity
  8
Ebene 1
370
     0
100
AcDbVertex
100
AcDb2dVertex
 10
529.6328125
 20
210.912109375
 30
0.0
  0
SEQEND
  5
839
330
832
100
AcDbEntity
  8
Ebene 1
370
     0
  0
POLYLINE
  5
83A
330
3C
100
AcDbEntity
  8
Ebene 1
370
     0
100
AcDb2dPolyline
 66
     1
 10
0.0
 20
0.0
 30
0.0
  0
VERTEX
  5
83B
330
83A
100
AcDbEntity
  8
Ebene 1
370
     0
100
AcDbVertex
100
AcDb2dVertex
 10
557.6025390625
 20
230.4560546875
 30
0.0
  0
VERTEX
  5
83C
330
83A
100
AcDbEntity
  8
Ebene 1
370
     0
100
AcDbVertex
100
AcDb2dVertex
 10
555.1328125
 20
229.44140625
 30
0.0
  0
VERTEX
  5
83D
330
83A
100
AcDbEntity
  8
Ebene 1
370
     0
100
AcDbVertex
100
AcDb2dVertex
 10
554.337890625
 20
227.3671875
 30
0.0
  0
VERTEX
  5
83E
330
83A
100
AcDbEntity
  8
Ebene 1
370
     0
100
AcDbVertex
100
AcDb2dVertex
 10
554.337890625
 20
225.2939453125
 30
0.0
  0
VERTEX
  5
83F
330
83A
100
AcDbEntity
  8
Ebene 1
370
     0
100
AcDbVertex
100
AcDb2dVertex
 10
555.1328125
 20
223.2646484375
 30
0.0
  0
VERTEX
  5
840
330
83A
100
AcDbEntity
  8
Ebene 1
370
     0
100
AcDbVertex
100
AcDb2dVertex
 10
556.80859375
 20
222.2060546875
 30
0.0
  0
VERTEX
  5
841
330
83A
100
AcDbEntity
  8
Ebene 1
370
     0
100
AcDbVertex
100
AcDb2dVertex
 10
560.0732421875
 20
221.19140625
 30
0.0
  0
VERTEX
  5
842
330
83A
100
AcDbEntity
  8
Ebene 1
370
     0
100
AcDbVertex
100
AcDb2dVertex
 10
562.5439453125
 20
220.17578125
 30
0.0
  0
VERTEX
  5
843
330
83A
100
AcDbEntity
  8
Ebene 1
370
     0
100
AcDbVertex
100
AcDb2dVertex
 10
564.220703125
 20
218.103515625
 30
0.0
  0
VERTEX
  5
844
330
83A
100
AcDbEntity
  8
Ebene 1
370
     0
100
AcDbVertex
100
AcDb2dVertex
 10
565.0146484375
 20
216.029296875
 30
0.0
  0
VERTEX
  5
845
330
83A
100
AcDbEntity
  8
Ebene 1
370
     0
100
AcDbVertex
100
AcDb2dVertex
 10
565.0146484375
 20
212.94140625
 30
0.0
  0
VERTEX
  5
846
330
83A
100
AcDbEntity
  8
Ebene 1
370
     0
100
AcDbVertex
100
AcDb2dVertex
 10
564.220703125
 20
210.912109375
 30
0.0
  0
VERTEX
  5
847
330
83A
100
AcDbEntity
  8
Ebene 1
370
     0
100
AcDbVertex
100
AcDb2dVertex
 10
563.3828125
 20
209.853515625
 30
0.0
  0
VERTEX
  5
848
330
83A
100
AcDbEntity
  8
Ebene 1
370
     0
100
AcDbVertex
100
AcDb2dVertex
 10
560.912109375
 20
208.837890625
 30
0.0
  0
VERTEX
  5
849
330
83A
100
AcDbEntity
  8
Ebene 1
370
     0
100
AcDbVertex
100
AcDb2dVertex
 10
557.6025390625
 20
208.837890625
 30
0.0
  0
VERTEX
  5
84A
330
83A
100
AcDbEntity
  8
Ebene 1
370
     0
100
AcDbVertex
100
AcDb2dVertex
 10
555.1328125
 20
209.853515625
 30
0.0
  0
VERTEX
  5
84B
330
83A
100
AcDbEntity
  8
Ebene 1
370
     0
100
AcDbVertex
100
AcDb2dVertex
 10
554.337890625
 20
210.912109375
 30
0.0
  0
VERTEX
  5
84C
330
83A
100
AcDbEntity
  8
Ebene 1
370
     0
100
AcDbVertex
100
AcDb2dVertex
 10
553.5
 20
212.94140625
 30
0.0
  0
VERTEX
  5
84D
330
83A
100
AcDbEntity
  8
Ebene 1
370
     0
100
AcDbVertex
100
AcDb2dVertex
 10
553.5
 20
216.029296875
 30
0.0
  0
VERTEX
  5
84E
330
83A
100
AcDbEntity
  8
Ebene 1
370
     0
100
AcDbVertex
100
AcDb2dVertex
 10
554.337890625
 20
218.103515625
 30
0.0
  0
VERTEX
  5
84F
330
83A
100
AcDbEntity
  8
Ebene 1
370
     0
100
AcDbVertex
100
AcDb2dVertex
 10
555.970703125
 20
220.17578125
 30
0.0
  0
VERTEX
  5
850
330
83A
100
AcDbEntity
  8
Ebene 1
370
     0
100
AcDbVertex
100
AcDb2dVertex
 10
558.44140625
 20
221.19140625
 30
0.0
  0
VERTEX
  5
851
330
83A
100
AcDbEntity
  8
Ebene 1
370
     0
100
AcDbVertex
100
AcDb2dVertex
 10
561.75
 20
222.2060546875
 30
0.0
  0
VERTEX
  5
852
330
83A
100
AcDbEntity
  8
Ebene 1
370
     0
100
AcDbVertex
100
AcDb2dVertex
 10
563.3828125
 20
223.2646484375
 30
0.0
  0
VERTEX
  5
853
330
83A
100
AcDbEntity
  8
Ebene 1
370
     0
100
AcDbVertex
100
AcDb2dVertex
 10
564.220703125
 20
225.2939453125
 30
0.0
  0
VERTEX
  5
854
330
83A
100
AcDbEntity
  8
Ebene 1
370
     0
100
AcDbVertex
100
AcDb2dVertex
 10
564.220703125
 20
227.3671875
 30
0.0
  0
VERTEX
  5
855
330
83A
100
AcDbEntity
  8
Ebene 1
370
     0
100
AcDbVertex
100
AcDb2dVertex
 10
563.3828125
 20
229.44140625
 30
0.0
  0
VERTEX
  5
856
330
83A
100
AcDbEntity
  8
Ebene 1
370
     0
100
AcDbVertex
100
AcDb2dVertex
 10
560.912109375
 20
230.4560546875
 30
0.0
  0
VERTEX
  5
857
330
83A
100
AcDbEntity
  8
Ebene 1
370
     0
100
AcDbVertex
100
AcDb2dVertex
 10
557.6025390625
 20
230.4560546875
 30
0.0
  0
VERTEX
  5
858
330
83A
100
AcDbEntity
  8
Ebene 1
370
     0
100
AcDbVertex
100
AcDb2dVertex
 10
557.6025390625
 20
230.4560546875
 30
0.0
  0
SEQEND
  5
859
330
83A
100
AcDbEntity
  8
Ebene 1
370
     0
  0
POLYLINE
  5
85A
330
3C
100
AcDbEntity
  8
Ebene 1
370
     0
100
AcDb2dPolyline
 66
     1
 10
0.0
 20
0.0
 30
0.0
  0
VERTEX
  5
85B
330
85A
100
AcDbEntity
  8
Ebene 1
370
     0
100
AcDbVertex
100
AcDb2dVertex
 10
-162.88232421875
 20
-59.220703125
 30
0.0
  0
VERTEX
  5
85C
330
85A
100
AcDbEntity
  8
Ebene 1
370
     0
100
AcDbVertex
100
AcDb2dVertex
 10
-162.88232421875
 20
-59.220703125
 30
0.0
  0
SEQEND
  5
85D
330
85A
100
AcDbEntity
  8
Ebene 1
370
     0
  0
POLYLINE
  5
85E
330
3C
100
AcDbEntity
  8
Ebene 1
370
     0
100
AcDb2dPolyline
 66
     1
 10
0.0
 20
0.0
 30
0.0
  0
VERTEX
  5
85F
330
85E
100
AcDbEntity
  8
Ebene 1
370
     0
100
AcDbVertex
100
AcDb2dVertex
 10
-162.88232421875
 20
-59.220703125
 30
0.0
  0
VERTEX
  5
860
330
85E
100
AcDbEntity
  8
Ebene 1
370
     0
100
AcDbVertex
100
AcDb2dVertex
 10
-162.88232421875
 20
-59.220703125
 30
0.0
  0
SEQEND
  5
861
330
85E
100
AcDbEntity
  8
Ebene 1
370
     0
  0
POLYLINE
  5
862
330
3C
100
AcDbEntity
  8
Ebene 1
370
     0
100
AcDb2dPolyline
 66
     1
 10
0.0
 20
0.0
 30
0.0
  0
VERTEX
  5
863
330
862
100
AcDbEntity
  8
Ebene 1
370
     0
100
AcDbVertex
100
AcDb2dVertex
 10
-162.88232421875
 20
-59.220703125
 30
0.0
  0
VERTEX
  5
864
330
862
100
AcDbEntity
  8
Ebene 1
370
     0
100
AcDbVertex
100
AcDb2dVertex
 10
-162.88232421875
 20
-59.220703125
 30
0.0
  0
SEQEND
  5
865
330
862
100
AcDbEntity
  8
Ebene 1
370
     0
  0
POLYLINE
  5
866
330
3C
100
AcDbEntity
  8
Ebene 1
370
     0
100
AcDb2dPolyline
 66
     1
 10
0.0
 20
0.0
 30
0.0
  0
VERTEX
  5
867
330
866
100
AcDbEntity
  8
Ebene 1
370
     0
100
AcDbVertex
100
AcDb2dVertex
 10
572.4267578125
 20
226.353515625
 30
0.0
  0
VERTEX
  5
868
330
866
100
AcDbEntity
  8
Ebene 1
370
     0
100
AcDbVertex
100
AcDb2dVertex
 10
574.1025390625
 20
227.3671875
 30
0.0
  0
VERTEX
  5
869
330
866
100
AcDbEntity
  8
Ebene 1
370
     0
100
AcDbVertex
100
AcDb2dVertex
 10
576.5732421875
 20
230.4560546875
 30
0.0
  0
VERTEX
  5
86A
330
866
100
AcDbEntity
  8
Ebene 1
370
     0
100
AcDbVertex
100
AcDb2dVertex
 10
576.5732421875
 20
208.837890625
 30
0.0
  0
SEQEND
  5
86B
330
866
100
AcDbEntity
  8
Ebene 1
370
     0
  0
ENDBLK
  5
3F
330
3C
100
AcDbEntity
  8
0
100
AcDbBlockEnd
  0
ENDSEC
  0
SECTION
  2
ENTITIES
  0
INSERT
  5
3D
330
1F
100
AcDbEntity
  8
Ebene 1
100
AcDbBlockReference
  2
block 2
 10
0.0
 20
0.0
 30
0.0
  0
ENDSEC
  0
SECTION
  2
OBJECTS
  0
DICTIONARY
  5
C
330
0
100
AcDbDictionary
281
     1
  3
ACAD_GROUP
350
D
  3
ACAD_LAYOUT
350
1A
  3
ACAD_MLINESTYLE
350
17
  3
ACAD_PLOTSETTINGS
350
19
  3
ACAD_PLOTSTYLENAME
350
E
  3
ACAD_TABLESTYLE
350
86C
  3
ACAD_VISUALSTYLE
350
2A
  0
DICTIONARY
  5
D
102
{ACAD_REACTORS
330
C
102
}
330
C
100
AcDbDictionary
281
     1
  0
DICTIONARY
  5
1A
102
{ACAD_REACTORS
330
C
102
}
330
C
100
AcDbDictionary
281
     1
  3
Layout1
350
1E
  3
Layout2
350
26
  3
Model
350
22
  0
DICTIONARY
  5
17
102
{ACAD_REACTORS
330
C
102
}
330
C
100
AcDbDictionary
281
     1
  3
Standard
350
18
  0
DICTIONARY
  5
19
102
{ACAD_REACTORS
330
C
102
}
330
C
100
AcDbDictionary
281
     1
  0
ACDBDICTIONARYWDFLT
  5
E
102
{ACAD_REACTORS
330
C
102
}
330
C
100
AcDbDictionary
281
     1
  3
Normal
350
F
100
AcDbDictionaryWithDefault
340
F
  0
DICTIONARY
  5
86C
102
{ACAD_REACTORS
330
C
102
}
330
C
100
AcDbDictionary
281
     1
  0
DICTIONARY
  5
2A
102
{ACAD_REACTORS
330
C
102
}
330
C
100
AcDbDictionary
281
     1
  3
2dWireframe
350
2F
  3
3D Hidden
350
31
  3
3dWireframe
350
30
  3
Basic
350
32
  3
Brighten
350
36
  3
ColorChange
350
3A
  3
Conceptual
350
34
  3
Dim
350
35
  3
Facepattern
350
39
  3
Flat
350
2B
  3
FlatWithEdges
350
2C
  3
Gouraud
350
2D
  3
GouraudWithEdges
350
2E
  3
Linepattern
350
38
  3
Realistic
350
33
  3
Thicken
350
37
  0
LAYOUT
  5
1E
102
{ACAD_REACTORS
330
1A
102
}
330
1A
100
AcDbPlotSettings
  1

  2
none_device
  4

  6

 40
0.0
 41
0.0
 42
0.0
 43
0.0
 44
0.0
 45
0.0
 46
0.0
 47
0.0
 48
0.0
 49
0.0
140
0.0
141
0.0
142
1.0
143
1.0
 70
   688
 72
     0
 73
     0
 74
     5
  7

 75
    16
 76
     0
 77
     2
 78
   300
147
1.0
148
0.0
149
0.0
100
AcDbLayout
  1
Layout1
 70
     1
 71
     1
 10
0.0
 20
0.0
 11
12.0
 21
9.0
 12
0.0
 22
0.0
 32
0.0
 14
1.000000000000000E+20
 24
1.000000000000000E+20
 34
1.000000000000000E+20
 15
-1.000000000000000E+20
 25
-1.000000000000000E+20
 35
-1.000000000000000E+20
146
0.0
 13
0.0
 23
0.0
 33
0.0
 16
1.0
 26
0.0
 36
0.0
 17
0.0
 27
1.0
 37
0.0
 76
     0
330
1B
  0
LAYOUT
  5
26
102
{ACAD_REACTORS
330
1A
102
}
330
1A
100
AcDbPlotSettings
  1

  2
none_device
  4

  6

 40
0.0
 41
0.0
 42
0.0
 43
0.0
 44
0.0
 45
0.0
 46
0.0
 47
0.0
 48
0.0
 49
0.0
140
0.0
141
0.0
142
1.0
143
1.0
 70
   688
 72
     0
 73
     0
 74
     5
  7

 75
    16
 76
     0
 77
     2
 78
   300
147
1.0
148
0.0
149
0.0
100
AcDbLayout
  1
Layout2
 70
     1
 71
     2
 10
0.0
 20
0.0
 11
0.0
 21
0.0
 12
0.0
 22
0.0
 32
0.0
 14
0.0
 24
0.0
 34
0.0
 15
0.0
 25
0.0
 35
0.0
146
0.0
 13
0.0
 23
0.0
 33
0.0
 16
1.0
 26
0.0
 36
0.0
 17
0.0
 27
1.0
 37
0.0
 76
     0
330
23
  0
LAYOUT
  5
22
102
{ACAD_REACTORS
330
1A
102
}
330
1A
100
AcDbPlotSettings
  1

  2
none_device
  4

  6

 40
0.0
 41
0.0
 42
0.0
 43
0.0
 44
0.0
 45
0.0
 46
0.0
 47
0.0
 48
0.0
 49
0.0
140
0.0
141
0.0
142
1.0
143
1.0
 70
  1712
 72
     0
 73
     0
 74
     0
  7

 75
     0
 76
     0
 77
     2
 78
   300
147
1.0
148
0.0
149
0.0
100
AcDbLayout
  1
Model
 70
     1
 71
     0
 10
0.0
 20
0.0
 11
12.0
 21
9.0
 12
0.0
 22
0.0
 32
0.0
 14
1.000000000000000E+20
 24
1.000000000000000E+20
 34
1.000000000000000E+20
 15
-1.000000000000000E+20
 25
-1.000000000000000E+20
 35
-1.000000000000000E+20
146
0.0
 13
0.0
 23
0.0
 33
0.0
 16
1.0
 26
0.0
 36
0.0
 17
0.0
 27
1.0
 37
0.0
 76
     0
330
1F
331
29
  0
MLINESTYLE
  5
18
102
{ACAD_REACTORS
330
17
102
}
330
17
100
AcDbMlineStyle
  2
Standard
 70
     0
  3

 62
   256
 51
90.0
 52
90.0
 71
     2
 49
0.5
 62
   256
  6
BYLAYER
 49
-0.5
 62
   256
  6
BYLAYER
  0
ACDBPLACEHOLDER
  5
F
102
{ACAD_REACTORS
330
E
102
}
330
E
  0
VISUALSTYLE
  5
2F
102
{ACAD_REACTORS
330
2A
102
}
330
2A
100
AcDbVisualStyle
  2
2dWireframe
 70
     4
 71
     0
 72
     2
 73
     0
 90
        0
 40
-0.6
 41
-30.0
 62
     5
 63
     7
421
 16777215
 74
     1
 91
        4
 64
     7
 65
   257
 75
     1
175
     1
 42
1.0
 92
        0
 66
   257
 43
1.0
 76
     1
 77
     6
 78
     2
 67
     7
 79
     5
170
     0
171
     0
290
     0
174
     0
 93
        1
 44
0.0
173
     0
291
     0
 45
0.0
1001
ACAD
1000
AcDbSavedByObjectVersion
1070
     0
  0
VISUALSTYLE
  5
31
102
{ACAD_REACTORS
330
2A
102
}
330
2A
100
AcDbVisualStyle
  2
3D Hidden
 70
     6
 71
     1
 72
     2
 73
     2
 90
        0
 40
-0.6
 41
-30.0
 62
     5
 63
     7
421
 16777215
 74
     2
 91
        2
 64
     7
 65
   257
 75
     2
175
     1
 42
40.0
 92
        0
 66
   257
 43
1.0
 76
     1
 77
     6
 78
     2
 67
     7
 79
     3
170
     0
171
     0
290
     0
174
     0
 93
        1
 44
0.0
173
     0
291
     0
 45
0.0
1001
ACAD
1000
AcDbSavedByObjectVersion
1070
     0
  0
VISUALSTYLE
  5
30
102
{ACAD_REACTORS
330
2A
102
}
330
2A
100
AcDbVisualStyle
  2
3dWireframe
 70
     5
 71
     0
 72
     2
 73
     0
 90
        0
 40
-0.6
 41
-30.0
 62
     5
 63
     7
421
 16777215
 74
     1
 91
        4
 64
     7
 65
   257
 75
     1
175
     1
 42
1.0
 92
        0
 66
   257
 43
1.0
 76
     1
 77
     6
 78
     2
 67
     7
 79
     5
170
     0
171
     0
290
     0
174
     0
 93
        1
 44
0.0
173
     0
291
     0
 45
0.0
1001
ACAD
1000
AcDbSavedByObjectVersion
1070
     0
  0
VISUALSTYLE
  5
32
102
{ACAD_REACTORS
330
2A
102
}
330
2A
100
AcDbVisualStyle
  2
Basic
 70
     7
 71
     1
 72
     0
 73
     1
 90
        0
 40
-0.6
 41
-30.0
 62
     5
 63
     7
421
 16777215
 74
     0
 91
        4
 64
     7
 65
   257
 75
     1
175
     1
 42
1.0
 92
        8
 66
     7
 43
1.0
 76
     1
 77
     6
 78
     2
 67
     7
 79
     5
170
     0
171
     0
290
     0
174
     0
 93
        1
 44
0.0
173
     0
291
     1
 45
0.0
1001
ACAD
1000
AcDbSavedByObjectVersion
1070
     0
  0
VISUALSTYLE
  5
36
102
{ACAD_REACTORS
330
2A
102
}
330
2A
100
AcDbVisualStyle
  2
Brighten
 70
    12
 71
     2
 72
     2
 73
     0
 90
        0
 40
-0.6
 41
-30.0
 62
     5
 63
     7
421
 16777215
 74
     1
 91
        4
 64
     7
 65
   257
 75
     1
175
     1
 42
1.0
 92
        8
 66
     7
 43
1.0
 76
     1
 77
     6
 78
     2
 67
     7
 79
     5
170
     0
171
     0
290
     0
174
     0
 93
        1
 44
50.0
173
     0
291
     1
 45
0.0
1001
ACAD
1000
AcDbSavedByObjectVersion
1070
     0
  0
VISUALSTYLE
  5
3A
102
{ACAD_REACTORS
330
2A
102
}
330
2A
100
AcDbVisualStyle
  2
ColorChange
 70
    16
 71
     2
 72
     2
 73
     3
 90
        0
 40
-0.6
 41
-30.0
 62
     5
 63
     8
421
  8421504
 74
     1
 91
        4
 64
     7
 65
   257
 75
     1
175
     1
 42
1.0
 92
        8
 66
     8
424
  8421504
 43
1.0
 76
     1
 77
     6
 78
     2
 67
     7
 79
     5
170
     0
171
     0
290
     0
174
     0
 93
        1
 44
0.0
173
     0
291
     1
 45
0.0
1001
ACAD
1000
AcDbSavedByObjectVersion
1070
     0
  0
VISUALSTYLE
  5
34
102
{ACAD_REACTORS
330
2A
102
}
330
2A
100
AcDbVisualStyle
  2
Conceptual
 70
     9
 71
     3
 72
     2
 73
     0
 90
        0
 40
-0.6
 41
-30.0
 62
     5
 63
     7
421
 16777215
 74
     2
 91
        2
 64
     7
 65
   257
 75
     1
175
     1
 42
40.0
 92
        8
 66
     7
 43
1.0
 76
     1
 77
     6
 78
     2
 67
     7
 79
     3
170
     0
171
     0
290
     0
174
     0
 93
        1
 44
0.0
173
     0
291
     0
 45
0.0
1001
ACAD
1000
AcDbSavedByObjectVersion
1070
     0
  0
VISUALSTYLE
  5
35
102
{ACAD_REACTORS
330
2A
102
}
330
2A
100
AcDbVisualStyle
  2
Dim
 70
    11
 71
     2
 72
     2
 73
     0
 90
        0
 40
-0.6
 41
-30.0
 62
     5
 63
     7
421
 16777215
 74
     1
 91
        4
 64
     7
 65
   257
 75
     1
175
     1
 42
1.0
 92
        8
 66
     7
 43
1.0
 76
     1
 77
     6
 78
     2
 67
     7
 79
     5
170
     0
171
     0
290
     0
174
     0
 93
        1
 44
-50.0
173
     0
291
     1
 45
0.0
1001
ACAD
1000
AcDbSavedByObjectVersion
1070
     0
  0
VISUALSTYLE
  5
39
102
{ACAD_REACTORS
330
2A
102
}
330
2A
100
AcDbVisualStyle
  2
Facepattern
 70
    15
 71
     2
 72
     2
 73
     0
 90
        0
 40
-0.6
 41
-30.0
 62
     5
 63
     7
421
 16777215
 74
     1
 91
        4
 64
     7
 65
   257
 75
     1
175
     1
 42
1.0
 92
        8
 66
     7
 43
1.0
 76
     1
 77
     6
 78
     2
 67
     7
 79
     5
170
     0
171
     0
290
     0
174
     0
 93
        1
 44
0.0
173
     0
291
     1
 45
0.0
1001
ACAD
1000
AcDbSavedByObjectVersion
1070
     0
  0
VISUALSTYLE
  5
2B
102
{ACAD_REACTORS
330
2A
102
}
330
2A
100
AcDbVisualStyle
  2
Flat
 70
     0
 71
     2
 72
     1
 73
     1
 90
        2
 40
-0.6
 41
30.0
 62
     5
 63
     7
421
 16777215
 74
     0
 91
        4
 64
     7
 65
   257
 75
     1
175
     1
 42
1.0
 92
        8
 66
     7
 43
1.0
 76
     1
 77
     6
 78
     2
 67
     7
 79
     5
170
     0
171
     0
290
     0
174
     0
 93
       13
 44
0.0
173
     0
291
     1
 45
0.0
1001
ACAD
1000
AcDbSavedByObjectVersion
1070
     0
  0
VISUALSTYLE
  5
2C
102
{ACAD_REACTORS
330
2A
102
}
330
2A
100
AcDbVisualStyle
  2
FlatWithEdges
 70
     1
 71
     2
 72
     1
 73
     1
 90
        2
 40
-0.6
 41
30.0
 62
     5
 63
     7
421
 16777215
 74
     1
 91
        4
 64
     7
 65
   257
 75
     1
175
     1
 42
1.0
 92
        0
 66
   257
 43
1.0
 76
     1
 77
     6
 78
     2
 67
     7
 79
     5
170
     0
171
     0
290
     0
174
     0
 93
       13
 44
0.0
173
     0
291
     1
 45
0.0
1001
ACAD
1000
AcDbSavedByObjectVersion
1070
     0
  0
VISUALSTYLE
  5
2D
102
{ACAD_REACTORS
330
2A
102
}
330
2A
100
AcDbVisualStyle
  2
Gouraud
 70
     2
 71
     2
 72
     2
 73
     1
 90
        2
 40
-0.6
 41
30.0
 62
     5
 63
     7
421
 16777215
 74
     0
 91
        4
 64
     7
 65
   257
 75
     1
175
     1
 42
1.0
 92
        0
 66
     7
 43
1.0
 76
     1
 77
     6
 78
     2
 67
     7
 79
     5
170
     0
171
     0
290
     0
174
     0
 93
       13
 44
0.0
173
     0
291
     1
 45
0.0
1001
ACAD
1000
AcDbSavedByObjectVersion
1070
     0
  0
VISUALSTYLE
  5
2E
102
{ACAD_REACTORS
330
2A
102
}
330
2A
100
AcDbVisualStyle
  2
GouraudWithEdges
 70
     3
 71
     2
 72
     2
 73
     1
 90
        2
 40
-0.6
 41
30.0
 62
     5
 63
     7
421
 16777215
 74
     1
 91
        4
 64
     7
 65
   257
 75
     1
175
     1
 42
1.0
 92
        0
 66
   257
 43
1.0
 76
     1
 77
     6
 78
     2
 67
     7
 79
     5
170
     0
171
     0
290
     0
174
     0
 93
       13
 44
0.0
173
     0
291
     1
 45
0.0
1001
ACAD
1000
AcDbSavedByObjectVersion
1070
     0
  0
VISUALSTYLE
  5
38
102
{ACAD_REACTORS
330
2A
102
}
330
2A
100
AcDbVisualStyle
  2
Linepattern
 70
    14
 71
     2
 72
     2
 73
     0
 90
        0
 40
-0.6
 41
-30.0
 62
     5
 63
     7
421
 16777215
 74
     1
 91
        4
 64
     7
 65
   257
 75
     7
175
     7
 42
1.0
 92
        8
 66
     7
 43
1.0
 76
     1
 77
     6
 78
     2
 67
     7
 79
     5
170
     0
171
     0
290
     0
174
     0
 93
        1
 44
0.0
173
     0
291
     1
 45
0.0
1001
ACAD
1000
AcDbSavedByObjectVersion
1070
     0
  0
VISUALSTYLE
  5
33
102
{ACAD_REACTORS
330
2A
102
}
330
2A
100
AcDbVisualStyle
  2
Realistic
 70
     8
 71
     2
 72
     2
 73
     0
 90
        0
 40
-0.6
 41
-30.0
 62
     5
 63
     7
421
 16777215
 74
     1
 91
        0
 64
     7
 65
   257
 75
     1
175
     1
 42
1.0
 92
        8
 66
     8
424
  7895160
 43
1.0
 76
     1
 77
     6
 78
     2
 67
     7
 79
     5
170
     0
171
     0
290
     0
174
     0
 93
       13
 44
0.0
173
     0
291
     0
 45
0.0
1001
ACAD
1000
AcDbSavedByObjectVersion
1070
     0
  0
VISUALSTYLE
  5
37
102
{ACAD_REACTORS
330
2A
102
}
330
2A
100
AcDbVisualStyle
  2
Thicken
 70
    13
 71
     2
 72
     2
 73
     0
 90
        0
 40
-0.6
 41
-30.0
 62
     5
 63
     7
421
 16777215
 74
     1
 91
        4
 64
     7
 65
   257
 75
     1
175
     1
 42
1.0
 92
       12
 66
     7
 43
1.0
 76
     1
 77
     6
 78
     2
 67
     7
 79
     5
170
     0
171
     0
290
     0
174
     0
 93
        1
 44
0.0
173
     0
291
     1
 45
0.0
1001
ACAD
1000
AcDbSavedByObjectVersion
1070
     0
  0
ENDSEC
  0
EOF
