  0
SECTION
  2
HEADER
  9
$ACADVER
  1
AC1018
  9
$ACADMAINTVER
 70
     0
  9
$DWGCODEPAGE
  3
ANSI_1252
  9
$INSBASE
 10
0.0
 20
0.0
 30
0.0
  9
$EXTMIN
 10
1.000000000000000E+20
 20
1.000000000000000E+20
 30
1.000000000000000E+20
  9
$EXTMAX
 10
-1.000000000000000E+20
 20
-1.000000000000000E+20
 30
-1.000000000000000E+20
  9
$LIMMIN
 10
0.0
 20
0.0
  9
$LIMMAX
 10
12.0
 20
9.0
  9
$ORTHOMODE
 70
     0
  9
$REGENMODE
 70
     1
  9
$FILLMODE
 70
     1
  9
$QTEXTMODE
 70
     0
  9
$MIRRTEXT
 70
     1
  9
$LTSCALE
 40
1.0
  9
$ATTMODE
 70
     1
  9
$TEXTSIZE
 40
0.2
  9
$TRACEWID
 40
0.05
  9
$TEXTSTYLE
  7
Standard
  9
$CLAYER
  8
0
  9
$CELTYPE
  6
ByLayer
  9
$CECOLOR
 62
   256
  9
$CELTSCALE
 40
1.0
  9
$DISPSILH
 70
     0
  9
$DIMSCALE
 40
1.0
  9
$DIMASZ
 40
0.18
  9
$DIMEXO
 40
0.0625
  9
$DIMDLI
 40
0.38
  9
$DIMRND
 40
0.0
  9
$DIMDLE
 40
0.0
  9
$DIMEXE
 40
0.18
  9
$DIMTP
 40
0.0
  9
$DIMTM
 40
0.0
  9
$DIMTXT
 40
0.18
  9
$DIMCEN
 40
0.09
  9
$DIMTSZ
 40
0.0
  9
$DIMTOL
 70
     0
  9
$DIMLIM
 70
     0
  9
$DIMTIH
 70
     1
  9
$DIMTOH
 70
     1
  9
$DIMSE1
 70
     0
  9
$DIMSE2
 70
     0
  9
$DIMTAD
 70
     0
  9
$DIMZIN
 70
     0
  9
$DIMBLK
  1

  9
$DIMASO
 70
     1
  9
$DIMSHO
 70
     1
  9
$DIMPOST
  1

  9
$DIMAPOST
  1

  9
$DIMALT
 70
     0
  9
$DIMALTD
 70
     2
  9
$DIMALTF
 40
25.4
  9
$DIMLFAC
 40
1.0
  9
$DIMTOFL
 70
     0
  9
$DIMTVP
 40
0.0
  9
$DIMTIX
 70
     0
  9
$DIMSOXD
 70
     0
  9
$DIMSAH
 70
     0
  9
$DIMBLK1
  1

  9
$DIMBLK2
  1

  9
$DIMSTYLE
  2
Standard
  9
$DIMCLRD
 70
     0
  9
$DIMCLRE
 70
     0
  9
$DIMCLRT
 70
     0
  9
$DIMTFAC
 40
1.0
  9
$DIMGAP
 40
0.09
  9
$DIMJUST
 70
     0
  9
$DIMSD1
 70
     0
  9
$DIMSD2
 70
     0
  9
$DIMTOLJ
 70
     1
  9
$DIMTZIN
 70
     0
  9
$DIMALTZ
 70
     0
  9
$DIMALTTZ
 70
     0
  9
$DIMUPT
 70
     0
  9
$DIMDEC
 70
     4
  9
$DIMTDEC
 70
     4
  9
$DIMALTU
 70
     2
  9
$DIMALTTD
 70
     2
  9
$DIMTXSTY
  7
Standard
  9
$DIMAUNIT
 70
     0
  9
$DIMADEC
 70
     0
  9
$DIMALTRND
 40
0.0
  9
$DIMAZIN
 70
     0
  9
$DIMDSEP
 70
    46
  9
$DIMATFIT
 70
     3
  9
$DIMFRAC
 70
     0
  9
$DIMLDRBLK
  1

  9
$DIMLUNIT
 70
     2
  9
$DIMLWD
 70
    -2
  9
$DIMLWE
 70
    -2
  9
$DIMTMOVE
 70
     0
  9
$LUNITS
 70
     2
  9
$LUPREC
 70
     4
  9
$SKETCHINC
 40
0.1
  9
$FILLETRAD
 40
0.5
  9
$AUNITS
 70
     0
  9
$AUPREC
 70
     0
  9
$MENU
  1
.
  9
$ELEVATION
 40
0.0
  9
$PELEVATION
 40
0.0
  9
$THICKNESS
 40
0.0
  9
$LIMCHECK
 70
     0
  9
$CHAMFERA
 40
0.5
  9
$CHAMFERB
 40
0.5
  9
$CHAMFERC
 40
1.0
  9
$CHAMFERD
 40
0.0
  9
$SKPOLY
 70
     0
  9
$TDCREATE
 40
2458374.447069121
  9
$TDUCREATE
 40
2458374.363735787
  9
$TDUPDATE
 40
2458374.447069132
  9
$TDUUPDATE
 40
2458374.363735799
  9
$TDINDWG
 40
0.0000000116
  9
$TDUSRTIMER
 40
0.0000000116
  9
$USRTIMER
 70
     1
  9
$ANGBASE
 50
0.0
  9
$ANGDIR
 70
     0
  9
$PDMODE
 70
     0
  9
$PDSIZE
 40
0.0
  9
$PLINEWID
 40
0.0
  9
$SPLFRAME
 70
     0
  9
$SPLINETYPE
 70
     6
  9
$SPLINESEGS
 70
     8
  9
$HANDSEED
  5
991
  9
$SURFTAB1
 70
     6
  9
$SURFTAB2
 70
     6
  9
$SURFTYPE
 70
     6
  9
$SURFU
 70
     6
  9
$SURFV
 70
     6
  9
$UCSBASE
  2

  9
$UCSNAME
  2

  9
$UCSORG
 10
0.0
 20
0.0
 30
0.0
  9
$UCSXDIR
 10
1.0
 20
0.0
 30
0.0
  9
$UCSYDIR
 10
0.0
 20
1.0
 30
0.0
  9
$UCSORTHOREF
  2

  9
$UCSORTHOVIEW
 70
     0
  9
$UCSORGTOP
 10
0.0
 20
0.0
 30
0.0
  9
$UCSORGBOTTOM
 10
0.0
 20
0.0
 30
0.0
  9
$UCSORGLEFT
 10
0.0
 20
0.0
 30
0.0
  9
$UCSORGRIGHT
 10
0.0
 20
0.0
 30
0.0
  9
$UCSORGFRONT
 10
0.0
 20
0.0
 30
0.0
  9
$UCSORGBACK
 10
0.0
 20
0.0
 30
0.0
  9
$PUCSBASE
  2

  9
$PUCSNAME
  2

  9
$PUCSORG
 10
0.0
 20
0.0
 30
0.0
  9
$PUCSXDIR
 10
1.0
 20
0.0
 30
0.0
  9
$PUCSYDIR
 10
0.0
 20
1.0
 30
0.0
  9
$PUCSORTHOREF
  2

  9
$PUCSORTHOVIEW
 70
     0
  9
$PUCSORGTOP
 10
0.0
 20
0.0
 30
0.0
  9
$PUCSORGBOTTOM
 10
0.0
 20
0.0
 30
0.0
  9
$PUCSORGLEFT
 10
0.0
 20
0.0
 30
0.0
  9
$PUCSORGRIGHT
 10
0.0
 20
0.0
 30
0.0
  9
$PUCSORGFRONT
 10
0.0
 20
0.0
 30
0.0
  9
$PUCSORGBACK
 10
0.0
 20
0.0
 30
0.0
  9
$USERI1
 70
     0
  9
$USERI2
 70
     0
  9
$USERI3
 70
     0
  9
$USERI4
 70
     0
  9
$USERI5
 70
     0
  9
$USERR1
 40
0.0
  9
$USERR2
 40
0.0
  9
$USERR3
 40
0.0
  9
$USERR4
 40
0.0
  9
$USERR5
 40
0.0
  9
$WORLDVIEW
 70
     1
  9
$SHADEDGE
 70
     3
  9
$SHADEDIF
 70
    70
  9
$TILEMODE
 70
     1
  9
$MAXACTVP
 70
    64
  9
$PINSBASE
 10
0.0
 20
0.0
 30
0.0
  9
$PLIMCHECK
 70
     0
  9
$PEXTMIN
 10
1.000000000000000E+20
 20
1.000000000000000E+20
 30
1.000000000000000E+20
  9
$PEXTMAX
 10
-1.000000000000000E+20
 20
-1.000000000000000E+20
 30
-1.000000000000000E+20
  9
$PLIMMIN
 10
0.0
 20
0.0
  9
$PLIMMAX
 10
12.0
 20
9.0
  9
$UNITMODE
 70
     0
  9
$VISRETAIN
 70
     1
  9
$PLINEGEN
 70
     0
  9
$PSLTSCALE
 70
     1
  9
$TREEDEPTH
 70
  3020
  9
$CMLSTYLE
  2
Standard
  9
$CMLJUST
 70
     0
  9
$CMLSCALE
 40
1.0
  9
$PROXYGRAPHICS
 70
     1
  9
$MEASUREMENT
 70
     0
  9
$CELWEIGHT
370
    -1
  9
$ENDCAPS
280
     0
  9
$JOINSTYLE
280
     0
  9
$LWDISPLAY
290
     1
  9
$INSUNITS
 70
     1
  9
$HYPERLINKBASE
  1

  9
$STYLESHEET
  1

  9
$XEDIT
290
     1
  9
$CEPSNTYPE
380
     0
  9
$PSTYLEMODE
290
     1
  9
$FINGERPRINTGUID
  2
{29045A99-9A1A-4F27-ADA1-6983CE893716}
  9
$VERSIONGUID
  2
{FAEB1C32-E019-11D5-929B-00C0DF256EC4}
  9
$EXTNAMES
290
     1
  9
$PSVPSCALE
 40
0.0
  9
$OLESTARTUP
290
     0
  9
$SORTENTS
280
   127
  9
$INDEXCTL
280
     0
  9
$HIDETEXT
280
     1
  9
$XCLIPFRAME
290
     0
  9
$HALOGAP
280
     0
  9
$OBSCOLOR
 70
   257
  9
$OBSLTYPE
280
     0
  9
$INTERSECTIONDISPLAY
280
     0
  9
$INTERSECTIONCOLOR
 70
   257
  9
$DIMASSOC
280
     2
  9
$PROJECTNAME
  1

  0
ENDSEC
  0
SECTION
  2
CLASSES
  0
CLASS
  1
ACDBDICTIONARYWDFLT
  2
AcDbDictionaryWithDefault
  3
ObjectDBX Classes
 90
        0
 91
        3
280
     0
281
     0
  0
CLASS
  1
VISUALSTYLE
  2
AcDbVisualStyle
  3
ObjectDBX Classes
 90
     4095
 91
        3
280
     0
281
     0
  0
ENDSEC
  0
SECTION
  2
TABLES
  0
TABLE
  2
VPORT
  5
8
330
0
100
AcDbSymbolTable
 70
     1
  0
VPORT
  5
29
330
8
100
AcDbSymbolTableRecord
100
AcDbViewportTableRecord
  2
*Active
 70
     0
 10
0.0
 20
0.0
 11
1.0
 21
1.0
 12
0.0
 22
0.0
 13
0.0
 23
0.0
 14
0.5
 24
0.5
 15
0.5
 25
0.5
 16
0.0
 26
0.0
 36
1.0
 17
306.0
 27
396.0
 37
0.0
 40
792.0
 41
0.7727272727272727
 42
50.0
 43
0.0
 44
0.0
 50
0.0
 51
0.0
 71
     0
 72
   100
 73
     1
 74
     3
 75
     0
 76
     0
 77
     0
 78
     0
281
     0
 65
     1
110
0.0
120
0.0
130
0.0
111
1.0
121
0.0
131
0.0
112
0.0
122
1.0
132
0.0
 79
     0
146
0.0
  0
ENDTAB
  0
TABLE
  2
LTYPE
  5
5
330
0
100
AcDbSymbolTable
 70
     1
  0
LTYPE
  5
14
330
5
100
AcDbSymbolTableRecord
100
AcDbLinetypeTableRecord
  2
ByBlock
 70
     0
  3

 72
    65
 73
     0
 40
0.0
  0
LTYPE
  5
15
330
5
100
AcDbSymbolTableRecord
100
AcDbLinetypeTableRecord
  2
ByLayer
 70
     0
  3

 72
    65
 73
     0
 40
0.0
  0
LTYPE
  5
16
330
5
100
AcDbSymbolTableRecord
100
AcDbLinetypeTableRecord
  2
Continuous
 70
     0
  3
Solid line
 72
    65
 73
     0
 40
0.0
  0
ENDTAB
  0
TABLE
  2
LAYER
  5
2
330
0
100
AcDbSymbolTable
 70
     2
  0
LAYER
  5
10
330
2
100
AcDbSymbolTableRecord
100
AcDbLayerTableRecord
  2
0
 70
     0
 62
     7
  6
Continuous
370
    -3
390
F
  0
LAYER
  5
3B
330
2
100
AcDbSymbolTableRecord
100
AcDbLayerTableRecord
  2
Ebene 1
 70
     0
 62
     7
  6
Continuous
370
    -3
390
F
  0
ENDTAB
  0
TABLE
  2
STYLE
  5
3
330
0
100
AcDbSymbolTable
 70
     1
  0
STYLE
  5
11
330
3
100
AcDbSymbolTableRecord
100
AcDbTextStyleTableRecord
  2
Standard
 70
     0
 40
0.0
 41
1.0
 50
0.0
 71
     0
 42
0.2
  3
txt
  4

  0
ENDTAB
  0
TABLE
  2
VIEW
  5
6
330
0
100
AcDbSymbolTable
 70
     0
  0
ENDTAB
  0
TABLE
  2
UCS
  5
7
330
0
100
AcDbSymbolTable
 70
     0
  0
ENDTAB
  0
TABLE
  2
APPID
  5
9
330
0
100
AcDbSymbolTable
 70
     1
  0
APPID
  5
12
330
9
100
AcDbSymbolTableRecord
100
AcDbRegAppTableRecord
  2
ACAD
 70
     0
  0
ENDTAB
  0
TABLE
  2
DIMSTYLE
  5
A
330
0
100
AcDbSymbolTable
 70
     1
100
AcDbDimStyleTable
  0
DIMSTYLE
105
27
330
A
100
AcDbSymbolTableRecord
100
AcDbDimStyleTableRecord
  2
Standard
 70
     0
340
11
  0
ENDTAB
  0
TABLE
  2
BLOCK_RECORD
  5
1
330
0
100
AcDbSymbolTable
 70
     2
  0
BLOCK_RECORD
  5
1F
330
1
100
AcDbSymbolTableRecord
100
AcDbBlockTableRecord
  2
*Model_Space
340
22
  0
BLOCK_RECORD
  5
1B
330
1
100
AcDbSymbolTableRecord
100
AcDbBlockTableRecord
  2
*Paper_Space
340
1E
  0
BLOCK_RECORD
  5
23
330
1
100
AcDbSymbolTableRecord
100
AcDbBlockTableRecord
  2
*Paper_Space0
340
26
  0
BLOCK_RECORD
  5
3C
330
1
100
AcDbSymbolTableRecord
100
AcDbBlockTableRecord
  2
block 2
340
0
102
{BLKREFS
331
3D
102
}
  0
ENDTAB
  0
ENDSEC
  0
SECTION
  2
BLOCKS
  0
BLOCK
  5
20
330
1F
100
AcDbEntity
  8
0
100
AcDbBlockBegin
  2
*Model_Space
 70
     0
 71
     0
 10
0.0
 20
0.0
 30
0.0
  3
*Model_Space
  1

  0
ENDBLK
  5
21
330
1F
100
AcDbEntity
  8
0
100
AcDbBlockEnd
  0
BLOCK
  5
1C
330
1B
100
AcDbEntity
 67
     1
  8
0
100
AcDbBlockBegin
  2
*Paper_Space
 70
     0
 71
     0
 10
0.0
 20
0.0
 30
0.0
  3
*Paper_Space
  1

  0
ENDBLK
  5
1D
330
1B
100
AcDbEntity
 67
     1
  8
0
100
AcDbBlockEnd
  0
BLOCK
  5
24
330
23
100
AcDbEntity
  8
0
100
AcDbBlockBegin
  2
*Paper_Space0
 70
     0
 71
     0
 10
0.0
 20
0.0
 30
0.0
  3
*Paper_Space0
  1

  0
ENDBLK
  5
25
330
23
100
AcDbEntity
  8
0
100
AcDbBlockEnd
  0
BLOCK
  5
3E
330
3C
100
AcDbEntity
  8
0
100
AcDbBlockBegin
  2
block 2
 70
     0
 71
     0
 10
0.0
 20
0.0
 30
0.0
  3
block 2
  1

  0
POLYLINE
  5
40
330
3C
100
AcDbEntity
  8
Ebene 1
370
     0
100
AcDb2dPolyline
 66
     1
 10
0.0
 20
0.0
 30
0.0
  0
VERTEX
  5
41
330
40
100
AcDbEntity
  8
Ebene 1
370
     0
100
AcDbVertex
100
AcDb2dVertex
 10
628.8232421875
 20
65.720703125
 30
0.0
  0
VERTEX
  5
42
330
40
100
AcDbEntity
  8
Ebene 1
370
     0
100
AcDbVertex
100
AcDb2dVertex
 10
628.8232421875
 20
70.44140625
 30
0.0
  0
SEQEND
  5
43
330
40
100
AcDbEntity
  8
Ebene 1
370
     0
  0
POLYLINE
  5
44
330
3C
100
AcDbEntity
  8
Ebene 1
370
     0
100
AcDb2dPolyline
 66
     1
 10
0.0
 20
0.0
 30
0.0
  0
VERTEX
  5
45
330
44
100
AcDbEntity
  8
Ebene 1
370
     0
100
AcDbVertex
100
AcDb2dVertex
 10
627.720703125
 20
64.2646484375
 30
0.0
  0
VERTEX
  5
46
330
44
100
AcDbEntity
  8
Ebene 1
370
     0
100
AcDbVertex
100
AcDb2dVertex
 10
627.720703125
 20
70.44140625
 30
0.0
  0
SEQEND
  5
47
330
44
100
AcDbEntity
  8
Ebene 1
370
     0
  0
POLYLINE
  5
48
330
3C
100
AcDbEntity
  8
Ebene 1
370
     0
100
AcDb2dPolyline
 66
     1
 10
0.0
 20
0.0
 30
0.0
  0
VERTEX
  5
49
330
48
100
AcDbEntity
  8
Ebene 1
370
     0
100
AcDbVertex
100
AcDb2dVertex
 10
627.2353515625
 20
63.779296875
 30
0.0
  0
VERTEX
  5
4A
330
48
100
AcDbEntity
  8
Ebene 1
370
     0
100
AcDbVertex
100
AcDb2dVertex
 10
627.5
 20
63.8232421875
 30
0.0
  0
VERTEX
  5
4B
330
48
100
AcDbEntity
  8
Ebene 1
370
     0
100
AcDbVertex
100
AcDb2dVertex
 10
627.6767578125
 20
64.0439453125
 30
0.0
  0
VERTEX
  5
4C
330
48
100
AcDbEntity
  8
Ebene 1
370
     0
100
AcDbVertex
100
AcDb2dVertex
 10
627.720703125
 20
64.2646484375
 30
0.0
  0
SEQEND
  5
4D
330
48
100
AcDbEntity
  8
Ebene 1
370
     0
  0
POLYLINE
  5
4E
330
3C
100
AcDbEntity
  8
Ebene 1
370
     0
100
AcDb2dPolyline
 66
     1
 10
0.0
 20
0.0
 30
0.0
  0
VERTEX
  5
4F
330
4E
100
AcDbEntity
  8
Ebene 1
370
     0
100
AcDbVertex
100
AcDb2dVertex
 10
645.587890625
 20
63.7353515625
 30
0.0
  0
VERTEX
  5
50
330
4E
100
AcDbEntity
  8
Ebene 1
370
     0
100
AcDbVertex
100
AcDb2dVertex
 10
645.720703125
 20
63.779296875
 30
0.0
  0
VERTEX
  5
51
330
4E
100
AcDbEntity
  8
Ebene 1
370
     0
100
AcDbVertex
100
AcDb2dVertex
 10
645.7646484375
 20
63.779296875
 30
0.0
  0
SEQEND
  5
52
330
4E
100
AcDbEntity
  8
Ebene 1
370
     0
  0
POLYLINE
  5
53
330
3C
100
AcDbEntity
  8
Ebene 1
370
     0
100
AcDb2dPolyline
 66
     1
 10
0.0
 20
0.0
 30
0.0
  0
VERTEX
  5
54
330
53
100
AcDbEntity
  8
Ebene 1
370
     0
100
AcDbVertex
100
AcDb2dVertex
 10
613.69140625
 20
64.2646484375
 30
0.0
  0
VERTEX
  5
55
330
53
100
AcDbEntity
  8
Ebene 1
370
     0
100
AcDbVertex
100
AcDb2dVertex
 10
613.69140625
 20
70.44140625
 30
0.0
  0
SEQEND
  5
56
330
53
100
AcDbEntity
  8
Ebene 1
370
     0
  0
POLYLINE
  5
57
330
3C
100
AcDbEntity
  8
Ebene 1
370
     0
100
AcDb2dPolyline
 66
     1
 10
0.0
 20
0.0
 30
0.0
  0
VERTEX
  5
58
330
57
100
AcDbEntity
  8
Ebene 1
370
     0
100
AcDbVertex
100
AcDb2dVertex
 10
587.087890625
 20
70.44140625
 30
0.0
  0
VERTEX
  5
59
330
57
100
AcDbEntity
  8
Ebene 1
370
     0
100
AcDbVertex
100
AcDb2dVertex
 10
587.087890625
 20
64.2646484375
 30
0.0
  0
SEQEND
  5
5A
330
57
100
AcDbEntity
  8
Ebene 1
370
     0
  0
POLYLINE
  5
5B
330
3C
100
AcDbEntity
  8
Ebene 1
370
     0
100
AcDb2dPolyline
 66
     1
 10
0.0
 20
0.0
 30
0.0
  0
VERTEX
  5
5C
330
5B
100
AcDbEntity
  8
Ebene 1
370
     0
100
AcDbVertex
100
AcDb2dVertex
 10
613.2060546875
 20
63.779296875
 30
0.0
  0
VERTEX
  5
5D
330
5B
100
AcDbEntity
  8
Ebene 1
370
     0
100
AcDbVertex
100
AcDb2dVertex
 10
613.470703125
 20
63.8232421875
 30
0.0
  0
VERTEX
  5
5E
330
5B
100
AcDbEntity
  8
Ebene 1
370
     0
100
AcDbVertex
100
AcDb2dVertex
 10
613.6474609375
 20
64.0439453125
 30
0.0
  0
VERTEX
  5
5F
330
5B
100
AcDbEntity
  8
Ebene 1
370
     0
100
AcDbVertex
100
AcDb2dVertex
 10
613.69140625
 20
64.2646484375
 30
0.0
  0
SEQEND
  5
60
330
5B
100
AcDbEntity
  8
Ebene 1
370
     0
  0
POLYLINE
  5
61
330
3C
100
AcDbEntity
  8
Ebene 1
370
     0
100
AcDb2dPolyline
 66
     1
 10
0.0
 20
0.0
 30
0.0
  0
VERTEX
  5
62
330
61
100
AcDbEntity
  8
Ebene 1
370
     0
100
AcDbVertex
100
AcDb2dVertex
 10
587.087890625
 20
64.2646484375
 30
0.0
  0
VERTEX
  5
63
330
61
100
AcDbEntity
  8
Ebene 1
370
     0
100
AcDbVertex
100
AcDb2dVertex
 10
587.1328125
 20
64.0439453125
 30
0.0
  0
VERTEX
  5
64
330
61
100
AcDbEntity
  8
Ebene 1
370
     0
100
AcDbVertex
100
AcDb2dVertex
 10
587.3525390625
 20
63.8232421875
 30
0.0
  0
VERTEX
  5
65
330
61
100
AcDbEntity
  8
Ebene 1
370
     0
100
AcDbVertex
100
AcDb2dVertex
 10
587.5732421875
 20
63.779296875
 30
0.0
  0
SEQEND
  5
66
330
61
100
AcDbEntity
  8
Ebene 1
370
     0
  0
POLYLINE
  5
67
330
3C
100
AcDbEntity
  8
Ebene 1
370
     0
100
AcDb2dPolyline
 66
     1
 10
0.0
 20
0.0
 30
0.0
  0
VERTEX
  5
68
330
67
100
AcDbEntity
  8
Ebene 1
370
     0
100
AcDbVertex
100
AcDb2dVertex
 10
625.55859375
 20
18.9560546875
 30
0.0
  0
VERTEX
  5
69
330
67
100
AcDbEntity
  8
Ebene 1
370
     0
100
AcDbVertex
100
AcDb2dVertex
 10
625.7353515625
 20
18.9560546875
 30
0.0
  0
SEQEND
  5
6A
330
67
100
AcDbEntity
  8
Ebene 1
370
     0
  0
POLYLINE
  5
6B
330
3C
100
AcDbEntity
  8
Ebene 1
370
     0
100
AcDb2dPolyline
 66
     1
 10
0.0
 20
0.0
 30
0.0
  0
VERTEX
  5
6C
330
6B
100
AcDbEntity
  8
Ebene 1
370
     0
100
AcDbVertex
100
AcDb2dVertex
 10
624.80859375
 20
17.05859375
 30
0.0
  0
VERTEX
  5
6D
330
6B
100
AcDbEntity
  8
Ebene 1
370
     0
100
AcDbVertex
100
AcDb2dVertex
 10
625.55859375
 20
17.05859375
 30
0.0
  0
SEQEND
  5
6E
330
6B
100
AcDbEntity
  8
Ebene 1
370
     0
  0
POLYLINE
  5
6F
330
3C
100
AcDbEntity
  8
Ebene 1
370
     0
100
AcDb2dPolyline
 66
     1
 10
0.0
 20
0.0
 30
0.0
  0
VERTEX
  5
70
330
6F
100
AcDbEntity
  8
Ebene 1
370
     0
100
AcDbVertex
100
AcDb2dVertex
 10
619.8232421875
 20
17.05859375
 30
0.0
  0
VERTEX
  5
71
330
6F
100
AcDbEntity
  8
Ebene 1
370
     0
100
AcDbVertex
100
AcDb2dVertex
 10
624.7646484375
 20
17.05859375
 30
0.0
  0
SEQEND
  5
72
330
6F
100
AcDbEntity
  8
Ebene 1
370
     0
  0
POLYLINE
  5
73
330
3C
100
AcDbEntity
  8
Ebene 1
370
     0
100
AcDb2dPolyline
 66
     1
 10
0.0
 20
0.0
 30
0.0
  0
VERTEX
  5
74
330
73
100
AcDbEntity
  8
Ebene 1
370
     0
100
AcDbVertex
100
AcDb2dVertex
 10
634.9560546875
 20
49.837890625
 30
0.0
  0
VERTEX
  5
75
330
73
100
AcDbEntity
  8
Ebene 1
370
     0
100
AcDbVertex
100
AcDb2dVertex
 10
634.9560546875
 20
50.05859375
 30
0.0
  0
SEQEND
  5
76
330
73
100
AcDbEntity
  8
Ebene 1
370
     0
  0
POLYLINE
  5
77
330
3C
100
AcDbEntity
  8
Ebene 1
370
     0
100
AcDb2dPolyline
 66
     1
 10
0.0
 20
0.0
 30
0.0
  0
VERTEX
  5
78
330
77
100
AcDbEntity
  8
Ebene 1
370
     0
100
AcDbVertex
100
AcDb2dVertex
 10
634.9560546875
 20
63.7353515625
 30
0.0
  0
VERTEX
  5
79
330
77
100
AcDbEntity
  8
Ebene 1
370
     0
100
AcDbVertex
100
AcDb2dVertex
 10
634.9560546875
 20
65.720703125
 30
0.0
  0
SEQEND
  5
7A
330
77
100
AcDbEntity
  8
Ebene 1
370
     0
  0
POLYLINE
  5
7B
330
3C
100
AcDbEntity
  8
Ebene 1
370
     0
100
AcDb2dPolyline
 66
     1
 10
0.0
 20
0.0
 30
0.0
  0
VERTEX
  5
7C
330
7B
100
AcDbEntity
  8
Ebene 1
370
     0
100
AcDbVertex
100
AcDb2dVertex
 10
628.470703125
 20
8.587890625
 30
0.0
  0
VERTEX
  5
7D
330
7B
100
AcDbEntity
  8
Ebene 1
370
     0
100
AcDbVertex
100
AcDb2dVertex
 10
628.470703125
 20
9.69140625
 30
0.0
  0
SEQEND
  5
7E
330
7B
100
AcDbEntity
  8
Ebene 1
370
     0
  0
POLYLINE
  5
7F
330
3C
100
AcDbEntity
  8
Ebene 1
370
     0
100
AcDb2dPolyline
 66
     1
 10
0.0
 20
0.0
 30
0.0
  0
VERTEX
  5
80
330
7F
100
AcDbEntity
  8
Ebene 1
370
     0
100
AcDbVertex
100
AcDb2dVertex
 10
626.30859375
 20
6.4267578125
 30
0.0
  0
VERTEX
  5
81
330
7F
100
AcDbEntity
  8
Ebene 1
370
     0
100
AcDbVertex
100
AcDb2dVertex
 10
628.470703125
 20
8.587890625
 30
0.0
  0
SEQEND
  5
82
330
7F
100
AcDbEntity
  8
Ebene 1
370
     0
  0
POLYLINE
  5
83
330
3C
100
AcDbEntity
  8
Ebene 1
370
     0
100
AcDb2dPolyline
 66
     1
 10
0.0
 20
0.0
 30
0.0
  0
VERTEX
  5
84
330
83
100
AcDbEntity
  8
Ebene 1
370
     0
100
AcDbVertex
100
AcDb2dVertex
 10
624.1474609375
 20
16.1767578125
 30
0.0
  0
VERTEX
  5
85
330
83
100
AcDbEntity
  8
Ebene 1
370
     0
100
AcDbVertex
100
AcDb2dVertex
 10
624.1474609375
 20
17.05859375
 30
0.0
  0
SEQEND
  5
86
330
83
100
AcDbEntity
  8
Ebene 1
370
     0
  0
POLYLINE
  5
87
330
3C
100
AcDbEntity
  8
Ebene 1
370
     0
100
AcDb2dPolyline
 66
     1
 10
0.0
 20
0.0
 30
0.0
  0
VERTEX
  5
88
330
87
100
AcDbEntity
  8
Ebene 1
370
     0
100
AcDbVertex
100
AcDb2dVertex
 10
624.1474609375
 20
70.44140625
 30
0.0
  0
VERTEX
  5
89
330
87
100
AcDbEntity
  8
Ebene 1
370
     0
100
AcDbVertex
100
AcDb2dVertex
 10
624.1474609375
 20
74.587890625
 30
0.0
  0
SEQEND
  5
8A
330
87
100
AcDbEntity
  8
Ebene 1
370
     0
  0
POLYLINE
  5
8B
330
3C
100
AcDbEntity
  8
Ebene 1
370
     0
100
AcDb2dPolyline
 66
     1
 10
0.0
 20
0.0
 30
0.0
  0
VERTEX
  5
8C
330
8B
100
AcDbEntity
  8
Ebene 1
370
     0
100
AcDbVertex
100
AcDb2dVertex
 10
606.8525390625
 20
74.587890625
 30
0.0
  0
VERTEX
  5
8D
330
8B
100
AcDbEntity
  8
Ebene 1
370
     0
100
AcDbVertex
100
AcDb2dVertex
 10
606.8525390625
 20
70.44140625
 30
0.0
  0
SEQEND
  5
8E
330
8B
100
AcDbEntity
  8
Ebene 1
370
     0
  0
POLYLINE
  5
8F
330
3C
100
AcDbEntity
  8
Ebene 1
370
     0
100
AcDb2dPolyline
 66
     1
 10
0.0
 20
0.0
 30
0.0
  0
VERTEX
  5
90
330
8F
100
AcDbEntity
  8
Ebene 1
370
     0
100
AcDbVertex
100
AcDb2dVertex
 10
606.8525390625
 20
17.2353515625
 30
0.0
  0
VERTEX
  5
91
330
8F
100
AcDbEntity
  8
Ebene 1
370
     0
100
AcDbVertex
100
AcDb2dVertex
 10
606.8525390625
 20
16.1767578125
 30
0.0
  0
SEQEND
  5
92
330
8F
100
AcDbEntity
  8
Ebene 1
370
     0
  0
POLYLINE
  5
93
330
3C
100
AcDbEntity
  8
Ebene 1
370
     0
100
AcDb2dPolyline
 66
     1
 10
0.0
 20
0.0
 30
0.0
  0
VERTEX
  5
94
330
93
100
AcDbEntity
  8
Ebene 1
370
     0
100
AcDbVertex
100
AcDb2dVertex
 10
607.4267578125
 20
7.0
 30
0.0
  0
VERTEX
  5
95
330
93
100
AcDbEntity
  8
Ebene 1
370
     0
100
AcDbVertex
100
AcDb2dVertex
 10
607.9560546875
 20
6.4267578125
 30
0.0
  0
SEQEND
  5
96
330
93
100
AcDbEntity
  8
Ebene 1
370
     0
  0
POLYLINE
  5
97
330
3C
100
AcDbEntity
  8
Ebene 1
370
     0
100
AcDb2dPolyline
 66
     1
 10
0.0
 20
0.0
 30
0.0
  0
VERTEX
  5
98
330
97
100
AcDbEntity
  8
Ebene 1
370
     0
100
AcDbVertex
100
AcDb2dVertex
 10
620.9267578125
 20
6.4267578125
 30
0.0
  0
VERTEX
  5
99
330
97
100
AcDbEntity
  8
Ebene 1
370
     0
100
AcDbVertex
100
AcDb2dVertex
 10
623.087890625
 20
8.587890625
 30
0.0
  0
VERTEX
  5
9A
330
97
100
AcDbEntity
  8
Ebene 1
370
     0
100
AcDbVertex
100
AcDb2dVertex
 10
623.087890625
 20
9.69140625
 30
0.0
  0
SEQEND
  5
9B
330
97
100
AcDbEntity
  8
Ebene 1
370
     0
  0
POLYLINE
  5
9C
330
3C
100
AcDbEntity
  8
Ebene 1
370
     0
100
AcDb2dPolyline
 66
     1
 10
0.0
 20
0.0
 30
0.0
  0
VERTEX
  5
9D
330
9C
100
AcDbEntity
  8
Ebene 1
370
     0
100
AcDbVertex
100
AcDb2dVertex
 10
619.8232421875
 20
16.1767578125
 30
0.0
  0
VERTEX
  5
9E
330
9C
100
AcDbEntity
  8
Ebene 1
370
     0
100
AcDbVertex
100
AcDb2dVertex
 10
619.8232421875
 20
17.2353515625
 30
0.0
  0
SEQEND
  5
9F
330
9C
100
AcDbEntity
  8
Ebene 1
370
     0
  0
POLYLINE
  5
A0
330
3C
100
AcDbEntity
  8
Ebene 1
370
     0
100
AcDb2dPolyline
 66
     1
 10
0.0
 20
0.0
 30
0.0
  0
VERTEX
  5
A1
330
A0
100
AcDbEntity
  8
Ebene 1
370
     0
100
AcDbVertex
100
AcDb2dVertex
 10
619.8232421875
 20
31.30859375
 30
0.0
  0
VERTEX
  5
A2
330
A0
100
AcDbEntity
  8
Ebene 1
370
     0
100
AcDbVertex
100
AcDb2dVertex
 10
619.8232421875
 20
42.1171875
 30
0.0
  0
SEQEND
  5
A3
330
A0
100
AcDbEntity
  8
Ebene 1
370
     0
  0
POLYLINE
  5
A4
330
3C
100
AcDbEntity
  8
Ebene 1
370
     0
100
AcDb2dPolyline
 66
     1
 10
0.0
 20
0.0
 30
0.0
  0
VERTEX
  5
A5
330
A4
100
AcDbEntity
  8
Ebene 1
370
     0
100
AcDbVertex
100
AcDb2dVertex
 10
619.8232421875
 20
70.44140625
 30
0.0
  0
VERTEX
  5
A6
330
A4
100
AcDbEntity
  8
Ebene 1
370
     0
100
AcDbVertex
100
AcDb2dVertex
 10
619.8232421875
 20
74.587890625
 30
0.0
  0
SEQEND
  5
A7
330
A4
100
AcDbEntity
  8
Ebene 1
370
     0
  0
POLYLINE
  5
A8
330
3C
100
AcDbEntity
  8
Ebene 1
370
     0
100
AcDb2dPolyline
 66
     1
 10
0.0
 20
0.0
 30
0.0
  0
VERTEX
  5
A9
330
A8
100
AcDbEntity
  8
Ebene 1
370
     0
100
AcDbVertex
100
AcDb2dVertex
 10
609.0146484375
 20
74.587890625
 30
0.0
  0
VERTEX
  5
AA
330
A8
100
AcDbEntity
  8
Ebene 1
370
     0
100
AcDbVertex
100
AcDb2dVertex
 10
609.0146484375
 20
70.44140625
 30
0.0
  0
SEQEND
  5
AB
330
A8
100
AcDbEntity
  8
Ebene 1
370
     0
  0
POLYLINE
  5
AC
330
3C
100
AcDbEntity
  8
Ebene 1
370
     0
100
AcDb2dPolyline
 66
     1
 10
0.0
 20
0.0
 30
0.0
  0
VERTEX
  5
AD
330
AC
100
AcDbEntity
  8
Ebene 1
370
     0
100
AcDbVertex
100
AcDb2dVertex
 10
609.0146484375
 20
17.2353515625
 30
0.0
  0
VERTEX
  5
AE
330
AC
100
AcDbEntity
  8
Ebene 1
370
     0
100
AcDbVertex
100
AcDb2dVertex
 10
609.0146484375
 20
16.1767578125
 30
0.0
  0
SEQEND
  5
AF
330
AC
100
AcDbEntity
  8
Ebene 1
370
     0
  0
POLYLINE
  5
B0
330
3C
100
AcDbEntity
  8
Ebene 1
370
     0
100
AcDb2dPolyline
 66
     1
 10
0.0
 20
0.0
 30
0.0
  0
VERTEX
  5
B1
330
B0
100
AcDbEntity
  8
Ebene 1
370
     0
100
AcDbVertex
100
AcDb2dVertex
 10
591.720703125
 20
9.69140625
 30
0.0
  0
VERTEX
  5
B2
330
B0
100
AcDbEntity
  8
Ebene 1
370
     0
100
AcDbVertex
100
AcDb2dVertex
 10
591.720703125
 20
8.587890625
 30
0.0
  0
SEQEND
  5
B3
330
B0
100
AcDbEntity
  8
Ebene 1
370
     0
  0
POLYLINE
  5
B4
330
3C
100
AcDbEntity
  8
Ebene 1
370
     0
100
AcDb2dPolyline
 66
     1
 10
0.0
 20
0.0
 30
0.0
  0
VERTEX
  5
B5
330
B4
100
AcDbEntity
  8
Ebene 1
370
     0
100
AcDbVertex
100
AcDb2dVertex
 10
609.0146484375
 20
8.587890625
 30
0.0
  0
VERTEX
  5
B6
330
B4
100
AcDbEntity
  8
Ebene 1
370
     0
100
AcDbVertex
100
AcDb2dVertex
 10
609.0146484375
 20
9.69140625
 30
0.0
  0
SEQEND
  5
B7
330
B4
100
AcDbEntity
  8
Ebene 1
370
     0
  0
POLYLINE
  5
B8
330
3C
100
AcDbEntity
  8
Ebene 1
370
     0
100
AcDb2dPolyline
 66
     1
 10
0.0
 20
0.0
 30
0.0
  0
VERTEX
  5
B9
330
B8
100
AcDbEntity
  8
Ebene 1
370
     0
100
AcDbVertex
100
AcDb2dVertex
 10
591.720703125
 20
8.587890625
 30
0.0
  0
VERTEX
  5
BA
330
B8
100
AcDbEntity
  8
Ebene 1
370
     0
100
AcDbVertex
100
AcDb2dVertex
 10
593.8828125
 20
6.4267578125
 30
0.0
  0
SEQEND
  5
BB
330
B8
100
AcDbEntity
  8
Ebene 1
370
     0
  0
POLYLINE
  5
BC
330
3C
100
AcDbEntity
  8
Ebene 1
370
     0
100
AcDb2dPolyline
 66
     1
 10
0.0
 20
0.0
 30
0.0
  0
VERTEX
  5
BD
330
BC
100
AcDbEntity
  8
Ebene 1
370
     0
100
AcDbVertex
100
AcDb2dVertex
 10
606.8525390625
 20
6.4267578125
 30
0.0
  0
VERTEX
  5
BE
330
BC
100
AcDbEntity
  8
Ebene 1
370
     0
100
AcDbVertex
100
AcDb2dVertex
 10
609.0146484375
 20
8.587890625
 30
0.0
  0
SEQEND
  5
BF
330
BC
100
AcDbEntity
  8
Ebene 1
370
     0
  0
POLYLINE
  5
C0
330
3C
100
AcDbEntity
  8
Ebene 1
370
     0
100
AcDb2dPolyline
 66
     1
 10
0.0
 20
0.0
 30
0.0
  0
VERTEX
  5
C1
330
C0
100
AcDbEntity
  8
Ebene 1
370
     0
100
AcDbVertex
100
AcDb2dVertex
 10
605.7939453125
 20
16.1767578125
 30
0.0
  0
VERTEX
  5
C2
330
C0
100
AcDbEntity
  8
Ebene 1
370
     0
100
AcDbVertex
100
AcDb2dVertex
 10
605.7939453125
 20
17.2353515625
 30
0.0
  0
SEQEND
  5
C3
330
C0
100
AcDbEntity
  8
Ebene 1
370
     0
  0
POLYLINE
  5
C4
330
3C
100
AcDbEntity
  8
Ebene 1
370
     0
100
AcDb2dPolyline
 66
     1
 10
0.0
 20
0.0
 30
0.0
  0
VERTEX
  5
C5
330
C4
100
AcDbEntity
  8
Ebene 1
370
     0
100
AcDbVertex
100
AcDb2dVertex
 10
605.7939453125
 20
56.19140625
 30
0.0
  0
VERTEX
  5
C6
330
C4
100
AcDbEntity
  8
Ebene 1
370
     0
100
AcDbVertex
100
AcDb2dVertex
 10
605.7939453125
 20
57.25
 30
0.0
  0
SEQEND
  5
C7
330
C4
100
AcDbEntity
  8
Ebene 1
370
     0
  0
POLYLINE
  5
C8
330
3C
100
AcDbEntity
  8
Ebene 1
370
     0
100
AcDb2dPolyline
 66
     1
 10
0.0
 20
0.0
 30
0.0
  0
VERTEX
  5
C9
330
C8
100
AcDbEntity
  8
Ebene 1
370
     0
100
AcDbVertex
100
AcDb2dVertex
 10
605.7939453125
 20
70.44140625
 30
0.0
  0
VERTEX
  5
CA
330
C8
100
AcDbEntity
  8
Ebene 1
370
     0
100
AcDbVertex
100
AcDb2dVertex
 10
605.7939453125
 20
74.587890625
 30
0.0
  0
SEQEND
  5
CB
330
C8
100
AcDbEntity
  8
Ebene 1
370
     0
  0
POLYLINE
  5
CC
330
3C
100
AcDbEntity
  8
Ebene 1
370
     0
100
AcDb2dPolyline
 66
     1
 10
0.0
 20
0.0
 30
0.0
  0
VERTEX
  5
CD
330
CC
100
AcDbEntity
  8
Ebene 1
370
     0
100
AcDbVertex
100
AcDb2dVertex
 10
594.9853515625
 20
74.587890625
 30
0.0
  0
VERTEX
  5
CE
330
CC
100
AcDbEntity
  8
Ebene 1
370
     0
100
AcDbVertex
100
AcDb2dVertex
 10
594.9853515625
 20
70.44140625
 30
0.0
  0
SEQEND
  5
CF
330
CC
100
AcDbEntity
  8
Ebene 1
370
     0
  0
POLYLINE
  5
D0
330
3C
100
AcDbEntity
  8
Ebene 1
370
     0
100
AcDb2dPolyline
 66
     1
 10
0.0
 20
0.0
 30
0.0
  0
VERTEX
  5
D1
330
D0
100
AcDbEntity
  8
Ebene 1
370
     0
100
AcDbVertex
100
AcDb2dVertex
 10
594.9853515625
 20
57.25
 30
0.0
  0
VERTEX
  5
D2
330
D0
100
AcDbEntity
  8
Ebene 1
370
     0
100
AcDbVertex
100
AcDb2dVertex
 10
594.9853515625
 20
56.19140625
 30
0.0
  0
SEQEND
  5
D3
330
D0
100
AcDbEntity
  8
Ebene 1
370
     0
  0
POLYLINE
  5
D4
330
3C
100
AcDbEntity
  8
Ebene 1
370
     0
100
AcDb2dPolyline
 66
     1
 10
0.0
 20
0.0
 30
0.0
  0
VERTEX
  5
D5
330
D4
100
AcDbEntity
  8
Ebene 1
370
     0
100
AcDbVertex
100
AcDb2dVertex
 10
594.9853515625
 20
17.2353515625
 30
0.0
  0
VERTEX
  5
D6
330
D4
100
AcDbEntity
  8
Ebene 1
370
     0
100
AcDbVertex
100
AcDb2dVertex
 10
594.9853515625
 20
16.1767578125
 30
0.0
  0
SEQEND
  5
D7
330
D4
100
AcDbEntity
  8
Ebene 1
370
     0
  0
POLYLINE
  5
D8
330
3C
100
AcDbEntity
  8
Ebene 1
370
     0
100
AcDb2dPolyline
 66
     1
 10
0.0
 20
0.0
 30
0.0
  0
VERTEX
  5
D9
330
D8
100
AcDbEntity
  8
Ebene 1
370
     0
100
AcDbVertex
100
AcDb2dVertex
 10
639.279296875
 20
6.4267578125
 30
0.0
  0
VERTEX
  5
DA
330
D8
100
AcDbEntity
  8
Ebene 1
370
     0
100
AcDbVertex
100
AcDb2dVertex
 10
641.44140625
 20
8.587890625
 30
0.0
  0
VERTEX
  5
DB
330
D8
100
AcDbEntity
  8
Ebene 1
370
     0
100
AcDbVertex
100
AcDb2dVertex
 10
641.44140625
 20
9.69140625
 30
0.0
  0
SEQEND
  5
DC
330
D8
100
AcDbEntity
  8
Ebene 1
370
     0
  0
POLYLINE
  5
DD
330
3C
100
AcDbEntity
  8
Ebene 1
370
     0
100
AcDb2dPolyline
 66
     1
 10
0.0
 20
0.0
 30
0.0
  0
VERTEX
  5
DE
330
DD
100
AcDbEntity
  8
Ebene 1
370
     0
100
AcDbVertex
100
AcDb2dVertex
 10
638.220703125
 20
16.1767578125
 30
0.0
  0
VERTEX
  5
DF
330
DD
100
AcDbEntity
  8
Ebene 1
370
     0
100
AcDbVertex
100
AcDb2dVertex
 10
638.220703125
 20
16.3974609375
 30
0.0
  0
SEQEND
  5
E0
330
DD
100
AcDbEntity
  8
Ebene 1
370
     0
  0
POLYLINE
  5
E1
330
3C
100
AcDbEntity
  8
Ebene 1
370
     0
100
AcDb2dPolyline
 66
     1
 10
0.0
 20
0.0
 30
0.0
  0
VERTEX
  5
E2
330
E1
100
AcDbEntity
  8
Ebene 1
370
     0
100
AcDbVertex
100
AcDb2dVertex
 10
638.220703125
 20
70.44140625
 30
0.0
  0
VERTEX
  5
E3
330
E1
100
AcDbEntity
  8
Ebene 1
370
     0
100
AcDbVertex
100
AcDb2dVertex
 10
638.220703125
 20
74.587890625
 30
0.0
  0
SEQEND
  5
E4
330
E1
100
AcDbEntity
  8
Ebene 1
370
     0
  0
POLYLINE
  5
E5
330
3C
100
AcDbEntity
  8
Ebene 1
370
     0
100
AcDb2dPolyline
 66
     1
 10
0.0
 20
0.0
 30
0.0
  0
VERTEX
  5
E6
330
E5
100
AcDbEntity
  8
Ebene 1
370
     0
100
AcDbVertex
100
AcDb2dVertex
 10
627.412109375
 20
74.587890625
 30
0.0
  0
VERTEX
  5
E7
330
E5
100
AcDbEntity
  8
Ebene 1
370
     0
100
AcDbVertex
100
AcDb2dVertex
 10
627.412109375
 20
70.44140625
 30
0.0
  0
SEQEND
  5
E8
330
E5
100
AcDbEntity
  8
Ebene 1
370
     0
  0
POLYLINE
  5
E9
330
3C
100
AcDbEntity
  8
Ebene 1
370
     0
100
AcDb2dPolyline
 66
     1
 10
0.0
 20
0.0
 30
0.0
  0
VERTEX
  5
EA
330
E9
100
AcDbEntity
  8
Ebene 1
370
     0
100
AcDbVertex
100
AcDb2dVertex
 10
627.412109375
 20
17.1474609375
 30
0.0
  0
VERTEX
  5
EB
330
E9
100
AcDbEntity
  8
Ebene 1
370
     0
100
AcDbVertex
100
AcDb2dVertex
 10
627.412109375
 20
16.1767578125
 30
0.0
  0
SEQEND
  5
EC
330
E9
100
AcDbEntity
  8
Ebene 1
370
     0
  0
POLYLINE
  5
ED
330
3C
100
AcDbEntity
  8
Ebene 1
370
     0
100
AcDb2dPolyline
 66
     1
 10
0.0
 20
0.0
 30
0.0
  0
VERTEX
  5
EE
330
ED
100
AcDbEntity
  8
Ebene 1
370
     0
100
AcDbVertex
100
AcDb2dVertex
 10
578.837890625
 20
44.279296875
 30
0.0
  0
VERTEX
  5
EF
330
ED
100
AcDbEntity
  8
Ebene 1
370
     0
100
AcDbVertex
100
AcDb2dVertex
 10
578.9267578125
 20
43.7060546875
 30
0.0
  0
VERTEX
  5
F0
330
ED
100
AcDbEntity
  8
Ebene 1
370
     0
100
AcDbVertex
100
AcDb2dVertex
 10
579.1025390625
 20
43.220703125
 30
0.0
  0
VERTEX
  5
F1
330
ED
100
AcDbEntity
  8
Ebene 1
370
     0
100
AcDbVertex
100
AcDb2dVertex
 10
579.4560546875
 20
42.7353515625
 30
0.0
  0
VERTEX
  5
F2
330
ED
100
AcDbEntity
  8
Ebene 1
370
     0
100
AcDbVertex
100
AcDb2dVertex
 10
579.8974609375
 20
42.4267578125
 30
0.0
  0
VERTEX
  5
F3
330
ED
100
AcDbEntity
  8
Ebene 1
370
     0
100
AcDbVertex
100
AcDb2dVertex
 10
580.4267578125
 20
42.2060546875
 30
0.0
  0
VERTEX
  5
F4
330
ED
100
AcDbEntity
  8
Ebene 1
370
     0
100
AcDbVertex
100
AcDb2dVertex
 10
580.9560546875
 20
42.1171875
 30
0.0
  0
SEQEND
  5
F5
330
ED
100
AcDbEntity
  8
Ebene 1
370
     0
  0
POLYLINE
  5
F6
330
3C
100
AcDbEntity
  8
Ebene 1
370
     0
100
AcDb2dPolyline
 66
     1
 10
0.0
 20
0.0
 30
0.0
  0
VERTEX
  5
F7
330
F6
100
AcDbEntity
  8
Ebene 1
370
     0
100
AcDbVertex
100
AcDb2dVertex
 10
619.8232421875
 20
42.1171875
 30
0.0
  0
VERTEX
  5
F8
330
F6
100
AcDbEntity
  8
Ebene 1
370
     0
100
AcDbVertex
100
AcDb2dVertex
 10
620.30859375
 20
42.162109375
 30
0.0
  0
VERTEX
  5
F9
330
F6
100
AcDbEntity
  8
Ebene 1
370
     0
100
AcDbVertex
100
AcDb2dVertex
 10
620.75
 20
42.337890625
 30
0.0
  0
VERTEX
  5
FA
330
F6
100
AcDbEntity
  8
Ebene 1
370
     0
100
AcDbVertex
100
AcDb2dVertex
 10
621.1474609375
 20
42.6025390625
 30
0.0
  0
VERTEX
  5
FB
330
F6
100
AcDbEntity
  8
Ebene 1
370
     0
100
AcDbVertex
100
AcDb2dVertex
 10
621.5
 20
42.912109375
 30
0.0
  0
VERTEX
  5
FC
330
F6
100
AcDbEntity
  8
Ebene 1
370
     0
100
AcDbVertex
100
AcDb2dVertex
 10
621.720703125
 20
43.3525390625
 30
0.0
  0
VERTEX
  5
FD
330
F6
100
AcDbEntity
  8
Ebene 1
370
     0
100
AcDbVertex
100
AcDb2dVertex
 10
621.8974609375
 20
43.7939453125
 30
0.0
  0
VERTEX
  5
FE
330
F6
100
AcDbEntity
  8
Ebene 1
370
     0
100
AcDbVertex
100
AcDb2dVertex
 10
621.94140625
 20
44.279296875
 30
0.0
  0
SEQEND
  5
FF
330
F6
100
AcDbEntity
  8
Ebene 1
370
     0
  0
POLYLINE
  5
100
330
3C
100
AcDbEntity
  8
Ebene 1
370
     0
100
AcDb2dPolyline
 66
     1
 10
0.0
 20
0.0
 30
0.0
  0
VERTEX
  5
101
330
100
100
AcDbEntity
  8
Ebene 1
370
     0
100
AcDbVertex
100
AcDb2dVertex
 10
621.9853515625
 20
19.3974609375
 30
0.0
  0
VERTEX
  5
102
330
100
100
AcDbEntity
  8
Ebene 1
370
     0
100
AcDbVertex
100
AcDb2dVertex
 10
621.9853515625
 20
29.1474609375
 30
0.0
  0
SEQEND
  5
103
330
100
100
AcDbEntity
  8
Ebene 1
370
     0
  0
POLYLINE
  5
104
330
3C
100
AcDbEntity
  8
Ebene 1
370
     0
100
AcDb2dPolyline
 66
     1
 10
0.0
 20
0.0
 30
0.0
  0
VERTEX
  5
105
330
104
100
AcDbEntity
  8
Ebene 1
370
     0
100
AcDbVertex
100
AcDb2dVertex
 10
578.7939453125
 20
29.1474609375
 30
0.0
  0
VERTEX
  5
106
330
104
100
AcDbEntity
  8
Ebene 1
370
     0
100
AcDbVertex
100
AcDb2dVertex
 10
578.7939453125
 20
19.3974609375
 30
0.0
  0
SEQEND
  5
107
330
104
100
AcDbEntity
  8
Ebene 1
370
     0
  0
POLYLINE
  5
108
330
3C
100
AcDbEntity
  8
Ebene 1
370
     0
100
AcDb2dPolyline
 66
     1
 10
0.0
 20
0.0
 30
0.0
  0
VERTEX
  5
109
330
108
100
AcDbEntity
  8
Ebene 1
370
     0
100
AcDbVertex
100
AcDb2dVertex
 10
621.9853515625
 20
44.279296875
 30
0.0
  0
VERTEX
  5
10A
330
108
100
AcDbEntity
  8
Ebene 1
370
     0
100
AcDbVertex
100
AcDb2dVertex
 10
621.9853515625
 20
54.029296875
 30
0.0
  0
SEQEND
  5
10B
330
108
100
AcDbEntity
  8
Ebene 1
370
     0
  0
POLYLINE
  5
10C
330
3C
100
AcDbEntity
  8
Ebene 1
370
     0
100
AcDb2dPolyline
 66
     1
 10
0.0
 20
0.0
 30
0.0
  0
VERTEX
  5
10D
330
10C
100
AcDbEntity
  8
Ebene 1
370
     0
100
AcDbVertex
100
AcDb2dVertex
 10
578.7939453125
 20
54.029296875
 30
0.0
  0
VERTEX
  5
10E
330
10C
100
AcDbEntity
  8
Ebene 1
370
     0
100
AcDbVertex
100
AcDb2dVertex
 10
578.7939453125
 20
44.279296875
 30
0.0
  0
SEQEND
  5
10F
330
10C
100
AcDbEntity
  8
Ebene 1
370
     0
  0
POLYLINE
  5
110
330
3C
100
AcDbEntity
  8
Ebene 1
370
     0
100
AcDb2dPolyline
 66
     1
 10
0.0
 20
0.0
 30
0.0
  0
VERTEX
  5
111
330
110
100
AcDbEntity
  8
Ebene 1
370
     0
100
AcDbVertex
100
AcDb2dVertex
 10
621.94140625
 20
29.1474609375
 30
0.0
  0
VERTEX
  5
112
330
110
100
AcDbEntity
  8
Ebene 1
370
     0
100
AcDbVertex
100
AcDb2dVertex
 10
621.8974609375
 20
29.6328125
 30
0.0
  0
VERTEX
  5
113
330
110
100
AcDbEntity
  8
Ebene 1
370
     0
100
AcDbVertex
100
AcDb2dVertex
 10
621.720703125
 20
30.0732421875
 30
0.0
  0
VERTEX
  5
114
330
110
100
AcDbEntity
  8
Ebene 1
370
     0
100
AcDbVertex
100
AcDb2dVertex
 10
621.5
 20
30.5146484375
 30
0.0
  0
VERTEX
  5
115
330
110
100
AcDbEntity
  8
Ebene 1
370
     0
100
AcDbVertex
100
AcDb2dVertex
 10
621.1474609375
 20
30.8232421875
 30
0.0
  0
VERTEX
  5
116
330
110
100
AcDbEntity
  8
Ebene 1
370
     0
100
AcDbVertex
100
AcDb2dVertex
 10
620.75
 20
31.087890625
 30
0.0
  0
VERTEX
  5
117
330
110
100
AcDbEntity
  8
Ebene 1
370
     0
100
AcDbVertex
100
AcDb2dVertex
 10
620.30859375
 20
31.2646484375
 30
0.0
  0
VERTEX
  5
118
330
110
100
AcDbEntity
  8
Ebene 1
370
     0
100
AcDbVertex
100
AcDb2dVertex
 10
619.8232421875
 20
31.30859375
 30
0.0
  0
SEQEND
  5
119
330
110
100
AcDbEntity
  8
Ebene 1
370
     0
  0
POLYLINE
  5
11A
330
3C
100
AcDbEntity
  8
Ebene 1
370
     0
100
AcDb2dPolyline
 66
     1
 10
0.0
 20
0.0
 30
0.0
  0
VERTEX
  5
11B
330
11A
100
AcDbEntity
  8
Ebene 1
370
     0
100
AcDbVertex
100
AcDb2dVertex
 10
580.9560546875
 20
31.30859375
 30
0.0
  0
VERTEX
  5
11C
330
11A
100
AcDbEntity
  8
Ebene 1
370
     0
100
AcDbVertex
100
AcDb2dVertex
 10
580.470703125
 20
31.2646484375
 30
0.0
  0
VERTEX
  5
11D
330
11A
100
AcDbEntity
  8
Ebene 1
370
     0
100
AcDbVertex
100
AcDb2dVertex
 10
580.029296875
 20
31.087890625
 30
0.0
  0
VERTEX
  5
11E
330
11A
100
AcDbEntity
  8
Ebene 1
370
     0
100
AcDbVertex
100
AcDb2dVertex
 10
579.6328125
 20
30.8232421875
 30
0.0
  0
VERTEX
  5
11F
330
11A
100
AcDbEntity
  8
Ebene 1
370
     0
100
AcDbVertex
100
AcDb2dVertex
 10
579.279296875
 20
30.5146484375
 30
0.0
  0
VERTEX
  5
120
330
11A
100
AcDbEntity
  8
Ebene 1
370
     0
100
AcDbVertex
100
AcDb2dVertex
 10
579.05859375
 20
30.0732421875
 30
0.0
  0
VERTEX
  5
121
330
11A
100
AcDbEntity
  8
Ebene 1
370
     0
100
AcDbVertex
100
AcDb2dVertex
 10
578.8828125
 20
29.6328125
 30
0.0
  0
VERTEX
  5
122
330
11A
100
AcDbEntity
  8
Ebene 1
370
     0
100
AcDbVertex
100
AcDb2dVertex
 10
578.837890625
 20
29.1474609375
 30
0.0
  0
SEQEND
  5
123
330
11A
100
AcDbEntity
  8
Ebene 1
370
     0
  0
POLYLINE
  5
124
330
3C
100
AcDbEntity
  8
Ebene 1
370
     0
100
AcDb2dPolyline
 66
     1
 10
0.0
 20
0.0
 30
0.0
  0
VERTEX
  5
125
330
124
100
AcDbEntity
  8
Ebene 1
370
     0
100
AcDbVertex
100
AcDb2dVertex
 10
578.837890625
 20
19.3974609375
 30
0.0
  0
VERTEX
  5
126
330
124
100
AcDbEntity
  8
Ebene 1
370
     0
100
AcDbVertex
100
AcDb2dVertex
 10
578.9267578125
 20
18.8232421875
 30
0.0
  0
VERTEX
  5
127
330
124
100
AcDbEntity
  8
Ebene 1
370
     0
100
AcDbVertex
100
AcDb2dVertex
 10
579.1025390625
 20
18.337890625
 30
0.0
  0
VERTEX
  5
128
330
124
100
AcDbEntity
  8
Ebene 1
370
     0
100
AcDbVertex
100
AcDb2dVertex
 10
579.4560546875
 20
17.8525390625
 30
0.0
  0
VERTEX
  5
129
330
124
100
AcDbEntity
  8
Ebene 1
370
     0
100
AcDbVertex
100
AcDb2dVertex
 10
579.8974609375
 20
17.5439453125
 30
0.0
  0
VERTEX
  5
12A
330
124
100
AcDbEntity
  8
Ebene 1
370
     0
100
AcDbVertex
100
AcDb2dVertex
 10
580.4267578125
 20
17.3232421875
 30
0.0
  0
VERTEX
  5
12B
330
124
100
AcDbEntity
  8
Ebene 1
370
     0
100
AcDbVertex
100
AcDb2dVertex
 10
580.9560546875
 20
17.2353515625
 30
0.0
  0
SEQEND
  5
12C
330
124
100
AcDbEntity
  8
Ebene 1
370
     0
  0
POLYLINE
  5
12D
330
3C
100
AcDbEntity
  8
Ebene 1
370
     0
100
AcDb2dPolyline
 66
     1
 10
0.0
 20
0.0
 30
0.0
  0
VERTEX
  5
12E
330
12D
100
AcDbEntity
  8
Ebene 1
370
     0
100
AcDbVertex
100
AcDb2dVertex
 10
619.8232421875
 20
17.2353515625
 30
0.0
  0
VERTEX
  5
12F
330
12D
100
AcDbEntity
  8
Ebene 1
370
     0
100
AcDbVertex
100
AcDb2dVertex
 10
620.30859375
 20
17.279296875
 30
0.0
  0
VERTEX
  5
130
330
12D
100
AcDbEntity
  8
Ebene 1
370
     0
100
AcDbVertex
100
AcDb2dVertex
 10
620.75
 20
17.4560546875
 30
0.0
  0
VERTEX
  5
131
330
12D
100
AcDbEntity
  8
Ebene 1
370
     0
100
AcDbVertex
100
AcDb2dVertex
 10
621.1474609375
 20
17.720703125
 30
0.0
  0
VERTEX
  5
132
330
12D
100
AcDbEntity
  8
Ebene 1
370
     0
100
AcDbVertex
100
AcDb2dVertex
 10
621.5
 20
18.029296875
 30
0.0
  0
VERTEX
  5
133
330
12D
100
AcDbEntity
  8
Ebene 1
370
     0
100
AcDbVertex
100
AcDb2dVertex
 10
621.720703125
 20
18.470703125
 30
0.0
  0
VERTEX
  5
134
330
12D
100
AcDbEntity
  8
Ebene 1
370
     0
100
AcDbVertex
100
AcDb2dVertex
 10
621.8974609375
 20
18.912109375
 30
0.0
  0
VERTEX
  5
135
330
12D
100
AcDbEntity
  8
Ebene 1
370
     0
100
AcDbVertex
100
AcDb2dVertex
 10
621.94140625
 20
19.3974609375
 30
0.0
  0
SEQEND
  5
136
330
12D
100
AcDbEntity
  8
Ebene 1
370
     0
  0
POLYLINE
  5
137
330
3C
100
AcDbEntity
  8
Ebene 1
370
     0
100
AcDb2dPolyline
 66
     1
 10
0.0
 20
0.0
 30
0.0
  0
VERTEX
  5
138
330
137
100
AcDbEntity
  8
Ebene 1
370
     0
100
AcDbVertex
100
AcDb2dVertex
 10
580.9560546875
 20
56.19140625
 30
0.0
  0
VERTEX
  5
139
330
137
100
AcDbEntity
  8
Ebene 1
370
     0
100
AcDbVertex
100
AcDb2dVertex
 10
580.470703125
 20
56.1474609375
 30
0.0
  0
VERTEX
  5
13A
330
137
100
AcDbEntity
  8
Ebene 1
370
     0
100
AcDbVertex
100
AcDb2dVertex
 10
580.029296875
 20
55.970703125
 30
0.0
  0
VERTEX
  5
13B
330
137
100
AcDbEntity
  8
Ebene 1
370
     0
100
AcDbVertex
100
AcDb2dVertex
 10
579.6328125
 20
55.7060546875
 30
0.0
  0
VERTEX
  5
13C
330
137
100
AcDbEntity
  8
Ebene 1
370
     0
100
AcDbVertex
100
AcDb2dVertex
 10
579.279296875
 20
55.3974609375
 30
0.0
  0
VERTEX
  5
13D
330
137
100
AcDbEntity
  8
Ebene 1
370
     0
100
AcDbVertex
100
AcDb2dVertex
 10
579.05859375
 20
54.9560546875
 30
0.0
  0
VERTEX
  5
13E
330
137
100
AcDbEntity
  8
Ebene 1
370
     0
100
AcDbVertex
100
AcDb2dVertex
 10
578.8828125
 20
54.5146484375
 30
0.0
  0
VERTEX
  5
13F
330
137
100
AcDbEntity
  8
Ebene 1
370
     0
100
AcDbVertex
100
AcDb2dVertex
 10
578.837890625
 20
54.029296875
 30
0.0
  0
SEQEND
  5
140
330
137
100
AcDbEntity
  8
Ebene 1
370
     0
  0
POLYLINE
  5
141
330
3C
100
AcDbEntity
  8
Ebene 1
370
     0
100
AcDb2dPolyline
 66
     1
 10
0.0
 20
0.0
 30
0.0
  0
VERTEX
  5
142
330
141
100
AcDbEntity
  8
Ebene 1
370
     0
100
AcDbVertex
100
AcDb2dVertex
 10
621.94140625
 20
54.029296875
 30
0.0
  0
VERTEX
  5
143
330
141
100
AcDbEntity
  8
Ebene 1
370
     0
100
AcDbVertex
100
AcDb2dVertex
 10
621.8974609375
 20
54.5146484375
 30
0.0
  0
VERTEX
  5
144
330
141
100
AcDbEntity
  8
Ebene 1
370
     0
100
AcDbVertex
100
AcDb2dVertex
 10
621.720703125
 20
54.9560546875
 30
0.0
  0
VERTEX
  5
145
330
141
100
AcDbEntity
  8
Ebene 1
370
     0
100
AcDbVertex
100
AcDb2dVertex
 10
621.5
 20
55.3974609375
 30
0.0
  0
VERTEX
  5
146
330
141
100
AcDbEntity
  8
Ebene 1
370
     0
100
AcDbVertex
100
AcDb2dVertex
 10
621.1474609375
 20
55.7060546875
 30
0.0
  0
VERTEX
  5
147
330
141
100
AcDbEntity
  8
Ebene 1
370
     0
100
AcDbVertex
100
AcDb2dVertex
 10
620.75
 20
55.970703125
 30
0.0
  0
VERTEX
  5
148
330
141
100
AcDbEntity
  8
Ebene 1
370
     0
100
AcDbVertex
100
AcDb2dVertex
 10
620.30859375
 20
56.1474609375
 30
0.0
  0
VERTEX
  5
149
330
141
100
AcDbEntity
  8
Ebene 1
370
     0
100
AcDbVertex
100
AcDb2dVertex
 10
619.8232421875
 20
56.19140625
 30
0.0
  0
SEQEND
  5
14A
330
141
100
AcDbEntity
  8
Ebene 1
370
     0
  0
POLYLINE
  5
14B
330
3C
100
AcDbEntity
  8
Ebene 1
370
     0
100
AcDb2dPolyline
 66
     1
 10
0.0
 20
0.0
 30
0.0
  0
VERTEX
  5
14C
330
14B
100
AcDbEntity
  8
Ebene 1
370
     0
100
AcDbVertex
100
AcDb2dVertex
 10
612.279296875
 20
32.412109375
 30
0.0
  0
VERTEX
  5
14D
330
14B
100
AcDbEntity
  8
Ebene 1
370
     0
100
AcDbVertex
100
AcDb2dVertex
 10
612.3671875
 20
32.0146484375
 30
0.0
  0
VERTEX
  5
14E
330
14B
100
AcDbEntity
  8
Ebene 1
370
     0
100
AcDbVertex
100
AcDb2dVertex
 10
612.587890625
 20
31.662109375
 30
0.0
  0
VERTEX
  5
14F
330
14B
100
AcDbEntity
  8
Ebene 1
370
     0
100
AcDbVertex
100
AcDb2dVertex
 10
612.94140625
 20
31.44140625
 30
0.0
  0
VERTEX
  5
150
330
14B
100
AcDbEntity
  8
Ebene 1
370
     0
100
AcDbVertex
100
AcDb2dVertex
 10
613.337890625
 20
31.3525390625
 30
0.0
  0
SEQEND
  5
151
330
14B
100
AcDbEntity
  8
Ebene 1
370
     0
  0
POLYLINE
  5
152
330
3C
100
AcDbEntity
  8
Ebene 1
370
     0
100
AcDb2dPolyline
 66
     1
 10
0.0
 20
0.0
 30
0.0
  0
VERTEX
  5
153
330
152
100
AcDbEntity
  8
Ebene 1
370
     0
100
AcDbVertex
100
AcDb2dVertex
 10
587.44140625
 20
31.3525390625
 30
0.0
  0
VERTEX
  5
154
330
152
100
AcDbEntity
  8
Ebene 1
370
     0
100
AcDbVertex
100
AcDb2dVertex
 10
587.837890625
 20
31.44140625
 30
0.0
  0
VERTEX
  5
155
330
152
100
AcDbEntity
  8
Ebene 1
370
     0
100
AcDbVertex
100
AcDb2dVertex
 10
588.19140625
 20
31.662109375
 30
0.0
  0
VERTEX
  5
156
330
152
100
AcDbEntity
  8
Ebene 1
370
     0
100
AcDbVertex
100
AcDb2dVertex
 10
588.412109375
 20
32.0146484375
 30
0.0
  0
VERTEX
  5
157
330
152
100
AcDbEntity
  8
Ebene 1
370
     0
100
AcDbVertex
100
AcDb2dVertex
 10
588.5
 20
32.412109375
 30
0.0
  0
SEQEND
  5
158
330
152
100
AcDbEntity
  8
Ebene 1
370
     0
  0
POLYLINE
  5
159
330
3C
100
AcDbEntity
  8
Ebene 1
370
     0
100
AcDb2dPolyline
 66
     1
 10
0.0
 20
0.0
 30
0.0
  0
VERTEX
  5
15A
330
159
100
AcDbEntity
  8
Ebene 1
370
     0
100
AcDbVertex
100
AcDb2dVertex
 10
588.5
 20
41.05859375
 30
0.0
  0
VERTEX
  5
15B
330
159
100
AcDbEntity
  8
Ebene 1
370
     0
100
AcDbVertex
100
AcDb2dVertex
 10
588.412109375
 20
41.4560546875
 30
0.0
  0
VERTEX
  5
15C
330
159
100
AcDbEntity
  8
Ebene 1
370
     0
100
AcDbVertex
100
AcDb2dVertex
 10
588.19140625
 20
41.80859375
 30
0.0
  0
VERTEX
  5
15D
330
159
100
AcDbEntity
  8
Ebene 1
370
     0
100
AcDbVertex
100
AcDb2dVertex
 10
587.837890625
 20
42.029296875
 30
0.0
  0
VERTEX
  5
15E
330
159
100
AcDbEntity
  8
Ebene 1
370
     0
100
AcDbVertex
100
AcDb2dVertex
 10
587.44140625
 20
42.1171875
 30
0.0
  0
SEQEND
  5
15F
330
159
100
AcDbEntity
  8
Ebene 1
370
     0
  0
POLYLINE
  5
160
330
3C
100
AcDbEntity
  8
Ebene 1
370
     0
100
AcDb2dPolyline
 66
     1
 10
0.0
 20
0.0
 30
0.0
  0
VERTEX
  5
161
330
160
100
AcDbEntity
  8
Ebene 1
370
     0
100
AcDbVertex
100
AcDb2dVertex
 10
613.337890625
 20
42.1171875
 30
0.0
  0
VERTEX
  5
162
330
160
100
AcDbEntity
  8
Ebene 1
370
     0
100
AcDbVertex
100
AcDb2dVertex
 10
612.94140625
 20
42.029296875
 30
0.0
  0
VERTEX
  5
163
330
160
100
AcDbEntity
  8
Ebene 1
370
     0
100
AcDbVertex
100
AcDb2dVertex
 10
612.587890625
 20
41.80859375
 30
0.0
  0
VERTEX
  5
164
330
160
100
AcDbEntity
  8
Ebene 1
370
     0
100
AcDbVertex
100
AcDb2dVertex
 10
612.3671875
 20
41.4560546875
 30
0.0
  0
VERTEX
  5
165
330
160
100
AcDbEntity
  8
Ebene 1
370
     0
100
AcDbVertex
100
AcDb2dVertex
 10
612.279296875
 20
41.05859375
 30
0.0
  0
SEQEND
  5
166
330
160
100
AcDbEntity
  8
Ebene 1
370
     0
  0
POLYLINE
  5
167
330
3C
100
AcDbEntity
  8
Ebene 1
370
     0
100
AcDb2dPolyline
 66
     1
 10
0.0
 20
0.0
 30
0.0
  0
VERTEX
  5
168
330
167
100
AcDbEntity
  8
Ebene 1
370
     0
100
AcDbVertex
100
AcDb2dVertex
 10
588.5
 20
41.05859375
 30
0.0
  0
VERTEX
  5
169
330
167
100
AcDbEntity
  8
Ebene 1
370
     0
100
AcDbVertex
100
AcDb2dVertex
 10
588.5
 20
32.412109375
 30
0.0
  0
SEQEND
  5
16A
330
167
100
AcDbEntity
  8
Ebene 1
370
     0
  0
POLYLINE
  5
16B
330
3C
100
AcDbEntity
  8
Ebene 1
370
     0
100
AcDb2dPolyline
 66
     1
 10
0.0
 20
0.0
 30
0.0
  0
VERTEX
  5
16C
330
16B
100
AcDbEntity
  8
Ebene 1
370
     0
100
AcDbVertex
100
AcDb2dVertex
 10
612.279296875
 20
32.412109375
 30
0.0
  0
VERTEX
  5
16D
330
16B
100
AcDbEntity
  8
Ebene 1
370
     0
100
AcDbVertex
100
AcDb2dVertex
 10
612.279296875
 20
41.05859375
 30
0.0
  0
SEQEND
  5
16E
330
16B
100
AcDbEntity
  8
Ebene 1
370
     0
  0
POLYLINE
  5
16F
330
3C
100
AcDbEntity
  8
Ebene 1
370
     0
100
AcDb2dPolyline
 66
     1
 10
0.0
 20
0.0
 30
0.0
  0
VERTEX
  5
170
330
16F
100
AcDbEntity
  8
Ebene 1
370
     0
100
AcDbVertex
100
AcDb2dVertex
 10
632.2646484375
 20
45.1171875
 30
0.0
  0
VERTEX
  5
171
330
16F
100
AcDbEntity
  8
Ebene 1
370
     0
100
AcDbVertex
100
AcDb2dVertex
 10
632.087890625
 20
45.0732421875
 30
0.0
  0
VERTEX
  5
172
330
16F
100
AcDbEntity
  8
Ebene 1
370
     0
100
AcDbVertex
100
AcDb2dVertex
 10
631.912109375
 20
44.94140625
 30
0.0
  0
VERTEX
  5
173
330
16F
100
AcDbEntity
  8
Ebene 1
370
     0
100
AcDbVertex
100
AcDb2dVertex
 10
631.8671875
 20
44.720703125
 30
0.0
  0
SEQEND
  5
174
330
16F
100
AcDbEntity
  8
Ebene 1
370
     0
  0
POLYLINE
  5
175
330
3C
100
AcDbEntity
  8
Ebene 1
370
     0
100
AcDb2dPolyline
 66
     1
 10
0.0
 20
0.0
 30
0.0
  0
VERTEX
  5
176
330
175
100
AcDbEntity
  8
Ebene 1
370
     0
100
AcDbVertex
100
AcDb2dVertex
 10
631.8671875
 20
37.2646484375
 30
0.0
  0
VERTEX
  5
177
330
175
100
AcDbEntity
  8
Ebene 1
370
     0
100
AcDbVertex
100
AcDb2dVertex
 10
632.0
 20
37.0
 30
0.0
  0
VERTEX
  5
178
330
175
100
AcDbEntity
  8
Ebene 1
370
     0
100
AcDbVertex
100
AcDb2dVertex
 10
632.2646484375
 20
36.8671875
 30
0.0
  0
SEQEND
  5
179
330
175
100
AcDbEntity
  8
Ebene 1
370
     0
  0
POLYLINE
  5
17A
330
3C
100
AcDbEntity
  8
Ebene 1
370
     0
100
AcDb2dPolyline
 66
     1
 10
0.0
 20
0.0
 30
0.0
  0
VERTEX
  5
17B
330
17A
100
AcDbEntity
  8
Ebene 1
370
     0
100
AcDbVertex
100
AcDb2dVertex
 10
631.8232421875
 20
44.720703125
 30
0.0
  0
VERTEX
  5
17C
330
17A
100
AcDbEntity
  8
Ebene 1
370
     0
100
AcDbVertex
100
AcDb2dVertex
 10
631.8232421875
 20
37.2646484375
 30
0.0
  0
SEQEND
  5
17D
330
17A
100
AcDbEntity
  8
Ebene 1
370
     0
  0
POLYLINE
  5
17E
330
3C
100
AcDbEntity
  8
Ebene 1
370
     0
100
AcDb2dPolyline
 66
     1
 10
0.0
 20
0.0
 30
0.0
  0
VERTEX
  5
17F
330
17E
100
AcDbEntity
  8
Ebene 1
370
     0
100
AcDbVertex
100
AcDb2dVertex
 10
632.2646484375
 20
36.55859375
 30
0.0
  0
VERTEX
  5
180
330
17E
100
AcDbEntity
  8
Ebene 1
370
     0
100
AcDbVertex
100
AcDb2dVertex
 10
632.087890625
 20
36.5146484375
 30
0.0
  0
VERTEX
  5
181
330
17E
100
AcDbEntity
  8
Ebene 1
370
     0
100
AcDbVertex
100
AcDb2dVertex
 10
631.912109375
 20
36.3828125
 30
0.0
  0
VERTEX
  5
182
330
17E
100
AcDbEntity
  8
Ebene 1
370
     0
100
AcDbVertex
100
AcDb2dVertex
 10
631.8671875
 20
36.162109375
 30
0.0
  0
SEQEND
  5
183
330
17E
100
AcDbEntity
  8
Ebene 1
370
     0
  0
POLYLINE
  5
184
330
3C
100
AcDbEntity
  8
Ebene 1
370
     0
100
AcDb2dPolyline
 66
     1
 10
0.0
 20
0.0
 30
0.0
  0
VERTEX
  5
185
330
184
100
AcDbEntity
  8
Ebene 1
370
     0
100
AcDbVertex
100
AcDb2dVertex
 10
631.8671875
 20
28.7060546875
 30
0.0
  0
VERTEX
  5
186
330
184
100
AcDbEntity
  8
Ebene 1
370
     0
100
AcDbVertex
100
AcDb2dVertex
 10
632.0
 20
28.44140625
 30
0.0
  0
VERTEX
  5
187
330
184
100
AcDbEntity
  8
Ebene 1
370
     0
100
AcDbVertex
100
AcDb2dVertex
 10
632.2646484375
 20
28.30859375
 30
0.0
  0
SEQEND
  5
188
330
184
100
AcDbEntity
  8
Ebene 1
370
     0
  0
POLYLINE
  5
189
330
3C
100
AcDbEntity
  8
Ebene 1
370
     0
100
AcDb2dPolyline
 66
     1
 10
0.0
 20
0.0
 30
0.0
  0
VERTEX
  5
18A
330
189
100
AcDbEntity
  8
Ebene 1
370
     0
100
AcDbVertex
100
AcDb2dVertex
 10
631.8232421875
 20
36.162109375
 30
0.0
  0
VERTEX
  5
18B
330
189
100
AcDbEntity
  8
Ebene 1
370
     0
100
AcDbVertex
100
AcDb2dVertex
 10
631.8232421875
 20
28.7060546875
 30
0.0
  0
SEQEND
  5
18C
330
189
100
AcDbEntity
  8
Ebene 1
370
     0
  0
POLYLINE
  5
18D
330
3C
100
AcDbEntity
  8
Ebene 1
370
     0
100
AcDb2dPolyline
 66
     1
 10
0.0
 20
0.0
 30
0.0
  0
VERTEX
  5
18E
330
18D
100
AcDbEntity
  8
Ebene 1
370
     0
100
AcDbVertex
100
AcDb2dVertex
 10
636.1474609375
 20
50.05859375
 30
0.0
  0
VERTEX
  5
18F
330
18D
100
AcDbEntity
  8
Ebene 1
370
     0
100
AcDbVertex
100
AcDb2dVertex
 10
636.1474609375
 20
49.837890625
 30
0.0
  0
SEQEND
  5
190
330
18D
100
AcDbEntity
  8
Ebene 1
370
     0
  0
POLYLINE
  5
191
330
3C
100
AcDbEntity
  8
Ebene 1
370
     0
100
AcDb2dPolyline
 66
     1
 10
0.0
 20
0.0
 30
0.0
  0
VERTEX
  5
192
330
191
100
AcDbEntity
  8
Ebene 1
370
     0
100
AcDbVertex
100
AcDb2dVertex
 10
636.1474609375
 20
23.587890625
 30
0.0
  0
VERTEX
  5
193
330
191
100
AcDbEntity
  8
Ebene 1
370
     0
100
AcDbVertex
100
AcDb2dVertex
 10
636.1474609375
 20
23.3671875
 30
0.0
  0
SEQEND
  5
194
330
191
100
AcDbEntity
  8
Ebene 1
370
     0
  0
POLYLINE
  5
195
330
3C
100
AcDbEntity
  8
Ebene 1
370
     0
100
AcDb2dPolyline
 66
     1
 10
0.0
 20
0.0
 30
0.0
  0
VERTEX
  5
196
330
195
100
AcDbEntity
  8
Ebene 1
370
     0
100
AcDbVertex
100
AcDb2dVertex
 10
636.1474609375
 20
19.0439453125
 30
0.0
  0
VERTEX
  5
197
330
195
100
AcDbEntity
  8
Ebene 1
370
     0
100
AcDbVertex
100
AcDb2dVertex
 10
636.1474609375
 20
17.05859375
 30
0.0
  0
SEQEND
  5
198
330
195
100
AcDbEntity
  8
Ebene 1
370
     0
  0
POLYLINE
  5
199
330
3C
100
AcDbEntity
  8
Ebene 1
370
     0
100
AcDb2dPolyline
 66
     1
 10
0.0
 20
0.0
 30
0.0
  0
VERTEX
  5
19A
330
199
100
AcDbEntity
  8
Ebene 1
370
     0
100
AcDbVertex
100
AcDb2dVertex
 10
645.7646484375
 20
17.05859375
 30
0.0
  0
VERTEX
  5
19B
330
199
100
AcDbEntity
  8
Ebene 1
370
     0
100
AcDbVertex
100
AcDb2dVertex
 10
645.7646484375
 20
19.0439453125
 30
0.0
  0
SEQEND
  5
19C
330
199
100
AcDbEntity
  8
Ebene 1
370
     0
  0
POLYLINE
  5
19D
330
3C
100
AcDbEntity
  8
Ebene 1
370
     0
100
AcDb2dPolyline
 66
     1
 10
0.0
 20
0.0
 30
0.0
  0
VERTEX
  5
19E
330
19D
100
AcDbEntity
  8
Ebene 1
370
     0
100
AcDbVertex
100
AcDb2dVertex
 10
645.7646484375
 20
23.3671875
 30
0.0
  0
VERTEX
  5
19F
330
19D
100
AcDbEntity
  8
Ebene 1
370
     0
100
AcDbVertex
100
AcDb2dVertex
 10
645.7646484375
 20
23.587890625
 30
0.0
  0
SEQEND
  5
1A0
330
19D
100
AcDbEntity
  8
Ebene 1
370
     0
  0
POLYLINE
  5
1A1
330
3C
100
AcDbEntity
  8
Ebene 1
370
     0
100
AcDb2dPolyline
 66
     1
 10
0.0
 20
0.0
 30
0.0
  0
VERTEX
  5
1A2
330
1A1
100
AcDbEntity
  8
Ebene 1
370
     0
100
AcDbVertex
100
AcDb2dVertex
 10
645.1025390625
 20
16.44140625
 30
0.0
  0
VERTEX
  5
1A3
330
1A1
100
AcDbEntity
  8
Ebene 1
370
     0
100
AcDbVertex
100
AcDb2dVertex
 10
645.412109375
 20
16.529296875
 30
0.0
  0
VERTEX
  5
1A4
330
1A1
100
AcDbEntity
  8
Ebene 1
370
     0
100
AcDbVertex
100
AcDb2dVertex
 10
645.6328125
 20
16.75
 30
0.0
  0
VERTEX
  5
1A5
330
1A1
100
AcDbEntity
  8
Ebene 1
370
     0
100
AcDbVertex
100
AcDb2dVertex
 10
645.720703125
 20
17.05859375
 30
0.0
  0
SEQEND
  5
1A6
330
1A1
100
AcDbEntity
  8
Ebene 1
370
     0
  0
POLYLINE
  5
1A7
330
3C
100
AcDbEntity
  8
Ebene 1
370
     0
100
AcDb2dPolyline
 66
     1
 10
0.0
 20
0.0
 30
0.0
  0
VERTEX
  5
1A8
330
1A7
100
AcDbEntity
  8
Ebene 1
370
     0
100
AcDbVertex
100
AcDb2dVertex
 10
636.19140625
 20
17.05859375
 30
0.0
  0
VERTEX
  5
1A9
330
1A7
100
AcDbEntity
  8
Ebene 1
370
     0
100
AcDbVertex
100
AcDb2dVertex
 10
636.279296875
 20
16.75
 30
0.0
  0
VERTEX
  5
1AA
330
1A7
100
AcDbEntity
  8
Ebene 1
370
     0
100
AcDbVertex
100
AcDb2dVertex
 10
636.5
 20
16.529296875
 30
0.0
  0
VERTEX
  5
1AB
330
1A7
100
AcDbEntity
  8
Ebene 1
370
     0
100
AcDbVertex
100
AcDb2dVertex
 10
636.80859375
 20
16.44140625
 30
0.0
  0
SEQEND
  5
1AC
330
1A7
100
AcDbEntity
  8
Ebene 1
370
     0
  0
POLYLINE
  5
1AD
330
3C
100
AcDbEntity
  8
Ebene 1
370
     0
100
AcDb2dPolyline
 66
     1
 10
0.0
 20
0.0
 30
0.0
  0
VERTEX
  5
1AE
330
1AD
100
AcDbEntity
  8
Ebene 1
370
     0
100
AcDbVertex
100
AcDb2dVertex
 10
625.69140625
 20
49.837890625
 30
0.0
  0
VERTEX
  5
1AF
330
1AD
100
AcDbEntity
  8
Ebene 1
370
     0
100
AcDbVertex
100
AcDb2dVertex
 10
625.69140625
 20
45.5146484375
 30
0.0
  0
SEQEND
  5
1B0
330
1AD
100
AcDbEntity
  8
Ebene 1
370
     0
  0
POLYLINE
  5
1B1
330
3C
100
AcDbEntity
  8
Ebene 1
370
     0
100
AcDb2dPolyline
 66
     1
 10
0.0
 20
0.0
 30
0.0
  0
VERTEX
  5
1B2
330
1B1
100
AcDbEntity
  8
Ebene 1
370
     0
100
AcDbVertex
100
AcDb2dVertex
 10
625.69140625
 20
27.912109375
 30
0.0
  0
VERTEX
  5
1B3
330
1B1
100
AcDbEntity
  8
Ebene 1
370
     0
100
AcDbVertex
100
AcDb2dVertex
 10
625.69140625
 20
23.587890625
 30
0.0
  0
SEQEND
  5
1B4
330
1B1
100
AcDbEntity
  8
Ebene 1
370
     0
  0
POLYLINE
  5
1B5
330
3C
100
AcDbEntity
  8
Ebene 1
370
     0
100
AcDb2dPolyline
 66
     1
 10
0.0
 20
0.0
 30
0.0
  0
VERTEX
  5
1B6
330
1B5
100
AcDbEntity
  8
Ebene 1
370
     0
100
AcDbVertex
100
AcDb2dVertex
 10
634.1171875
 20
45.5146484375
 30
0.0
  0
VERTEX
  5
1B7
330
1B5
100
AcDbEntity
  8
Ebene 1
370
     0
100
AcDbVertex
100
AcDb2dVertex
 10
634.1171875
 20
44.720703125
 30
0.0
  0
SEQEND
  5
1B8
330
1B5
100
AcDbEntity
  8
Ebene 1
370
     0
  0
POLYLINE
  5
1B9
330
3C
100
AcDbEntity
  8
Ebene 1
370
     0
100
AcDb2dPolyline
 66
     1
 10
0.0
 20
0.0
 30
0.0
  0
VERTEX
  5
1BA
330
1B9
100
AcDbEntity
  8
Ebene 1
370
     0
100
AcDbVertex
100
AcDb2dVertex
 10
634.1171875
 20
37.2646484375
 30
0.0
  0
VERTEX
  5
1BB
330
1B9
100
AcDbEntity
  8
Ebene 1
370
     0
100
AcDbVertex
100
AcDb2dVertex
 10
634.1171875
 20
36.162109375
 30
0.0
  0
SEQEND
  5
1BC
330
1B9
100
AcDbEntity
  8
Ebene 1
370
     0
  0
POLYLINE
  5
1BD
330
3C
100
AcDbEntity
  8
Ebene 1
370
     0
100
AcDb2dPolyline
 66
     1
 10
0.0
 20
0.0
 30
0.0
  0
VERTEX
  5
1BE
330
1BD
100
AcDbEntity
  8
Ebene 1
370
     0
100
AcDbVertex
100
AcDb2dVertex
 10
634.1171875
 20
28.7060546875
 30
0.0
  0
VERTEX
  5
1BF
330
1BD
100
AcDbEntity
  8
Ebene 1
370
     0
100
AcDbVertex
100
AcDb2dVertex
 10
634.1171875
 20
27.912109375
 30
0.0
  0
SEQEND
  5
1C0
330
1BD
100
AcDbEntity
  8
Ebene 1
370
     0
  0
POLYLINE
  5
1C1
330
3C
100
AcDbEntity
  8
Ebene 1
370
     0
100
AcDb2dPolyline
 66
     1
 10
0.0
 20
0.0
 30
0.0
  0
VERTEX
  5
1C2
330
1C1
100
AcDbEntity
  8
Ebene 1
370
     0
100
AcDbVertex
100
AcDb2dVertex
 10
645.587890625
 20
52.44140625
 30
0.0
  0
VERTEX
  5
1C3
330
1C1
100
AcDbEntity
  8
Ebene 1
370
     0
100
AcDbVertex
100
AcDb2dVertex
 10
645.587890625
 20
51.2939453125
 30
0.0
  0
SEQEND
  5
1C4
330
1C1
100
AcDbEntity
  8
Ebene 1
370
     0
  0
POLYLINE
  5
1C5
330
3C
100
AcDbEntity
  8
Ebene 1
370
     0
100
AcDb2dPolyline
 66
     1
 10
0.0
 20
0.0
 30
0.0
  0
VERTEX
  5
1C6
330
1C5
100
AcDbEntity
  8
Ebene 1
370
     0
100
AcDbVertex
100
AcDb2dVertex
 10
645.587890625
 20
33.8232421875
 30
0.0
  0
VERTEX
  5
1C7
330
1C5
100
AcDbEntity
  8
Ebene 1
370
     0
100
AcDbVertex
100
AcDb2dVertex
 10
645.587890625
 20
32.5439453125
 30
0.0
  0
SEQEND
  5
1C8
330
1C5
100
AcDbEntity
  8
Ebene 1
370
     0
  0
POLYLINE
  5
1C9
330
3C
100
AcDbEntity
  8
Ebene 1
370
     0
100
AcDb2dPolyline
 66
     1
 10
0.0
 20
0.0
 30
0.0
  0
VERTEX
  5
1CA
330
1C9
100
AcDbEntity
  8
Ebene 1
370
     0
100
AcDbVertex
100
AcDb2dVertex
 10
644.529296875
 20
52.44140625
 30
0.0
  0
VERTEX
  5
1CB
330
1C9
100
AcDbEntity
  8
Ebene 1
370
     0
100
AcDbVertex
100
AcDb2dVertex
 10
644.529296875
 20
51.25
 30
0.0
  0
SEQEND
  5
1CC
330
1C9
100
AcDbEntity
  8
Ebene 1
370
     0
  0
POLYLINE
  5
1CD
330
3C
100
AcDbEntity
  8
Ebene 1
370
     0
100
AcDb2dPolyline
 66
     1
 10
0.0
 20
0.0
 30
0.0
  0
VERTEX
  5
1CE
330
1CD
100
AcDbEntity
  8
Ebene 1
370
     0
100
AcDbVertex
100
AcDb2dVertex
 10
643.912109375
 20
44.7646484375
 30
0.0
  0
VERTEX
  5
1CF
330
1CD
100
AcDbEntity
  8
Ebene 1
370
     0
100
AcDbVertex
100
AcDb2dVertex
 10
643.8671875
 20
44.0146484375
 30
0.0
  0
SEQEND
  5
1D0
330
1CD
100
AcDbEntity
  8
Ebene 1
370
     0
  0
POLYLINE
  5
1D1
330
3C
100
AcDbEntity
  8
Ebene 1
370
     0
100
AcDb2dPolyline
 66
     1
 10
0.0
 20
0.0
 30
0.0
  0
VERTEX
  5
1D2
330
1D1
100
AcDbEntity
  8
Ebene 1
370
     0
100
AcDbVertex
100
AcDb2dVertex
 10
643.912109375
 20
45.5146484375
 30
0.0
  0
VERTEX
  5
1D3
330
1D1
100
AcDbEntity
  8
Ebene 1
370
     0
100
AcDbVertex
100
AcDb2dVertex
 10
643.912109375
 20
44.7646484375
 30
0.0
  0
SEQEND
  5
1D4
330
1D1
100
AcDbEntity
  8
Ebene 1
370
     0
  0
POLYLINE
  5
1D5
330
3C
100
AcDbEntity
  8
Ebene 1
370
     0
100
AcDb2dPolyline
 66
     1
 10
0.0
 20
0.0
 30
0.0
  0
VERTEX
  5
1D6
330
1D5
100
AcDbEntity
  8
Ebene 1
370
     0
100
AcDbVertex
100
AcDb2dVertex
 10
628.8232421875
 20
70.44140625
 30
0.0
  0
VERTEX
  5
1D7
330
1D5
100
AcDbEntity
  8
Ebene 1
370
     0
100
AcDbVertex
100
AcDb2dVertex
 10
627.720703125
 20
70.44140625
 30
0.0
  0
VERTEX
  5
1D8
330
1D5
100
AcDbEntity
  8
Ebene 1
370
     0
100
AcDbVertex
100
AcDb2dVertex
 10
613.69140625
 20
70.44140625
 30
0.0
  0
SEQEND
  5
1D9
330
1D5
100
AcDbEntity
  8
Ebene 1
370
     0
  0
POLYLINE
  5
1DA
330
3C
100
AcDbEntity
  8
Ebene 1
370
     0
100
AcDb2dPolyline
 66
     1
 10
0.0
 20
0.0
 30
0.0
  0
VERTEX
  5
1DB
330
1DA
100
AcDbEntity
  8
Ebene 1
370
     0
100
AcDbVertex
100
AcDb2dVertex
 10
629.44140625
 20
70.44140625
 30
0.0
  0
VERTEX
  5
1DC
330
1DA
100
AcDbEntity
  8
Ebene 1
370
     0
100
AcDbVertex
100
AcDb2dVertex
 10
628.8232421875
 20
70.44140625
 30
0.0
  0
SEQEND
  5
1DD
330
1DA
100
AcDbEntity
  8
Ebene 1
370
     0
  0
POLYLINE
  5
1DE
330
3C
100
AcDbEntity
  8
Ebene 1
370
     0
100
AcDb2dPolyline
 66
     1
 10
0.0
 20
0.0
 30
0.0
  0
VERTEX
  5
1DF
330
1DE
100
AcDbEntity
  8
Ebene 1
370
     0
100
AcDbVertex
100
AcDb2dVertex
 10
645.7646484375
 20
70.44140625
 30
0.0
  0
VERTEX
  5
1E0
330
1DE
100
AcDbEntity
  8
Ebene 1
370
     0
100
AcDbVertex
100
AcDb2dVertex
 10
629.44140625
 20
70.44140625
 30
0.0
  0
SEQEND
  5
1E1
330
1DE
100
AcDbEntity
  8
Ebene 1
370
     0
  0
POLYLINE
  5
1E2
330
3C
100
AcDbEntity
  8
Ebene 1
370
     0
100
AcDb2dPolyline
 66
     1
 10
0.0
 20
0.0
 30
0.0
  0
VERTEX
  5
1E3
330
1E2
100
AcDbEntity
  8
Ebene 1
370
     0
100
AcDbVertex
100
AcDb2dVertex
 10
645.587890625
 20
63.7353515625
 30
0.0
  0
VERTEX
  5
1E4
330
1E2
100
AcDbEntity
  8
Ebene 1
370
     0
100
AcDbVertex
100
AcDb2dVertex
 10
643.6025390625
 20
63.7353515625
 30
0.0
  0
SEQEND
  5
1E5
330
1E2
100
AcDbEntity
  8
Ebene 1
370
     0
  0
POLYLINE
  5
1E6
330
3C
100
AcDbEntity
  8
Ebene 1
370
     0
100
AcDb2dPolyline
 66
     1
 10
0.0
 20
0.0
 30
0.0
  0
VERTEX
  5
1E7
330
1E6
100
AcDbEntity
  8
Ebene 1
370
     0
100
AcDbVertex
100
AcDb2dVertex
 10
597.0146484375
 20
70.44140625
 30
0.0
  0
VERTEX
  5
1E8
330
1E6
100
AcDbEntity
  8
Ebene 1
370
     0
100
AcDbVertex
100
AcDb2dVertex
 10
587.087890625
 20
70.44140625
 30
0.0
  0
SEQEND
  5
1E9
330
1E6
100
AcDbEntity
  8
Ebene 1
370
     0
  0
POLYLINE
  5
1EA
330
3C
100
AcDbEntity
  8
Ebene 1
370
     0
100
AcDb2dPolyline
 66
     1
 10
0.0
 20
0.0
 30
0.0
  0
VERTEX
  5
1EB
330
1EA
100
AcDbEntity
  8
Ebene 1
370
     0
100
AcDbVertex
100
AcDb2dVertex
 10
613.69140625
 20
70.44140625
 30
0.0
  0
VERTEX
  5
1EC
330
1EA
100
AcDbEntity
  8
Ebene 1
370
     0
100
AcDbVertex
100
AcDb2dVertex
 10
597.0146484375
 20
70.44140625
 30
0.0
  0
SEQEND
  5
1ED
330
1EA
100
AcDbEntity
  8
Ebene 1
370
     0
  0
POLYLINE
  5
1EE
330
3C
100
AcDbEntity
  8
Ebene 1
370
     0
100
AcDb2dPolyline
 66
     1
 10
0.0
 20
0.0
 30
0.0
  0
VERTEX
  5
1EF
330
1EE
100
AcDbEntity
  8
Ebene 1
370
     0
100
AcDbVertex
100
AcDb2dVertex
 10
597.1474609375
 20
63.7353515625
 30
0.0
  0
VERTEX
  5
1F0
330
1EE
100
AcDbEntity
  8
Ebene 1
370
     0
100
AcDbVertex
100
AcDb2dVertex
 10
587.5732421875
 20
63.7353515625
 30
0.0
  0
SEQEND
  5
1F1
330
1EE
100
AcDbEntity
  8
Ebene 1
370
     0
  0
POLYLINE
  5
1F2
330
3C
100
AcDbEntity
  8
Ebene 1
370
     0
100
AcDb2dPolyline
 66
     1
 10
0.0
 20
0.0
 30
0.0
  0
VERTEX
  5
1F3
330
1F2
100
AcDbEntity
  8
Ebene 1
370
     0
100
AcDbVertex
100
AcDb2dVertex
 10
607.4267578125
 20
63.7353515625
 30
0.0
  0
VERTEX
  5
1F4
330
1F2
100
AcDbEntity
  8
Ebene 1
370
     0
100
AcDbVertex
100
AcDb2dVertex
 10
597.1474609375
 20
63.7353515625
 30
0.0
  0
SEQEND
  5
1F5
330
1F2
100
AcDbEntity
  8
Ebene 1
370
     0
  0
POLYLINE
  5
1F6
330
3C
100
AcDbEntity
  8
Ebene 1
370
     0
100
AcDb2dPolyline
 66
     1
 10
0.0
 20
0.0
 30
0.0
  0
VERTEX
  5
1F7
330
1F6
100
AcDbEntity
  8
Ebene 1
370
     0
100
AcDbVertex
100
AcDb2dVertex
 10
619.8232421875
 20
41.8974609375
 30
0.0
  0
VERTEX
  5
1F8
330
1F6
100
AcDbEntity
  8
Ebene 1
370
     0
100
AcDbVertex
100
AcDb2dVertex
 10
631.8232421875
 20
41.8974609375
 30
0.0
  0
SEQEND
  5
1F9
330
1F6
100
AcDbEntity
  8
Ebene 1
370
     0
  0
POLYLINE
  5
1FA
330
3C
100
AcDbEntity
  8
Ebene 1
370
     0
100
AcDb2dPolyline
 66
     1
 10
0.0
 20
0.0
 30
0.0
  0
VERTEX
  5
1FB
330
1FA
100
AcDbEntity
  8
Ebene 1
370
     0
100
AcDbVertex
100
AcDb2dVertex
 10
631.8232421875
 20
31.087890625
 30
0.0
  0
VERTEX
  5
1FC
330
1FA
100
AcDbEntity
  8
Ebene 1
370
     0
100
AcDbVertex
100
AcDb2dVertex
 10
620.7939453125
 20
31.087890625
 30
0.0
  0
SEQEND
  5
1FD
330
1FA
100
AcDbEntity
  8
Ebene 1
370
     0
  0
POLYLINE
  5
1FE
330
3C
100
AcDbEntity
  8
Ebene 1
370
     0
100
AcDb2dPolyline
 66
     1
 10
0.0
 20
0.0
 30
0.0
  0
VERTEX
  5
1FF
330
1FE
100
AcDbEntity
  8
Ebene 1
370
     0
100
AcDbVertex
100
AcDb2dVertex
 10
627.6328125
 20
19.0439453125
 30
0.0
  0
VERTEX
  5
200
330
1FE
100
AcDbEntity
  8
Ebene 1
370
     0
100
AcDbVertex
100
AcDb2dVertex
 10
625.7353515625
 20
18.9560546875
 30
0.0
  0
VERTEX
  5
201
330
1FE
100
AcDbEntity
  8
Ebene 1
370
     0
100
AcDbVertex
100
AcDb2dVertex
 10
623.837890625
 20
19.0439453125
 30
0.0
  0
SEQEND
  5
202
330
1FE
100
AcDbEntity
  8
Ebene 1
370
     0
  0
POLYLINE
  5
203
330
3C
100
AcDbEntity
  8
Ebene 1
370
     0
100
AcDb2dPolyline
 66
     1
 10
0.0
 20
0.0
 30
0.0
  0
VERTEX
  5
204
330
203
100
AcDbEntity
  8
Ebene 1
370
     0
100
AcDbVertex
100
AcDb2dVertex
 10
625.55859375
 20
18.9560546875
 30
0.0
  0
VERTEX
  5
205
330
203
100
AcDbEntity
  8
Ebene 1
370
     0
100
AcDbVertex
100
AcDb2dVertex
 10
623.7060546875
 20
19.0439453125
 30
0.0
  0
SEQEND
  5
206
330
203
100
AcDbEntity
  8
Ebene 1
370
     0
  0
POLYLINE
  5
207
330
3C
100
AcDbEntity
  8
Ebene 1
370
     0
100
AcDb2dPolyline
 66
     1
 10
0.0
 20
0.0
 30
0.0
  0
VERTEX
  5
208
330
207
100
AcDbEntity
  8
Ebene 1
370
     0
100
AcDbVertex
100
AcDb2dVertex
 10
620.970703125
 20
17.587890625
 30
0.0
  0
VERTEX
  5
209
330
207
100
AcDbEntity
  8
Ebene 1
370
     0
100
AcDbVertex
100
AcDb2dVertex
 10
622.470703125
 20
17.3232421875
 30
0.0
  0
VERTEX
  5
20A
330
207
100
AcDbEntity
  8
Ebene 1
370
     0
100
AcDbVertex
100
AcDb2dVertex
 10
623.9267578125
 20
17.1474609375
 30
0.0
  0
VERTEX
  5
20B
330
207
100
AcDbEntity
  8
Ebene 1
370
     0
100
AcDbVertex
100
AcDb2dVertex
 10
625.4267578125
 20
17.05859375
 30
0.0
  0
VERTEX
  5
20C
330
207
100
AcDbEntity
  8
Ebene 1
370
     0
100
AcDbVertex
100
AcDb2dVertex
 10
626.9267578125
 20
17.1025390625
 30
0.0
  0
VERTEX
  5
20D
330
207
100
AcDbEntity
  8
Ebene 1
370
     0
100
AcDbVertex
100
AcDb2dVertex
 10
628.4267578125
 20
17.279296875
 30
0.0
  0
VERTEX
  5
20E
330
207
100
AcDbEntity
  8
Ebene 1
370
     0
100
AcDbVertex
100
AcDb2dVertex
 10
629.8828125
 20
17.5439453125
 30
0.0
  0
VERTEX
  5
20F
330
207
100
AcDbEntity
  8
Ebene 1
370
     0
100
AcDbVertex
100
AcDb2dVertex
 10
631.337890625
 20
17.94140625
 30
0.0
  0
VERTEX
  5
210
330
207
100
AcDbEntity
  8
Ebene 1
370
     0
100
AcDbVertex
100
AcDb2dVertex
 10
632.75
 20
18.4267578125
 30
0.0
  0
VERTEX
  5
211
330
207
100
AcDbEntity
  8
Ebene 1
370
     0
100
AcDbVertex
100
AcDb2dVertex
 10
634.1171875
 20
19.0439453125
 30
0.0
  0
SEQEND
  5
212
330
207
100
AcDbEntity
  8
Ebene 1
370
     0
  0
POLYLINE
  5
213
330
3C
100
AcDbEntity
  8
Ebene 1
370
     0
100
AcDb2dPolyline
 66
     1
 10
0.0
 20
0.0
 30
0.0
  0
VERTEX
  5
214
330
213
100
AcDbEntity
  8
Ebene 1
370
     0
100
AcDbVertex
100
AcDb2dVertex
 10
624.80859375
 20
17.05859375
 30
0.0
  0
VERTEX
  5
215
330
213
100
AcDbEntity
  8
Ebene 1
370
     0
100
AcDbVertex
100
AcDb2dVertex
 10
622.8232421875
 20
17.1474609375
 30
0.0
  0
VERTEX
  5
216
330
213
100
AcDbEntity
  8
Ebene 1
370
     0
100
AcDbVertex
100
AcDb2dVertex
 10
620.75
 20
17.4560546875
 30
0.0
  0
SEQEND
  5
217
330
213
100
AcDbEntity
  8
Ebene 1
370
     0
  0
POLYLINE
  5
218
330
3C
100
AcDbEntity
  8
Ebene 1
370
     0
100
AcDb2dPolyline
 66
     1
 10
0.0
 20
0.0
 30
0.0
  0
VERTEX
  5
219
330
218
100
AcDbEntity
  8
Ebene 1
370
     0
100
AcDbVertex
100
AcDb2dVertex
 10
624.7646484375
 20
17.05859375
 30
0.0
  0
VERTEX
  5
21A
330
218
100
AcDbEntity
  8
Ebene 1
370
     0
100
AcDbVertex
100
AcDb2dVertex
 10
622.779296875
 20
17.1474609375
 30
0.0
  0
VERTEX
  5
21B
330
218
100
AcDbEntity
  8
Ebene 1
370
     0
100
AcDbVertex
100
AcDb2dVertex
 10
620.75
 20
17.4560546875
 30
0.0
  0
SEQEND
  5
21C
330
218
100
AcDbEntity
  8
Ebene 1
370
     0
  0
POLYLINE
  5
21D
330
3C
100
AcDbEntity
  8
Ebene 1
370
     0
100
AcDb2dPolyline
 66
     1
 10
0.0
 20
0.0
 30
0.0
  0
VERTEX
  5
21E
330
21D
100
AcDbEntity
  8
Ebene 1
370
     0
100
AcDbVertex
100
AcDb2dVertex
 10
625.69140625
 20
27.8671875
 30
0.0
  0
VERTEX
  5
21F
330
21D
100
AcDbEntity
  8
Ebene 1
370
     0
100
AcDbVertex
100
AcDb2dVertex
 10
621.9853515625
 20
27.8671875
 30
0.0
  0
SEQEND
  5
220
330
21D
100
AcDbEntity
  8
Ebene 1
370
     0
  0
POLYLINE
  5
221
330
3C
100
AcDbEntity
  8
Ebene 1
370
     0
100
AcDb2dPolyline
 66
     1
 10
0.0
 20
0.0
 30
0.0
  0
VERTEX
  5
222
330
221
100
AcDbEntity
  8
Ebene 1
370
     0
100
AcDbVertex
100
AcDb2dVertex
 10
621.80859375
 20
30.029296875
 30
0.0
  0
VERTEX
  5
223
330
221
100
AcDbEntity
  8
Ebene 1
370
     0
100
AcDbVertex
100
AcDb2dVertex
 10
631.8232421875
 20
30.029296875
 30
0.0
  0
SEQEND
  5
224
330
221
100
AcDbEntity
  8
Ebene 1
370
     0
  0
POLYLINE
  5
225
330
3C
100
AcDbEntity
  8
Ebene 1
370
     0
100
AcDb2dPolyline
 66
     1
 10
0.0
 20
0.0
 30
0.0
  0
VERTEX
  5
226
330
225
100
AcDbEntity
  8
Ebene 1
370
     0
100
AcDbVertex
100
AcDb2dVertex
 10
633.6328125
 20
65.720703125
 30
0.0
  0
VERTEX
  5
227
330
225
100
AcDbEntity
  8
Ebene 1
370
     0
100
AcDbVertex
100
AcDb2dVertex
 10
634.9560546875
 20
65.720703125
 30
0.0
  0
SEQEND
  5
228
330
225
100
AcDbEntity
  8
Ebene 1
370
     0
  0
POLYLINE
  5
229
330
3C
100
AcDbEntity
  8
Ebene 1
370
     0
100
AcDb2dPolyline
 66
     1
 10
0.0
 20
0.0
 30
0.0
  0
VERTEX
  5
22A
330
229
100
AcDbEntity
  8
Ebene 1
370
     0
100
AcDbVertex
100
AcDb2dVertex
 10
627.720703125
 20
65.720703125
 30
0.0
  0
VERTEX
  5
22B
330
229
100
AcDbEntity
  8
Ebene 1
370
     0
100
AcDbVertex
100
AcDb2dVertex
 10
633.6328125
 20
65.720703125
 30
0.0
  0
SEQEND
  5
22C
330
229
100
AcDbEntity
  8
Ebene 1
370
     0
  0
POLYLINE
  5
22D
330
3C
100
AcDbEntity
  8
Ebene 1
370
     0
100
AcDb2dPolyline
 66
     1
 10
0.0
 20
0.0
 30
0.0
  0
VERTEX
  5
22E
330
22D
100
AcDbEntity
  8
Ebene 1
370
     0
100
AcDbVertex
100
AcDb2dVertex
 10
623.087890625
 20
8.587890625
 30
0.0
  0
VERTEX
  5
22F
330
22D
100
AcDbEntity
  8
Ebene 1
370
     0
100
AcDbVertex
100
AcDb2dVertex
 10
628.470703125
 20
8.587890625
 30
0.0
  0
SEQEND
  5
230
330
22D
100
AcDbEntity
  8
Ebene 1
370
     0
  0
POLYLINE
  5
231
330
3C
100
AcDbEntity
  8
Ebene 1
370
     0
100
AcDb2dPolyline
 66
     1
 10
0.0
 20
0.0
 30
0.0
  0
VERTEX
  5
232
330
231
100
AcDbEntity
  8
Ebene 1
370
     0
100
AcDbVertex
100
AcDb2dVertex
 10
607.3828125
 20
6.4267578125
 30
0.0
  0
VERTEX
  5
233
330
231
100
AcDbEntity
  8
Ebene 1
370
     0
100
AcDbVertex
100
AcDb2dVertex
 10
606.8525390625
 20
6.4267578125
 30
0.0
  0
SEQEND
  5
234
330
231
100
AcDbEntity
  8
Ebene 1
370
     0
  0
POLYLINE
  5
235
330
3C
100
AcDbEntity
  8
Ebene 1
370
     0
100
AcDb2dPolyline
 66
     1
 10
0.0
 20
0.0
 30
0.0
  0
VERTEX
  5
236
330
235
100
AcDbEntity
  8
Ebene 1
370
     0
100
AcDbVertex
100
AcDb2dVertex
 10
626.30859375
 20
6.4267578125
 30
0.0
  0
VERTEX
  5
237
330
235
100
AcDbEntity
  8
Ebene 1
370
     0
100
AcDbVertex
100
AcDb2dVertex
 10
620.9267578125
 20
6.4267578125
 30
0.0
  0
SEQEND
  5
238
330
235
100
AcDbEntity
  8
Ebene 1
370
     0
  0
POLYLINE
  5
239
330
3C
100
AcDbEntity
  8
Ebene 1
370
     0
100
AcDb2dPolyline
 66
     1
 10
0.0
 20
0.0
 30
0.0
  0
VERTEX
  5
23A
330
239
100
AcDbEntity
  8
Ebene 1
370
     0
100
AcDbVertex
100
AcDb2dVertex
 10
607.9560546875
 20
6.4267578125
 30
0.0
  0
VERTEX
  5
23B
330
239
100
AcDbEntity
  8
Ebene 1
370
     0
100
AcDbVertex
100
AcDb2dVertex
 10
607.3828125
 20
6.4267578125
 30
0.0
  0
SEQEND
  5
23C
330
239
100
AcDbEntity
  8
Ebene 1
370
     0
  0
POLYLINE
  5
23D
330
3C
100
AcDbEntity
  8
Ebene 1
370
     0
100
AcDb2dPolyline
 66
     1
 10
0.0
 20
0.0
 30
0.0
  0
VERTEX
  5
23E
330
23D
100
AcDbEntity
  8
Ebene 1
370
     0
100
AcDbVertex
100
AcDb2dVertex
 10
606.8525390625
 20
74.587890625
 30
0.0
  0
VERTEX
  5
23F
330
23D
100
AcDbEntity
  8
Ebene 1
370
     0
100
AcDbVertex
100
AcDb2dVertex
 10
609.0146484375
 20
74.587890625
 30
0.0
  0
SEQEND
  5
240
330
23D
100
AcDbEntity
  8
Ebene 1
370
     0
  0
POLYLINE
  5
241
330
3C
100
AcDbEntity
  8
Ebene 1
370
     0
100
AcDb2dPolyline
 66
     1
 10
0.0
 20
0.0
 30
0.0
  0
VERTEX
  5
242
330
241
100
AcDbEntity
  8
Ebene 1
370
     0
100
AcDbVertex
100
AcDb2dVertex
 10
619.8232421875
 20
74.587890625
 30
0.0
  0
VERTEX
  5
243
330
241
100
AcDbEntity
  8
Ebene 1
370
     0
100
AcDbVertex
100
AcDb2dVertex
 10
624.1474609375
 20
74.587890625
 30
0.0
  0
SEQEND
  5
244
330
241
100
AcDbEntity
  8
Ebene 1
370
     0
  0
POLYLINE
  5
245
330
3C
100
AcDbEntity
  8
Ebene 1
370
     0
100
AcDb2dPolyline
 66
     1
 10
0.0
 20
0.0
 30
0.0
  0
VERTEX
  5
246
330
245
100
AcDbEntity
  8
Ebene 1
370
     0
100
AcDbVertex
100
AcDb2dVertex
 10
614.75
 20
6.4267578125
 30
0.0
  0
VERTEX
  5
247
330
245
100
AcDbEntity
  8
Ebene 1
370
     0
100
AcDbVertex
100
AcDb2dVertex
 10
607.9560546875
 20
6.4267578125
 30
0.0
  0
SEQEND
  5
248
330
245
100
AcDbEntity
  8
Ebene 1
370
     0
  0
POLYLINE
  5
249
330
3C
100
AcDbEntity
  8
Ebene 1
370
     0
100
AcDb2dPolyline
 66
     1
 10
0.0
 20
0.0
 30
0.0
  0
VERTEX
  5
24A
330
249
100
AcDbEntity
  8
Ebene 1
370
     0
100
AcDbVertex
100
AcDb2dVertex
 10
620.9267578125
 20
6.4267578125
 30
0.0
  0
VERTEX
  5
24B
330
249
100
AcDbEntity
  8
Ebene 1
370
     0
100
AcDbVertex
100
AcDb2dVertex
 10
614.75
 20
6.4267578125
 30
0.0
  0
SEQEND
  5
24C
330
249
100
AcDbEntity
  8
Ebene 1
370
     0
  0
POLYLINE
  5
24D
330
3C
100
AcDbEntity
  8
Ebene 1
370
     0
100
AcDb2dPolyline
 66
     1
 10
0.0
 20
0.0
 30
0.0
  0
VERTEX
  5
24E
330
24D
100
AcDbEntity
  8
Ebene 1
370
     0
100
AcDbVertex
100
AcDb2dVertex
 10
614.837890625
 20
8.587890625
 30
0.0
  0
VERTEX
  5
24F
330
24D
100
AcDbEntity
  8
Ebene 1
370
     0
100
AcDbVertex
100
AcDb2dVertex
 10
623.087890625
 20
8.587890625
 30
0.0
  0
SEQEND
  5
250
330
24D
100
AcDbEntity
  8
Ebene 1
370
     0
  0
POLYLINE
  5
251
330
3C
100
AcDbEntity
  8
Ebene 1
370
     0
100
AcDb2dPolyline
 66
     1
 10
0.0
 20
0.0
 30
0.0
  0
VERTEX
  5
252
330
251
100
AcDbEntity
  8
Ebene 1
370
     0
100
AcDbVertex
100
AcDb2dVertex
 10
609.0146484375
 20
8.587890625
 30
0.0
  0
VERTEX
  5
253
330
251
100
AcDbEntity
  8
Ebene 1
370
     0
100
AcDbVertex
100
AcDb2dVertex
 10
614.837890625
 20
8.587890625
 30
0.0
  0
SEQEND
  5
254
330
251
100
AcDbEntity
  8
Ebene 1
370
     0
  0
POLYLINE
  5
255
330
3C
100
AcDbEntity
  8
Ebene 1
370
     0
100
AcDb2dPolyline
 66
     1
 10
0.0
 20
0.0
 30
0.0
  0
VERTEX
  5
256
330
255
100
AcDbEntity
  8
Ebene 1
370
     0
100
AcDbVertex
100
AcDb2dVertex
 10
609.0146484375
 20
74.587890625
 30
0.0
  0
VERTEX
  5
257
330
255
100
AcDbEntity
  8
Ebene 1
370
     0
100
AcDbVertex
100
AcDb2dVertex
 10
619.8232421875
 20
74.587890625
 30
0.0
  0
SEQEND
  5
258
330
255
100
AcDbEntity
  8
Ebene 1
370
     0
  0
POLYLINE
  5
259
330
3C
100
AcDbEntity
  8
Ebene 1
370
     0
100
AcDb2dPolyline
 66
     1
 10
0.0
 20
0.0
 30
0.0
  0
VERTEX
  5
25A
330
259
100
AcDbEntity
  8
Ebene 1
370
     0
100
AcDbVertex
100
AcDb2dVertex
 10
600.80859375
 20
8.587890625
 30
0.0
  0
VERTEX
  5
25B
330
259
100
AcDbEntity
  8
Ebene 1
370
     0
100
AcDbVertex
100
AcDb2dVertex
 10
609.0146484375
 20
8.587890625
 30
0.0
  0
SEQEND
  5
25C
330
259
100
AcDbEntity
  8
Ebene 1
370
     0
  0
POLYLINE
  5
25D
330
3C
100
AcDbEntity
  8
Ebene 1
370
     0
100
AcDb2dPolyline
 66
     1
 10
0.0
 20
0.0
 30
0.0
  0
VERTEX
  5
25E
330
25D
100
AcDbEntity
  8
Ebene 1
370
     0
100
AcDbVertex
100
AcDb2dVertex
 10
591.720703125
 20
8.587890625
 30
0.0
  0
VERTEX
  5
25F
330
25D
100
AcDbEntity
  8
Ebene 1
370
     0
100
AcDbVertex
100
AcDb2dVertex
 10
600.80859375
 20
8.587890625
 30
0.0
  0
SEQEND
  5
260
330
25D
100
AcDbEntity
  8
Ebene 1
370
     0
  0
POLYLINE
  5
261
330
3C
100
AcDbEntity
  8
Ebene 1
370
     0
100
AcDb2dPolyline
 66
     1
 10
0.0
 20
0.0
 30
0.0
  0
VERTEX
  5
262
330
261
100
AcDbEntity
  8
Ebene 1
370
     0
100
AcDbVertex
100
AcDb2dVertex
 10
600.6767578125
 20
6.4267578125
 30
0.0
  0
VERTEX
  5
263
330
261
100
AcDbEntity
  8
Ebene 1
370
     0
100
AcDbVertex
100
AcDb2dVertex
 10
593.8828125
 20
6.4267578125
 30
0.0
  0
SEQEND
  5
264
330
261
100
AcDbEntity
  8
Ebene 1
370
     0
  0
POLYLINE
  5
265
330
3C
100
AcDbEntity
  8
Ebene 1
370
     0
100
AcDb2dPolyline
 66
     1
 10
0.0
 20
0.0
 30
0.0
  0
VERTEX
  5
266
330
265
100
AcDbEntity
  8
Ebene 1
370
     0
100
AcDbVertex
100
AcDb2dVertex
 10
606.8525390625
 20
6.4267578125
 30
0.0
  0
VERTEX
  5
267
330
265
100
AcDbEntity
  8
Ebene 1
370
     0
100
AcDbVertex
100
AcDb2dVertex
 10
600.6767578125
 20
6.4267578125
 30
0.0
  0
SEQEND
  5
268
330
265
100
AcDbEntity
  8
Ebene 1
370
     0
  0
POLYLINE
  5
269
330
3C
100
AcDbEntity
  8
Ebene 1
370
     0
100
AcDb2dPolyline
 66
     1
 10
0.0
 20
0.0
 30
0.0
  0
VERTEX
  5
26A
330
269
100
AcDbEntity
  8
Ebene 1
370
     0
100
AcDbVertex
100
AcDb2dVertex
 10
594.9853515625
 20
74.587890625
 30
0.0
  0
VERTEX
  5
26B
330
269
100
AcDbEntity
  8
Ebene 1
370
     0
100
AcDbVertex
100
AcDb2dVertex
 10
605.7939453125
 20
74.587890625
 30
0.0
  0
SEQEND
  5
26C
330
269
100
AcDbEntity
  8
Ebene 1
370
     0
  0
POLYLINE
  5
26D
330
3C
100
AcDbEntity
  8
Ebene 1
370
     0
100
AcDb2dPolyline
 66
     1
 10
0.0
 20
0.0
 30
0.0
  0
VERTEX
  5
26E
330
26D
100
AcDbEntity
  8
Ebene 1
370
     0
100
AcDbVertex
100
AcDb2dVertex
 10
638.4853515625
 20
6.4267578125
 30
0.0
  0
VERTEX
  5
26F
330
26D
100
AcDbEntity
  8
Ebene 1
370
     0
100
AcDbVertex
100
AcDb2dVertex
 10
626.30859375
 20
6.4267578125
 30
0.0
  0
SEQEND
  5
270
330
26D
100
AcDbEntity
  8
Ebene 1
370
     0
  0
POLYLINE
  5
271
330
3C
100
AcDbEntity
  8
Ebene 1
370
     0
100
AcDb2dPolyline
 66
     1
 10
0.0
 20
0.0
 30
0.0
  0
VERTEX
  5
272
330
271
100
AcDbEntity
  8
Ebene 1
370
     0
100
AcDbVertex
100
AcDb2dVertex
 10
639.279296875
 20
6.4267578125
 30
0.0
  0
VERTEX
  5
273
330
271
100
AcDbEntity
  8
Ebene 1
370
     0
100
AcDbVertex
100
AcDb2dVertex
 10
638.4853515625
 20
6.4267578125
 30
0.0
  0
SEQEND
  5
274
330
271
100
AcDbEntity
  8
Ebene 1
370
     0
  0
POLYLINE
  5
275
330
3C
100
AcDbEntity
  8
Ebene 1
370
     0
100
AcDb2dPolyline
 66
     1
 10
0.0
 20
0.0
 30
0.0
  0
VERTEX
  5
276
330
275
100
AcDbEntity
  8
Ebene 1
370
     0
100
AcDbVertex
100
AcDb2dVertex
 10
640.3828125
 20
8.587890625
 30
0.0
  0
VERTEX
  5
277
330
275
100
AcDbEntity
  8
Ebene 1
370
     0
100
AcDbVertex
100
AcDb2dVertex
 10
641.44140625
 20
8.587890625
 30
0.0
  0
SEQEND
  5
278
330
275
100
AcDbEntity
  8
Ebene 1
370
     0
  0
POLYLINE
  5
279
330
3C
100
AcDbEntity
  8
Ebene 1
370
     0
100
AcDb2dPolyline
 66
     1
 10
0.0
 20
0.0
 30
0.0
  0
VERTEX
  5
27A
330
279
100
AcDbEntity
  8
Ebene 1
370
     0
100
AcDbVertex
100
AcDb2dVertex
 10
628.470703125
 20
8.587890625
 30
0.0
  0
VERTEX
  5
27B
330
279
100
AcDbEntity
  8
Ebene 1
370
     0
100
AcDbVertex
100
AcDb2dVertex
 10
640.3828125
 20
8.587890625
 30
0.0
  0
SEQEND
  5
27C
330
279
100
AcDbEntity
  8
Ebene 1
370
     0
  0
POLYLINE
  5
27D
330
3C
100
AcDbEntity
  8
Ebene 1
370
     0
100
AcDb2dPolyline
 66
     1
 10
0.0
 20
0.0
 30
0.0
  0
VERTEX
  5
27E
330
27D
100
AcDbEntity
  8
Ebene 1
370
     0
100
AcDbVertex
100
AcDb2dVertex
 10
627.412109375
 20
74.587890625
 30
0.0
  0
VERTEX
  5
27F
330
27D
100
AcDbEntity
  8
Ebene 1
370
     0
100
AcDbVertex
100
AcDb2dVertex
 10
638.220703125
 20
74.587890625
 30
0.0
  0
SEQEND
  5
280
330
27D
100
AcDbEntity
  8
Ebene 1
370
     0
  0
POLYLINE
  5
281
330
3C
100
AcDbEntity
  8
Ebene 1
370
     0
100
AcDb2dPolyline
 66
     1
 10
0.0
 20
0.0
 30
0.0
  0
VERTEX
  5
282
330
281
100
AcDbEntity
  8
Ebene 1
370
     0
100
AcDbVertex
100
AcDb2dVertex
 10
750.587890625
 20
6.470703125
 30
0.0
  0
VERTEX
  5
283
330
281
100
AcDbEntity
  8
Ebene 1
370
     0
100
AcDbVertex
100
AcDb2dVertex
 10
751.2060546875
 20
6.5146484375
 30
0.0
  0
VERTEX
  5
284
330
281
100
AcDbEntity
  8
Ebene 1
370
     0
100
AcDbVertex
100
AcDb2dVertex
 10
751.8232421875
 20
6.7353515625
 30
0.0
  0
VERTEX
  5
285
330
281
100
AcDbEntity
  8
Ebene 1
370
     0
100
AcDbVertex
100
AcDb2dVertex
 10
752.3974609375
 20
7.0
 30
0.0
  0
VERTEX
  5
286
330
281
100
AcDbEntity
  8
Ebene 1
370
     0
100
AcDbVertex
100
AcDb2dVertex
 10
752.8828125
 20
7.3974609375
 30
0.0
  0
VERTEX
  5
287
330
281
100
AcDbEntity
  8
Ebene 1
370
     0
100
AcDbVertex
100
AcDb2dVertex
 10
753.279296875
 20
7.8828125
 30
0.0
  0
VERTEX
  5
288
330
281
100
AcDbEntity
  8
Ebene 1
370
     0
100
AcDbVertex
100
AcDb2dVertex
 10
753.5439453125
 20
8.4560546875
 30
0.0
  0
VERTEX
  5
289
330
281
100
AcDbEntity
  8
Ebene 1
370
     0
100
AcDbVertex
100
AcDb2dVertex
 10
753.7646484375
 20
9.0732421875
 30
0.0
  0
VERTEX
  5
28A
330
281
100
AcDbEntity
  8
Ebene 1
370
     0
100
AcDbVertex
100
AcDb2dVertex
 10
753.80859375
 20
9.69140625
 30
0.0
  0
SEQEND
  5
28B
330
281
100
AcDbEntity
  8
Ebene 1
370
     0
  0
POLYLINE
  5
28C
330
3C
100
AcDbEntity
  8
Ebene 1
370
     0
100
AcDb2dPolyline
 66
     1
 10
0.0
 20
0.0
 30
0.0
  0
VERTEX
  5
28D
330
28C
100
AcDbEntity
  8
Ebene 1
370
     0
100
AcDbVertex
100
AcDb2dVertex
 10
652.2939453125
 20
9.69140625
 30
0.0
  0
VERTEX
  5
28E
330
28C
100
AcDbEntity
  8
Ebene 1
370
     0
100
AcDbVertex
100
AcDb2dVertex
 10
652.337890625
 20
9.0732421875
 30
0.0
  0
VERTEX
  5
28F
330
28C
100
AcDbEntity
  8
Ebene 1
370
     0
100
AcDbVertex
100
AcDb2dVertex
 10
652.55859375
 20
8.4560546875
 30
0.0
  0
VERTEX
  5
290
330
28C
100
AcDbEntity
  8
Ebene 1
370
     0
100
AcDbVertex
100
AcDb2dVertex
 10
652.8232421875
 20
7.8828125
 30
0.0
  0
VERTEX
  5
291
330
28C
100
AcDbEntity
  8
Ebene 1
370
     0
100
AcDbVertex
100
AcDb2dVertex
 10
653.220703125
 20
7.3974609375
 30
0.0
  0
VERTEX
  5
292
330
28C
100
AcDbEntity
  8
Ebene 1
370
     0
100
AcDbVertex
100
AcDb2dVertex
 10
653.7060546875
 20
7.0
 30
0.0
  0
VERTEX
  5
293
330
28C
100
AcDbEntity
  8
Ebene 1
370
     0
100
AcDbVertex
100
AcDb2dVertex
 10
654.279296875
 20
6.7353515625
 30
0.0
  0
VERTEX
  5
294
330
28C
100
AcDbEntity
  8
Ebene 1
370
     0
100
AcDbVertex
100
AcDb2dVertex
 10
654.8974609375
 20
6.5146484375
 30
0.0
  0
VERTEX
  5
295
330
28C
100
AcDbEntity
  8
Ebene 1
370
     0
100
AcDbVertex
100
AcDb2dVertex
 10
655.5146484375
 20
6.470703125
 30
0.0
  0
SEQEND
  5
296
330
28C
100
AcDbEntity
  8
Ebene 1
370
     0
  0
POLYLINE
  5
297
330
3C
100
AcDbEntity
  8
Ebene 1
370
     0
100
AcDb2dPolyline
 66
     1
 10
0.0
 20
0.0
 30
0.0
  0
VERTEX
  5
298
330
297
100
AcDbEntity
  8
Ebene 1
370
     0
100
AcDbVertex
100
AcDb2dVertex
 10
652.25
 20
77.80859375
 30
0.0
  0
VERTEX
  5
299
330
297
100
AcDbEntity
  8
Ebene 1
370
     0
100
AcDbVertex
100
AcDb2dVertex
 10
652.25
 20
9.69140625
 30
0.0
  0
SEQEND
  5
29A
330
297
100
AcDbEntity
  8
Ebene 1
370
     0
  0
POLYLINE
  5
29B
330
3C
100
AcDbEntity
  8
Ebene 1
370
     0
100
AcDb2dPolyline
 66
     1
 10
0.0
 20
0.0
 30
0.0
  0
VERTEX
  5
29C
330
29B
100
AcDbEntity
  8
Ebene 1
370
     0
100
AcDbVertex
100
AcDb2dVertex
 10
655.5146484375
 20
81.029296875
 30
0.0
  0
VERTEX
  5
29D
330
29B
100
AcDbEntity
  8
Ebene 1
370
     0
100
AcDbVertex
100
AcDb2dVertex
 10
654.8974609375
 20
80.9853515625
 30
0.0
  0
VERTEX
  5
29E
330
29B
100
AcDbEntity
  8
Ebene 1
370
     0
100
AcDbVertex
100
AcDb2dVertex
 10
654.279296875
 20
80.7646484375
 30
0.0
  0
VERTEX
  5
29F
330
29B
100
AcDbEntity
  8
Ebene 1
370
     0
100
AcDbVertex
100
AcDb2dVertex
 10
653.7060546875
 20
80.5
 30
0.0
  0
VERTEX
  5
2A0
330
29B
100
AcDbEntity
  8
Ebene 1
370
     0
100
AcDbVertex
100
AcDb2dVertex
 10
653.220703125
 20
80.103515625
 30
0.0
  0
VERTEX
  5
2A1
330
29B
100
AcDbEntity
  8
Ebene 1
370
     0
100
AcDbVertex
100
AcDb2dVertex
 10
652.8232421875
 20
79.6171875
 30
0.0
  0
VERTEX
  5
2A2
330
29B
100
AcDbEntity
  8
Ebene 1
370
     0
100
AcDbVertex
100
AcDb2dVertex
 10
652.55859375
 20
79.0439453125
 30
0.0
  0
VERTEX
  5
2A3
330
29B
100
AcDbEntity
  8
Ebene 1
370
     0
100
AcDbVertex
100
AcDb2dVertex
 10
652.337890625
 20
78.4267578125
 30
0.0
  0
VERTEX
  5
2A4
330
29B
100
AcDbEntity
  8
Ebene 1
370
     0
100
AcDbVertex
100
AcDb2dVertex
 10
652.2939453125
 20
77.80859375
 30
0.0
  0
SEQEND
  5
2A5
330
29B
100
AcDbEntity
  8
Ebene 1
370
     0
  0
POLYLINE
  5
2A6
330
3C
100
AcDbEntity
  8
Ebene 1
370
     0
100
AcDb2dPolyline
 66
     1
 10
0.0
 20
0.0
 30
0.0
  0
VERTEX
  5
2A7
330
2A6
100
AcDbEntity
  8
Ebene 1
370
     0
100
AcDbVertex
100
AcDb2dVertex
 10
750.587890625
 20
81.07421875
 30
0.0
  0
VERTEX
  5
2A8
330
2A6
100
AcDbEntity
  8
Ebene 1
370
     0
100
AcDbVertex
100
AcDb2dVertex
 10
655.5146484375
 20
81.07421875
 30
0.0
  0
SEQEND
  5
2A9
330
2A6
100
AcDbEntity
  8
Ebene 1
370
     0
  0
POLYLINE
  5
2AA
330
3C
100
AcDbEntity
  8
Ebene 1
370
     0
100
AcDb2dPolyline
 66
     1
 10
0.0
 20
0.0
 30
0.0
  0
VERTEX
  5
2AB
330
2AA
100
AcDbEntity
  8
Ebene 1
370
     0
100
AcDbVertex
100
AcDb2dVertex
 10
753.80859375
 20
77.80859375
 30
0.0
  0
VERTEX
  5
2AC
330
2AA
100
AcDbEntity
  8
Ebene 1
370
     0
100
AcDbVertex
100
AcDb2dVertex
 10
753.7646484375
 20
78.4267578125
 30
0.0
  0
VERTEX
  5
2AD
330
2AA
100
AcDbEntity
  8
Ebene 1
370
     0
100
AcDbVertex
100
AcDb2dVertex
 10
753.5439453125
 20
79.0439453125
 30
0.0
  0
VERTEX
  5
2AE
330
2AA
100
AcDbEntity
  8
Ebene 1
370
     0
100
AcDbVertex
100
AcDb2dVertex
 10
753.279296875
 20
79.6171875
 30
0.0
  0
VERTEX
  5
2AF
330
2AA
100
AcDbEntity
  8
Ebene 1
370
     0
100
AcDbVertex
100
AcDb2dVertex
 10
752.8828125
 20
80.103515625
 30
0.0
  0
VERTEX
  5
2B0
330
2AA
100
AcDbEntity
  8
Ebene 1
370
     0
100
AcDbVertex
100
AcDb2dVertex
 10
752.3974609375
 20
80.5
 30
0.0
  0
VERTEX
  5
2B1
330
2AA
100
AcDbEntity
  8
Ebene 1
370
     0
100
AcDbVertex
100
AcDb2dVertex
 10
751.8232421875
 20
80.7646484375
 30
0.0
  0
VERTEX
  5
2B2
330
2AA
100
AcDbEntity
  8
Ebene 1
370
     0
100
AcDbVertex
100
AcDb2dVertex
 10
751.2060546875
 20
80.9853515625
 30
0.0
  0
VERTEX
  5
2B3
330
2AA
100
AcDbEntity
  8
Ebene 1
370
     0
100
AcDbVertex
100
AcDb2dVertex
 10
750.587890625
 20
81.029296875
 30
0.0
  0
SEQEND
  5
2B4
330
2AA
100
AcDbEntity
  8
Ebene 1
370
     0
  0
POLYLINE
  5
2B5
330
3C
100
AcDbEntity
  8
Ebene 1
370
     0
100
AcDb2dPolyline
 66
     1
 10
0.0
 20
0.0
 30
0.0
  0
VERTEX
  5
2B6
330
2B5
100
AcDbEntity
  8
Ebene 1
370
     0
100
AcDbVertex
100
AcDb2dVertex
 10
753.8525390625
 20
9.69140625
 30
0.0
  0
VERTEX
  5
2B7
330
2B5
100
AcDbEntity
  8
Ebene 1
370
     0
100
AcDbVertex
100
AcDb2dVertex
 10
753.8525390625
 20
77.80859375
 30
0.0
  0
SEQEND
  5
2B8
330
2B5
100
AcDbEntity
  8
Ebene 1
370
     0
  0
POLYLINE
  5
2B9
330
3C
100
AcDbEntity
  8
Ebene 1
370
     0
100
AcDb2dPolyline
 66
     1
 10
0.0
 20
0.0
 30
0.0
  0
VERTEX
  5
2BA
330
2B9
100
AcDbEntity
  8
Ebene 1
370
     0
100
AcDbVertex
100
AcDb2dVertex
 10
679.779296875
 20
37.2646484375
 30
0.0
  0
VERTEX
  5
2BB
330
2B9
100
AcDbEntity
  8
Ebene 1
370
     0
100
AcDbVertex
100
AcDb2dVertex
 10
679.7353515625
 20
38.0146484375
 30
0.0
  0
VERTEX
  5
2BC
330
2B9
100
AcDbEntity
  8
Ebene 1
370
     0
100
AcDbVertex
100
AcDb2dVertex
 10
679.55859375
 20
38.7646484375
 30
0.0
  0
VERTEX
  5
2BD
330
2B9
100
AcDbEntity
  8
Ebene 1
370
     0
100
AcDbVertex
100
AcDb2dVertex
 10
679.2939453125
 20
39.5146484375
 30
0.0
  0
VERTEX
  5
2BE
330
2B9
100
AcDbEntity
  8
Ebene 1
370
     0
100
AcDbVertex
100
AcDb2dVertex
 10
678.94140625
 20
40.1767578125
 30
0.0
  0
VERTEX
  5
2BF
330
2B9
100
AcDbEntity
  8
Ebene 1
370
     0
100
AcDbVertex
100
AcDb2dVertex
 10
678.4560546875
 20
40.7939453125
 30
0.0
  0
VERTEX
  5
2C0
330
2B9
100
AcDbEntity
  8
Ebene 1
370
     0
100
AcDbVertex
100
AcDb2dVertex
 10
677.9267578125
 20
41.3232421875
 30
0.0
  0
VERTEX
  5
2C1
330
2B9
100
AcDbEntity
  8
Ebene 1
370
     0
100
AcDbVertex
100
AcDb2dVertex
 10
677.30859375
 20
41.80859375
 30
0.0
  0
VERTEX
  5
2C2
330
2B9
100
AcDbEntity
  8
Ebene 1
370
     0
100
AcDbVertex
100
AcDb2dVertex
 10
676.6474609375
 20
42.162109375
 30
0.0
  0
VERTEX
  5
2C3
330
2B9
100
AcDbEntity
  8
Ebene 1
370
     0
100
AcDbVertex
100
AcDb2dVertex
 10
675.8974609375
 20
42.4267578125
 30
0.0
  0
VERTEX
  5
2C4
330
2B9
100
AcDbEntity
  8
Ebene 1
370
     0
100
AcDbVertex
100
AcDb2dVertex
 10
675.1474609375
 20
42.6025390625
 30
0.0
  0
VERTEX
  5
2C5
330
2B9
100
AcDbEntity
  8
Ebene 1
370
     0
100
AcDbVertex
100
AcDb2dVertex
 10
674.3974609375
 20
42.6474609375
 30
0.0
  0
VERTEX
  5
2C6
330
2B9
100
AcDbEntity
  8
Ebene 1
370
     0
100
AcDbVertex
100
AcDb2dVertex
 10
673.6474609375
 20
42.6025390625
 30
0.0
  0
VERTEX
  5
2C7
330
2B9
100
AcDbEntity
  8
Ebene 1
370
     0
100
AcDbVertex
100
AcDb2dVertex
 10
672.8974609375
 20
42.4267578125
 30
0.0
  0
VERTEX
  5
2C8
330
2B9
100
AcDbEntity
  8
Ebene 1
370
     0
100
AcDbVertex
100
AcDb2dVertex
 10
672.1474609375
 20
42.162109375
 30
0.0
  0
VERTEX
  5
2C9
330
2B9
100
AcDbEntity
  8
Ebene 1
370
     0
100
AcDbVertex
100
AcDb2dVertex
 10
671.4853515625
 20
41.80859375
 30
0.0
  0
VERTEX
  5
2CA
330
2B9
100
AcDbEntity
  8
Ebene 1
370
     0
100
AcDbVertex
100
AcDb2dVertex
 10
670.8671875
 20
41.3232421875
 30
0.0
  0
VERTEX
  5
2CB
330
2B9
100
AcDbEntity
  8
Ebene 1
370
     0
100
AcDbVertex
100
AcDb2dVertex
 10
670.337890625
 20
40.7939453125
 30
0.0
  0
VERTEX
  5
2CC
330
2B9
100
AcDbEntity
  8
Ebene 1
370
     0
100
AcDbVertex
100
AcDb2dVertex
 10
669.8525390625
 20
40.1767578125
 30
0.0
  0
VERTEX
  5
2CD
330
2B9
100
AcDbEntity
  8
Ebene 1
370
     0
100
AcDbVertex
100
AcDb2dVertex
 10
669.5
 20
39.5146484375
 30
0.0
  0
VERTEX
  5
2CE
330
2B9
100
AcDbEntity
  8
Ebene 1
370
     0
100
AcDbVertex
100
AcDb2dVertex
 10
669.2353515625
 20
38.7646484375
 30
0.0
  0
VERTEX
  5
2CF
330
2B9
100
AcDbEntity
  8
Ebene 1
370
     0
100
AcDbVertex
100
AcDb2dVertex
 10
669.05859375
 20
38.0146484375
 30
0.0
  0
VERTEX
  5
2D0
330
2B9
100
AcDbEntity
  8
Ebene 1
370
     0
100
AcDbVertex
100
AcDb2dVertex
 10
669.0146484375
 20
37.2646484375
 30
0.0
  0
VERTEX
  5
2D1
330
2B9
100
AcDbEntity
  8
Ebene 1
370
     0
100
AcDbVertex
100
AcDb2dVertex
 10
669.05859375
 20
36.5146484375
 30
0.0
  0
VERTEX
  5
2D2
330
2B9
100
AcDbEntity
  8
Ebene 1
370
     0
100
AcDbVertex
100
AcDb2dVertex
 10
669.2353515625
 20
35.7646484375
 30
0.0
  0
VERTEX
  5
2D3
330
2B9
100
AcDbEntity
  8
Ebene 1
370
     0
100
AcDbVertex
100
AcDb2dVertex
 10
669.5
 20
35.0146484375
 30
0.0
  0
VERTEX
  5
2D4
330
2B9
100
AcDbEntity
  8
Ebene 1
370
     0
100
AcDbVertex
100
AcDb2dVertex
 10
669.8525390625
 20
34.3525390625
 30
0.0
  0
VERTEX
  5
2D5
330
2B9
100
AcDbEntity
  8
Ebene 1
370
     0
100
AcDbVertex
100
AcDb2dVertex
 10
670.337890625
 20
33.7353515625
 30
0.0
  0
VERTEX
  5
2D6
330
2B9
100
AcDbEntity
  8
Ebene 1
370
     0
100
AcDbVertex
100
AcDb2dVertex
 10
670.8671875
 20
33.2060546875
 30
0.0
  0
VERTEX
  5
2D7
330
2B9
100
AcDbEntity
  8
Ebene 1
370
     0
100
AcDbVertex
100
AcDb2dVertex
 10
671.4853515625
 20
32.720703125
 30
0.0
  0
VERTEX
  5
2D8
330
2B9
100
AcDbEntity
  8
Ebene 1
370
     0
100
AcDbVertex
100
AcDb2dVertex
 10
672.1474609375
 20
32.3671875
 30
0.0
  0
VERTEX
  5
2D9
330
2B9
100
AcDbEntity
  8
Ebene 1
370
     0
100
AcDbVertex
100
AcDb2dVertex
 10
672.8974609375
 20
32.1025390625
 30
0.0
  0
VERTEX
  5
2DA
330
2B9
100
AcDbEntity
  8
Ebene 1
370
     0
100
AcDbVertex
100
AcDb2dVertex
 10
673.6474609375
 20
31.9267578125
 30
0.0
  0
VERTEX
  5
2DB
330
2B9
100
AcDbEntity
  8
Ebene 1
370
     0
100
AcDbVertex
100
AcDb2dVertex
 10
674.3974609375
 20
31.8828125
 30
0.0
  0
VERTEX
  5
2DC
330
2B9
100
AcDbEntity
  8
Ebene 1
370
     0
100
AcDbVertex
100
AcDb2dVertex
 10
675.1474609375
 20
31.9267578125
 30
0.0
  0
VERTEX
  5
2DD
330
2B9
100
AcDbEntity
  8
Ebene 1
370
     0
100
AcDbVertex
100
AcDb2dVertex
 10
675.8974609375
 20
32.1025390625
 30
0.0
  0
VERTEX
  5
2DE
330
2B9
100
AcDbEntity
  8
Ebene 1
370
     0
100
AcDbVertex
100
AcDb2dVertex
 10
676.6474609375
 20
32.3671875
 30
0.0
  0
VERTEX
  5
2DF
330
2B9
100
AcDbEntity
  8
Ebene 1
370
     0
100
AcDbVertex
100
AcDb2dVertex
 10
677.30859375
 20
32.720703125
 30
0.0
  0
VERTEX
  5
2E0
330
2B9
100
AcDbEntity
  8
Ebene 1
370
     0
100
AcDbVertex
100
AcDb2dVertex
 10
677.9267578125
 20
33.2060546875
 30
0.0
  0
VERTEX
  5
2E1
330
2B9
100
AcDbEntity
  8
Ebene 1
370
     0
100
AcDbVertex
100
AcDb2dVertex
 10
678.4560546875
 20
33.7353515625
 30
0.0
  0
VERTEX
  5
2E2
330
2B9
100
AcDbEntity
  8
Ebene 1
370
     0
100
AcDbVertex
100
AcDb2dVertex
 10
678.94140625
 20
34.3525390625
 30
0.0
  0
VERTEX
  5
2E3
330
2B9
100
AcDbEntity
  8
Ebene 1
370
     0
100
AcDbVertex
100
AcDb2dVertex
 10
679.2939453125
 20
35.0146484375
 30
0.0
  0
VERTEX
  5
2E4
330
2B9
100
AcDbEntity
  8
Ebene 1
370
     0
100
AcDbVertex
100
AcDb2dVertex
 10
679.55859375
 20
35.7646484375
 30
0.0
  0
VERTEX
  5
2E5
330
2B9
100
AcDbEntity
  8
Ebene 1
370
     0
100
AcDbVertex
100
AcDb2dVertex
 10
679.7353515625
 20
36.5146484375
 30
0.0
  0
VERTEX
  5
2E6
330
2B9
100
AcDbEntity
  8
Ebene 1
370
     0
100
AcDbVertex
100
AcDb2dVertex
 10
679.779296875
 20
37.2646484375
 30
0.0
  0
VERTEX
  5
2E7
330
2B9
100
AcDbEntity
  8
Ebene 1
370
     0
100
AcDbVertex
100
AcDb2dVertex
 10
679.779296875
 20
37.2646484375
 30
0.0
  0
SEQEND
  5
2E8
330
2B9
100
AcDbEntity
  8
Ebene 1
370
     0
  0
POLYLINE
  5
2E9
330
3C
100
AcDbEntity
  8
Ebene 1
370
     0
100
AcDb2dPolyline
 66
     1
 10
0.0
 20
0.0
 30
0.0
  0
VERTEX
  5
2EA
330
2E9
100
AcDbEntity
  8
Ebene 1
370
     0
100
AcDbVertex
100
AcDb2dVertex
 10
737.087890625
 20
37.2646484375
 30
0.0
  0
VERTEX
  5
2EB
330
2E9
100
AcDbEntity
  8
Ebene 1
370
     0
100
AcDbVertex
100
AcDb2dVertex
 10
737.0439453125
 20
38.0146484375
 30
0.0
  0
VERTEX
  5
2EC
330
2E9
100
AcDbEntity
  8
Ebene 1
370
     0
100
AcDbVertex
100
AcDb2dVertex
 10
736.8671875
 20
38.7646484375
 30
0.0
  0
VERTEX
  5
2ED
330
2E9
100
AcDbEntity
  8
Ebene 1
370
     0
100
AcDbVertex
100
AcDb2dVertex
 10
736.6025390625
 20
39.5146484375
 30
0.0
  0
VERTEX
  5
2EE
330
2E9
100
AcDbEntity
  8
Ebene 1
370
     0
100
AcDbVertex
100
AcDb2dVertex
 10
736.25
 20
40.1767578125
 30
0.0
  0
VERTEX
  5
2EF
330
2E9
100
AcDbEntity
  8
Ebene 1
370
     0
100
AcDbVertex
100
AcDb2dVertex
 10
735.7646484375
 20
40.7939453125
 30
0.0
  0
VERTEX
  5
2F0
330
2E9
100
AcDbEntity
  8
Ebene 1
370
     0
100
AcDbVertex
100
AcDb2dVertex
 10
735.2353515625
 20
41.3232421875
 30
0.0
  0
VERTEX
  5
2F1
330
2E9
100
AcDbEntity
  8
Ebene 1
370
     0
100
AcDbVertex
100
AcDb2dVertex
 10
734.6171875
 20
41.80859375
 30
0.0
  0
VERTEX
  5
2F2
330
2E9
100
AcDbEntity
  8
Ebene 1
370
     0
100
AcDbVertex
100
AcDb2dVertex
 10
733.9560546875
 20
42.162109375
 30
0.0
  0
VERTEX
  5
2F3
330
2E9
100
AcDbEntity
  8
Ebene 1
370
     0
100
AcDbVertex
100
AcDb2dVertex
 10
733.2060546875
 20
42.4267578125
 30
0.0
  0
VERTEX
  5
2F4
330
2E9
100
AcDbEntity
  8
Ebene 1
370
     0
100
AcDbVertex
100
AcDb2dVertex
 10
732.4560546875
 20
42.6025390625
 30
0.0
  0
VERTEX
  5
2F5
330
2E9
100
AcDbEntity
  8
Ebene 1
370
     0
100
AcDbVertex
100
AcDb2dVertex
 10
731.7060546875
 20
42.6474609375
 30
0.0
  0
VERTEX
  5
2F6
330
2E9
100
AcDbEntity
  8
Ebene 1
370
     0
100
AcDbVertex
100
AcDb2dVertex
 10
730.9560546875
 20
42.6025390625
 30
0.0
  0
VERTEX
  5
2F7
330
2E9
100
AcDbEntity
  8
Ebene 1
370
     0
100
AcDbVertex
100
AcDb2dVertex
 10
730.2060546875
 20
42.4267578125
 30
0.0
  0
VERTEX
  5
2F8
330
2E9
100
AcDbEntity
  8
Ebene 1
370
     0
100
AcDbVertex
100
AcDb2dVertex
 10
729.4560546875
 20
42.162109375
 30
0.0
  0
VERTEX
  5
2F9
330
2E9
100
AcDbEntity
  8
Ebene 1
370
     0
100
AcDbVertex
100
AcDb2dVertex
 10
728.7939453125
 20
41.80859375
 30
0.0
  0
VERTEX
  5
2FA
330
2E9
100
AcDbEntity
  8
Ebene 1
370
     0
100
AcDbVertex
100
AcDb2dVertex
 10
728.1767578125
 20
41.3232421875
 30
0.0
  0
VERTEX
  5
2FB
330
2E9
100
AcDbEntity
  8
Ebene 1
370
     0
100
AcDbVertex
100
AcDb2dVertex
 10
727.6474609375
 20
40.7939453125
 30
0.0
  0
VERTEX
  5
2FC
330
2E9
100
AcDbEntity
  8
Ebene 1
370
     0
100
AcDbVertex
100
AcDb2dVertex
 10
727.162109375
 20
40.1767578125
 30
0.0
  0
VERTEX
  5
2FD
330
2E9
100
AcDbEntity
  8
Ebene 1
370
     0
100
AcDbVertex
100
AcDb2dVertex
 10
726.80859375
 20
39.5146484375
 30
0.0
  0
VERTEX
  5
2FE
330
2E9
100
AcDbEntity
  8
Ebene 1
370
     0
100
AcDbVertex
100
AcDb2dVertex
 10
726.5439453125
 20
38.7646484375
 30
0.0
  0
VERTEX
  5
2FF
330
2E9
100
AcDbEntity
  8
Ebene 1
370
     0
100
AcDbVertex
100
AcDb2dVertex
 10
726.3671875
 20
38.0146484375
 30
0.0
  0
VERTEX
  5
300
330
2E9
100
AcDbEntity
  8
Ebene 1
370
     0
100
AcDbVertex
100
AcDb2dVertex
 10
726.3232421875
 20
37.2646484375
 30
0.0
  0
VERTEX
  5
301
330
2E9
100
AcDbEntity
  8
Ebene 1
370
     0
100
AcDbVertex
100
AcDb2dVertex
 10
726.3671875
 20
36.5146484375
 30
0.0
  0
VERTEX
  5
302
330
2E9
100
AcDbEntity
  8
Ebene 1
370
     0
100
AcDbVertex
100
AcDb2dVertex
 10
726.5439453125
 20
35.7646484375
 30
0.0
  0
VERTEX
  5
303
330
2E9
100
AcDbEntity
  8
Ebene 1
370
     0
100
AcDbVertex
100
AcDb2dVertex
 10
726.80859375
 20
35.0146484375
 30
0.0
  0
VERTEX
  5
304
330
2E9
100
AcDbEntity
  8
Ebene 1
370
     0
100
AcDbVertex
100
AcDb2dVertex
 10
727.162109375
 20
34.3525390625
 30
0.0
  0
VERTEX
  5
305
330
2E9
100
AcDbEntity
  8
Ebene 1
370
     0
100
AcDbVertex
100
AcDb2dVertex
 10
727.6474609375
 20
33.7353515625
 30
0.0
  0
VERTEX
  5
306
330
2E9
100
AcDbEntity
  8
Ebene 1
370
     0
100
AcDbVertex
100
AcDb2dVertex
 10
728.1767578125
 20
33.2060546875
 30
0.0
  0
VERTEX
  5
307
330
2E9
100
AcDbEntity
  8
Ebene 1
370
     0
100
AcDbVertex
100
AcDb2dVertex
 10
728.7939453125
 20
32.720703125
 30
0.0
  0
VERTEX
  5
308
330
2E9
100
AcDbEntity
  8
Ebene 1
370
     0
100
AcDbVertex
100
AcDb2dVertex
 10
729.4560546875
 20
32.3671875
 30
0.0
  0
VERTEX
  5
309
330
2E9
100
AcDbEntity
  8
Ebene 1
370
     0
100
AcDbVertex
100
AcDb2dVertex
 10
730.2060546875
 20
32.1025390625
 30
0.0
  0
VERTEX
  5
30A
330
2E9
100
AcDbEntity
  8
Ebene 1
370
     0
100
AcDbVertex
100
AcDb2dVertex
 10
730.9560546875
 20
31.9267578125
 30
0.0
  0
VERTEX
  5
30B
330
2E9
100
AcDbEntity
  8
Ebene 1
370
     0
100
AcDbVertex
100
AcDb2dVertex
 10
731.7060546875
 20
31.8828125
 30
0.0
  0
VERTEX
  5
30C
330
2E9
100
AcDbEntity
  8
Ebene 1
370
     0
100
AcDbVertex
100
AcDb2dVertex
 10
732.4560546875
 20
31.9267578125
 30
0.0
  0
VERTEX
  5
30D
330
2E9
100
AcDbEntity
  8
Ebene 1
370
     0
100
AcDbVertex
100
AcDb2dVertex
 10
733.2060546875
 20
32.1025390625
 30
0.0
  0
VERTEX
  5
30E
330
2E9
100
AcDbEntity
  8
Ebene 1
370
     0
100
AcDbVertex
100
AcDb2dVertex
 10
733.9560546875
 20
32.3671875
 30
0.0
  0
VERTEX
  5
30F
330
2E9
100
AcDbEntity
  8
Ebene 1
370
     0
100
AcDbVertex
100
AcDb2dVertex
 10
734.6171875
 20
32.720703125
 30
0.0
  0
VERTEX
  5
310
330
2E9
100
AcDbEntity
  8
Ebene 1
370
     0
100
AcDbVertex
100
AcDb2dVertex
 10
735.2353515625
 20
33.2060546875
 30
0.0
  0
VERTEX
  5
311
330
2E9
100
AcDbEntity
  8
Ebene 1
370
     0
100
AcDbVertex
100
AcDb2dVertex
 10
735.7646484375
 20
33.7353515625
 30
0.0
  0
VERTEX
  5
312
330
2E9
100
AcDbEntity
  8
Ebene 1
370
     0
100
AcDbVertex
100
AcDb2dVertex
 10
736.25
 20
34.3525390625
 30
0.0
  0
VERTEX
  5
313
330
2E9
100
AcDbEntity
  8
Ebene 1
370
     0
100
AcDbVertex
100
AcDb2dVertex
 10
736.6025390625
 20
35.0146484375
 30
0.0
  0
VERTEX
  5
314
330
2E9
100
AcDbEntity
  8
Ebene 1
370
     0
100
AcDbVertex
100
AcDb2dVertex
 10
736.8671875
 20
35.7646484375
 30
0.0
  0
VERTEX
  5
315
330
2E9
100
AcDbEntity
  8
Ebene 1
370
     0
100
AcDbVertex
100
AcDb2dVertex
 10
737.0439453125
 20
36.5146484375
 30
0.0
  0
VERTEX
  5
316
330
2E9
100
AcDbEntity
  8
Ebene 1
370
     0
100
AcDbVertex
100
AcDb2dVertex
 10
737.087890625
 20
37.2646484375
 30
0.0
  0
VERTEX
  5
317
330
2E9
100
AcDbEntity
  8
Ebene 1
370
     0
100
AcDbVertex
100
AcDb2dVertex
 10
737.087890625
 20
37.2646484375
 30
0.0
  0
SEQEND
  5
318
330
2E9
100
AcDbEntity
  8
Ebene 1
370
     0
  0
POLYLINE
  5
319
330
3C
100
AcDbEntity
  8
Ebene 1
370
     0
100
AcDb2dPolyline
 66
     1
 10
0.0
 20
0.0
 30
0.0
  0
VERTEX
  5
31A
330
319
100
AcDbEntity
  8
Ebene 1
370
     0
100
AcDbVertex
100
AcDb2dVertex
 10
703.0732421875
 20
63.912109375
 30
0.0
  0
VERTEX
  5
31B
330
319
100
AcDbEntity
  8
Ebene 1
370
     0
100
AcDbVertex
100
AcDb2dVertex
 10
702.1025390625
 20
63.8671875
 30
0.0
  0
VERTEX
  5
31C
330
319
100
AcDbEntity
  8
Ebene 1
370
     0
100
AcDbVertex
100
AcDb2dVertex
 10
701.087890625
 20
63.69140625
 30
0.0
  0
VERTEX
  5
31D
330
319
100
AcDbEntity
  8
Ebene 1
370
     0
100
AcDbVertex
100
AcDb2dVertex
 10
700.162109375
 20
63.4267578125
 30
0.0
  0
VERTEX
  5
31E
330
319
100
AcDbEntity
  8
Ebene 1
370
     0
100
AcDbVertex
100
AcDb2dVertex
 10
699.2353515625
 20
63.029296875
 30
0.0
  0
VERTEX
  5
31F
330
319
100
AcDbEntity
  8
Ebene 1
370
     0
100
AcDbVertex
100
AcDb2dVertex
 10
698.3974609375
 20
62.5439453125
 30
0.0
  0
VERTEX
  5
320
330
319
100
AcDbEntity
  8
Ebene 1
370
     0
100
AcDbVertex
100
AcDb2dVertex
 10
697.55859375
 20
61.970703125
 30
0.0
  0
VERTEX
  5
321
330
319
100
AcDbEntity
  8
Ebene 1
370
     0
100
AcDbVertex
100
AcDb2dVertex
 10
696.8525390625
 20
61.30859375
 30
0.0
  0
VERTEX
  5
322
330
319
100
AcDbEntity
  8
Ebene 1
370
     0
100
AcDbVertex
100
AcDb2dVertex
 10
696.19140625
 20
60.6025390625
 30
0.0
  0
VERTEX
  5
323
330
319
100
AcDbEntity
  8
Ebene 1
370
     0
100
AcDbVertex
100
AcDb2dVertex
 10
695.6171875
 20
59.7646484375
 30
0.0
  0
VERTEX
  5
324
330
319
100
AcDbEntity
  8
Ebene 1
370
     0
100
AcDbVertex
100
AcDb2dVertex
 10
695.1328125
 20
58.9267578125
 30
0.0
  0
VERTEX
  5
325
330
319
100
AcDbEntity
  8
Ebene 1
370
     0
100
AcDbVertex
100
AcDb2dVertex
 10
694.7353515625
 20
58.0
 30
0.0
  0
VERTEX
  5
326
330
319
100
AcDbEntity
  8
Ebene 1
370
     0
100
AcDbVertex
100
AcDb2dVertex
 10
694.470703125
 20
57.0732421875
 30
0.0
  0
VERTEX
  5
327
330
319
100
AcDbEntity
  8
Ebene 1
370
     0
100
AcDbVertex
100
AcDb2dVertex
 10
694.2939453125
 20
56.05859375
 30
0.0
  0
VERTEX
  5
328
330
319
100
AcDbEntity
  8
Ebene 1
370
     0
100
AcDbVertex
100
AcDb2dVertex
 10
694.25
 20
55.087890625
 30
0.0
  0
VERTEX
  5
329
330
319
100
AcDbEntity
  8
Ebene 1
370
     0
100
AcDbVertex
100
AcDb2dVertex
 10
694.2939453125
 20
54.1171875
 30
0.0
  0
VERTEX
  5
32A
330
319
100
AcDbEntity
  8
Ebene 1
370
     0
100
AcDbVertex
100
AcDb2dVertex
 10
694.470703125
 20
53.1025390625
 30
0.0
  0
VERTEX
  5
32B
330
319
100
AcDbEntity
  8
Ebene 1
370
     0
100
AcDbVertex
100
AcDb2dVertex
 10
694.7353515625
 20
52.1767578125
 30
0.0
  0
VERTEX
  5
32C
330
319
100
AcDbEntity
  8
Ebene 1
370
     0
100
AcDbVertex
100
AcDb2dVertex
 10
695.1328125
 20
51.25
 30
0.0
  0
VERTEX
  5
32D
330
319
100
AcDbEntity
  8
Ebene 1
370
     0
100
AcDbVertex
100
AcDb2dVertex
 10
695.6171875
 20
50.412109375
 30
0.0
  0
VERTEX
  5
32E
330
319
100
AcDbEntity
  8
Ebene 1
370
     0
100
AcDbVertex
100
AcDb2dVertex
 10
696.19140625
 20
49.5732421875
 30
0.0
  0
VERTEX
  5
32F
330
319
100
AcDbEntity
  8
Ebene 1
370
     0
100
AcDbVertex
100
AcDb2dVertex
 10
696.8525390625
 20
48.8671875
 30
0.0
  0
VERTEX
  5
330
330
319
100
AcDbEntity
  8
Ebene 1
370
     0
100
AcDbVertex
100
AcDb2dVertex
 10
697.55859375
 20
48.2060546875
 30
0.0
  0
VERTEX
  5
331
330
319
100
AcDbEntity
  8
Ebene 1
370
     0
100
AcDbVertex
100
AcDb2dVertex
 10
698.3974609375
 20
47.6328125
 30
0.0
  0
VERTEX
  5
332
330
319
100
AcDbEntity
  8
Ebene 1
370
     0
100
AcDbVertex
100
AcDb2dVertex
 10
699.2353515625
 20
47.1474609375
 30
0.0
  0
VERTEX
  5
333
330
319
100
AcDbEntity
  8
Ebene 1
370
     0
100
AcDbVertex
100
AcDb2dVertex
 10
700.162109375
 20
46.75
 30
0.0
  0
VERTEX
  5
334
330
319
100
AcDbEntity
  8
Ebene 1
370
     0
100
AcDbVertex
100
AcDb2dVertex
 10
701.087890625
 20
46.4853515625
 30
0.0
  0
VERTEX
  5
335
330
319
100
AcDbEntity
  8
Ebene 1
370
     0
100
AcDbVertex
100
AcDb2dVertex
 10
702.1025390625
 20
46.30859375
 30
0.0
  0
VERTEX
  5
336
330
319
100
AcDbEntity
  8
Ebene 1
370
     0
100
AcDbVertex
100
AcDb2dVertex
 10
703.0732421875
 20
46.2646484375
 30
0.0
  0
VERTEX
  5
337
330
319
100
AcDbEntity
  8
Ebene 1
370
     0
100
AcDbVertex
100
AcDb2dVertex
 10
704.0439453125
 20
46.30859375
 30
0.0
  0
VERTEX
  5
338
330
319
100
AcDbEntity
  8
Ebene 1
370
     0
100
AcDbVertex
100
AcDb2dVertex
 10
705.05859375
 20
46.4853515625
 30
0.0
  0
VERTEX
  5
339
330
319
100
AcDbEntity
  8
Ebene 1
370
     0
100
AcDbVertex
100
AcDb2dVertex
 10
705.9853515625
 20
46.75
 30
0.0
  0
VERTEX
  5
33A
330
319
100
AcDbEntity
  8
Ebene 1
370
     0
100
AcDbVertex
100
AcDb2dVertex
 10
706.912109375
 20
47.1474609375
 30
0.0
  0
VERTEX
  5
33B
330
319
100
AcDbEntity
  8
Ebene 1
370
     0
100
AcDbVertex
100
AcDb2dVertex
 10
707.75
 20
47.6328125
 30
0.0
  0
VERTEX
  5
33C
330
319
100
AcDbEntity
  8
Ebene 1
370
     0
100
AcDbVertex
100
AcDb2dVertex
 10
708.587890625
 20
48.2060546875
 30
0.0
  0
VERTEX
  5
33D
330
319
100
AcDbEntity
  8
Ebene 1
370
     0
100
AcDbVertex
100
AcDb2dVertex
 10
709.2939453125
 20
48.8671875
 30
0.0
  0
VERTEX
  5
33E
330
319
100
AcDbEntity
  8
Ebene 1
370
     0
100
AcDbVertex
100
AcDb2dVertex
 10
709.9560546875
 20
49.5732421875
 30
0.0
  0
VERTEX
  5
33F
330
319
100
AcDbEntity
  8
Ebene 1
370
     0
100
AcDbVertex
100
AcDb2dVertex
 10
710.529296875
 20
50.412109375
 30
0.0
  0
VERTEX
  5
340
330
319
100
AcDbEntity
  8
Ebene 1
370
     0
100
AcDbVertex
100
AcDb2dVertex
 10
711.0146484375
 20
51.25
 30
0.0
  0
VERTEX
  5
341
330
319
100
AcDbEntity
  8
Ebene 1
370
     0
100
AcDbVertex
100
AcDb2dVertex
 10
711.412109375
 20
52.1767578125
 30
0.0
  0
VERTEX
  5
342
330
319
100
AcDbEntity
  8
Ebene 1
370
     0
100
AcDbVertex
100
AcDb2dVertex
 10
711.6767578125
 20
53.1025390625
 30
0.0
  0
VERTEX
  5
343
330
319
100
AcDbEntity
  8
Ebene 1
370
     0
100
AcDbVertex
100
AcDb2dVertex
 10
711.8525390625
 20
54.1171875
 30
0.0
  0
VERTEX
  5
344
330
319
100
AcDbEntity
  8
Ebene 1
370
     0
100
AcDbVertex
100
AcDb2dVertex
 10
711.8974609375
 20
55.087890625
 30
0.0
  0
VERTEX
  5
345
330
319
100
AcDbEntity
  8
Ebene 1
370
     0
100
AcDbVertex
100
AcDb2dVertex
 10
711.8525390625
 20
56.05859375
 30
0.0
  0
VERTEX
  5
346
330
319
100
AcDbEntity
  8
Ebene 1
370
     0
100
AcDbVertex
100
AcDb2dVertex
 10
711.6767578125
 20
57.0732421875
 30
0.0
  0
VERTEX
  5
347
330
319
100
AcDbEntity
  8
Ebene 1
370
     0
100
AcDbVertex
100
AcDb2dVertex
 10
711.412109375
 20
58.0
 30
0.0
  0
VERTEX
  5
348
330
319
100
AcDbEntity
  8
Ebene 1
370
     0
100
AcDbVertex
100
AcDb2dVertex
 10
711.0146484375
 20
58.9267578125
 30
0.0
  0
VERTEX
  5
349
330
319
100
AcDbEntity
  8
Ebene 1
370
     0
100
AcDbVertex
100
AcDb2dVertex
 10
710.529296875
 20
59.7646484375
 30
0.0
  0
VERTEX
  5
34A
330
319
100
AcDbEntity
  8
Ebene 1
370
     0
100
AcDbVertex
100
AcDb2dVertex
 10
709.9560546875
 20
60.6025390625
 30
0.0
  0
VERTEX
  5
34B
330
319
100
AcDbEntity
  8
Ebene 1
370
     0
100
AcDbVertex
100
AcDb2dVertex
 10
709.2939453125
 20
61.30859375
 30
0.0
  0
VERTEX
  5
34C
330
319
100
AcDbEntity
  8
Ebene 1
370
     0
100
AcDbVertex
100
AcDb2dVertex
 10
708.587890625
 20
61.970703125
 30
0.0
  0
VERTEX
  5
34D
330
319
100
AcDbEntity
  8
Ebene 1
370
     0
100
AcDbVertex
100
AcDb2dVertex
 10
707.75
 20
62.5439453125
 30
0.0
  0
VERTEX
  5
34E
330
319
100
AcDbEntity
  8
Ebene 1
370
     0
100
AcDbVertex
100
AcDb2dVertex
 10
706.912109375
 20
63.029296875
 30
0.0
  0
VERTEX
  5
34F
330
319
100
AcDbEntity
  8
Ebene 1
370
     0
100
AcDbVertex
100
AcDb2dVertex
 10
705.9853515625
 20
63.4267578125
 30
0.0
  0
VERTEX
  5
350
330
319
100
AcDbEntity
  8
Ebene 1
370
     0
100
AcDbVertex
100
AcDb2dVertex
 10
705.05859375
 20
63.69140625
 30
0.0
  0
VERTEX
  5
351
330
319
100
AcDbEntity
  8
Ebene 1
370
     0
100
AcDbVertex
100
AcDb2dVertex
 10
704.0439453125
 20
63.8671875
 30
0.0
  0
VERTEX
  5
352
330
319
100
AcDbEntity
  8
Ebene 1
370
     0
100
AcDbVertex
100
AcDb2dVertex
 10
703.0732421875
 20
63.912109375
 30
0.0
  0
VERTEX
  5
353
330
319
100
AcDbEntity
  8
Ebene 1
370
     0
100
AcDbVertex
100
AcDb2dVertex
 10
703.0732421875
 20
63.912109375
 30
0.0
  0
SEQEND
  5
354
330
319
100
AcDbEntity
  8
Ebene 1
370
     0
  0
POLYLINE
  5
355
330
3C
100
AcDbEntity
  8
Ebene 1
370
     0
100
AcDb2dPolyline
 66
     1
 10
0.0
 20
0.0
 30
0.0
  0
VERTEX
  5
356
330
355
100
AcDbEntity
  8
Ebene 1
370
     0
100
AcDbVertex
100
AcDb2dVertex
 10
655.5146484375
 20
6.4267578125
 30
0.0
  0
VERTEX
  5
357
330
355
100
AcDbEntity
  8
Ebene 1
370
     0
100
AcDbVertex
100
AcDb2dVertex
 10
750.587890625
 20
6.4267578125
 30
0.0
  0
SEQEND
  5
358
330
355
100
AcDbEntity
  8
Ebene 1
370
     0
  0
POLYLINE
  5
359
330
3C
100
AcDbEntity
  8
Ebene 1
370
     0
100
AcDb2dPolyline
 66
     1
 10
0.0
 20
0.0
 30
0.0
  0
VERTEX
  5
35A
330
359
100
AcDbEntity
  8
Ebene 1
370
     0
100
AcDbVertex
100
AcDb2dVertex
 10
645.7646484375
 20
20.279296875
 30
0.0
  0
VERTEX
  5
35B
330
359
100
AcDbEntity
  8
Ebene 1
370
     0
100
AcDbVertex
100
AcDb2dVertex
 10
652.25
 20
20.279296875
 30
0.0
  0
SEQEND
  5
35C
330
359
100
AcDbEntity
  8
Ebene 1
370
     0
  0
POLYLINE
  5
35D
330
3C
100
AcDbEntity
  8
Ebene 1
370
     0
100
AcDb2dPolyline
 66
     1
 10
0.0
 20
0.0
 30
0.0
  0
VERTEX
  5
35E
330
35D
100
AcDbEntity
  8
Ebene 1
370
     0
100
AcDbVertex
100
AcDb2dVertex
 10
652.25
 20
9.470703125
 30
0.0
  0
VERTEX
  5
35F
330
35D
100
AcDbEntity
  8
Ebene 1
370
     0
100
AcDbVertex
100
AcDb2dVertex
 10
645.7646484375
 20
9.470703125
 30
0.0
  0
VERTEX
  5
360
330
35D
100
AcDbEntity
  8
Ebene 1
370
     0
100
AcDbVertex
100
AcDb2dVertex
 10
645.7646484375
 20
20.279296875
 30
0.0
  0
SEQEND
  5
361
330
35D
100
AcDbEntity
  8
Ebene 1
370
     0
  0
POLYLINE
  5
362
330
3C
100
AcDbEntity
  8
Ebene 1
370
     0
100
AcDb2dPolyline
 66
     1
 10
0.0
 20
0.0
 30
0.0
  0
VERTEX
  5
363
330
362
100
AcDbEntity
  8
Ebene 1
370
     0
100
AcDbVertex
100
AcDb2dVertex
 10
645.7646484375
 20
76.529296875
 30
0.0
  0
VERTEX
  5
364
330
362
100
AcDbEntity
  8
Ebene 1
370
     0
100
AcDbVertex
100
AcDb2dVertex
 10
652.25
 20
76.529296875
 30
0.0
  0
SEQEND
  5
365
330
362
100
AcDbEntity
  8
Ebene 1
370
     0
  0
POLYLINE
  5
366
330
3C
100
AcDbEntity
  8
Ebene 1
370
     0
100
AcDb2dPolyline
 66
     1
 10
0.0
 20
0.0
 30
0.0
  0
VERTEX
  5
367
330
366
100
AcDbEntity
  8
Ebene 1
370
     0
100
AcDbVertex
100
AcDb2dVertex
 10
652.25
 20
65.720703125
 30
0.0
  0
VERTEX
  5
368
330
366
100
AcDbEntity
  8
Ebene 1
370
     0
100
AcDbVertex
100
AcDb2dVertex
 10
645.7646484375
 20
65.720703125
 30
0.0
  0
VERTEX
  5
369
330
366
100
AcDbEntity
  8
Ebene 1
370
     0
100
AcDbVertex
100
AcDb2dVertex
 10
645.7646484375
 20
76.529296875
 30
0.0
  0
SEQEND
  5
36A
330
366
100
AcDbEntity
  8
Ebene 1
370
     0
  0
POLYLINE
  5
36B
330
3C
100
AcDbEntity
  8
Ebene 1
370
     0
100
AcDb2dPolyline
 66
     1
 10
0.0
 20
0.0
 30
0.0
  0
VERTEX
  5
36C
330
36B
100
AcDbEntity
  8
Ebene 1
370
     0
100
AcDbVertex
100
AcDb2dVertex
 10
645.7646484375
 20
20.279296875
 30
0.0
  0
VERTEX
  5
36D
330
36B
100
AcDbEntity
  8
Ebene 1
370
     0
100
AcDbVertex
100
AcDb2dVertex
 10
645.7646484375
 20
65.720703125
 30
0.0
  0
SEQEND
  5
36E
330
36B
100
AcDbEntity
  8
Ebene 1
370
     0
  0
POLYLINE
  5
36F
330
3C
100
AcDbEntity
  8
Ebene 1
370
     0
100
AcDb2dPolyline
 66
     1
 10
0.0
 20
0.0
 30
0.0
  0
VERTEX
  5
370
330
36F
100
AcDbEntity
  8
Ebene 1
370
     0
100
AcDbVertex
100
AcDb2dVertex
 10
-142.88232421875
 20
-59.220703125
 30
0.0
  0
VERTEX
  5
371
330
36F
100
AcDbEntity
  8
Ebene 1
370
     0
100
AcDbVertex
100
AcDb2dVertex
 10
-142.88232421875
 20
-59.220703125
 30
0.0
  0
SEQEND
  5
372
330
36F
100
AcDbEntity
  8
Ebene 1
370
     0
  0
POLYLINE
  5
373
330
3C
100
AcDbEntity
  8
Ebene 1
370
     0
100
AcDb2dPolyline
 66
     1
 10
0.0
 20
0.0
 30
0.0
  0
VERTEX
  5
374
330
373
100
AcDbEntity
  8
Ebene 1
370
     0
100
AcDbVertex
100
AcDb2dVertex
 10
624.1474609375
 20
48.3828125
 30
0.0
  0
VERTEX
  5
375
330
373
100
AcDbEntity
  8
Ebene 1
370
     0
100
AcDbVertex
100
AcDb2dVertex
 10
624.1474609375
 20
41.8974609375
 30
0.0
  0
SEQEND
  5
376
330
373
100
AcDbEntity
  8
Ebene 1
370
     0
  0
POLYLINE
  5
377
330
3C
100
AcDbEntity
  8
Ebene 1
370
     0
100
AcDb2dPolyline
 66
     1
 10
0.0
 20
0.0
 30
0.0
  0
VERTEX
  5
378
330
377
100
AcDbEntity
  8
Ebene 1
370
     0
100
AcDbVertex
100
AcDb2dVertex
 10
624.1474609375
 20
48.3828125
 30
0.0
  0
VERTEX
  5
379
330
377
100
AcDbEntity
  8
Ebene 1
370
     0
100
AcDbVertex
100
AcDb2dVertex
 10
625.69140625
 20
48.3828125
 30
0.0
  0
SEQEND
  5
37A
330
377
100
AcDbEntity
  8
Ebene 1
370
     0
  0
POLYLINE
  5
37B
330
3C
100
AcDbEntity
  8
Ebene 1
370
     0
100
AcDb2dPolyline
 66
     1
 10
0.0
 20
0.0
 30
0.0
  0
VERTEX
  5
37C
330
37B
100
AcDbEntity
  8
Ebene 1
370
     0
100
AcDbVertex
100
AcDb2dVertex
 10
621.9853515625
 20
48.3828125
 30
0.0
  0
VERTEX
  5
37D
330
37B
100
AcDbEntity
  8
Ebene 1
370
     0
100
AcDbVertex
100
AcDb2dVertex
 10
624.1474609375
 20
48.3828125
 30
0.0
  0
SEQEND
  5
37E
330
37B
100
AcDbEntity
  8
Ebene 1
370
     0
  0
POLYLINE
  5
37F
330
3C
100
AcDbEntity
  8
Ebene 1
370
     0
100
AcDb2dPolyline
 66
     1
 10
0.0
 20
0.0
 30
0.0
  0
VERTEX
  5
380
330
37F
100
AcDbEntity
  8
Ebene 1
370
     0
100
AcDbVertex
100
AcDb2dVertex
 10
619.8232421875
 20
42.1171875
 30
0.0
  0
VERTEX
  5
381
330
37F
100
AcDbEntity
  8
Ebene 1
370
     0
100
AcDbVertex
100
AcDb2dVertex
 10
580.9560546875
 20
42.1171875
 30
0.0
  0
SEQEND
  5
382
330
37F
100
AcDbEntity
  8
Ebene 1
370
     0
  0
POLYLINE
  5
383
330
3C
100
AcDbEntity
  8
Ebene 1
370
     0
100
AcDb2dPolyline
 66
     1
 10
0.0
 20
0.0
 30
0.0
  0
VERTEX
  5
384
330
383
100
AcDbEntity
  8
Ebene 1
370
     0
100
AcDbVertex
100
AcDb2dVertex
 10
591.412109375
 20
31.30859375
 30
0.0
  0
VERTEX
  5
385
330
383
100
AcDbEntity
  8
Ebene 1
370
     0
100
AcDbVertex
100
AcDb2dVertex
 10
619.8232421875
 20
31.30859375
 30
0.0
  0
SEQEND
  5
386
330
383
100
AcDbEntity
  8
Ebene 1
370
     0
  0
POLYLINE
  5
387
330
3C
100
AcDbEntity
  8
Ebene 1
370
     0
100
AcDb2dPolyline
 66
     1
 10
0.0
 20
0.0
 30
0.0
  0
VERTEX
  5
388
330
387
100
AcDbEntity
  8
Ebene 1
370
     0
100
AcDbVertex
100
AcDb2dVertex
 10
580.9560546875
 20
31.30859375
 30
0.0
  0
VERTEX
  5
389
330
387
100
AcDbEntity
  8
Ebene 1
370
     0
100
AcDbVertex
100
AcDb2dVertex
 10
591.412109375
 20
31.30859375
 30
0.0
  0
SEQEND
  5
38A
330
387
100
AcDbEntity
  8
Ebene 1
370
     0
  0
POLYLINE
  5
38B
330
3C
100
AcDbEntity
  8
Ebene 1
370
     0
100
AcDb2dPolyline
 66
     1
 10
0.0
 20
0.0
 30
0.0
  0
VERTEX
  5
38C
330
38B
100
AcDbEntity
  8
Ebene 1
370
     0
100
AcDbVertex
100
AcDb2dVertex
 10
619.8232421875
 20
17.2353515625
 30
0.0
  0
VERTEX
  5
38D
330
38B
100
AcDbEntity
  8
Ebene 1
370
     0
100
AcDbVertex
100
AcDb2dVertex
 10
580.9560546875
 20
17.2353515625
 30
0.0
  0
SEQEND
  5
38E
330
38B
100
AcDbEntity
  8
Ebene 1
370
     0
  0
POLYLINE
  5
38F
330
3C
100
AcDbEntity
  8
Ebene 1
370
     0
100
AcDb2dPolyline
 66
     1
 10
0.0
 20
0.0
 30
0.0
  0
VERTEX
  5
390
330
38F
100
AcDbEntity
  8
Ebene 1
370
     0
100
AcDbVertex
100
AcDb2dVertex
 10
580.9560546875
 20
56.19140625
 30
0.0
  0
VERTEX
  5
391
330
38F
100
AcDbEntity
  8
Ebene 1
370
     0
100
AcDbVertex
100
AcDb2dVertex
 10
619.8232421875
 20
56.19140625
 30
0.0
  0
SEQEND
  5
392
330
38F
100
AcDbEntity
  8
Ebene 1
370
     0
  0
POLYLINE
  5
393
330
3C
100
AcDbEntity
  8
Ebene 1
370
     0
100
AcDb2dPolyline
 66
     1
 10
0.0
 20
0.0
 30
0.0
  0
VERTEX
  5
394
330
393
100
AcDbEntity
  8
Ebene 1
370
     0
100
AcDbVertex
100
AcDb2dVertex
 10
628.470703125
 20
17.2353515625
 30
0.0
  0
VERTEX
  5
395
330
393
100
AcDbEntity
  8
Ebene 1
370
     0
100
AcDbVertex
100
AcDb2dVertex
 10
636.1474609375
 20
17.2353515625
 30
0.0
  0
SEQEND
  5
396
330
393
100
AcDbEntity
  8
Ebene 1
370
     0
  0
POLYLINE
  5
397
330
3C
100
AcDbEntity
  8
Ebene 1
370
     0
100
AcDb2dPolyline
 66
     1
 10
0.0
 20
0.0
 30
0.0
  0
VERTEX
  5
398
330
397
100
AcDbEntity
  8
Ebene 1
370
     0
100
AcDbVertex
100
AcDb2dVertex
 10
643.6025390625
 20
57.25
 30
0.0
  0
VERTEX
  5
399
330
397
100
AcDbEntity
  8
Ebene 1
370
     0
100
AcDbVertex
100
AcDb2dVertex
 10
643.6025390625
 20
63.7353515625
 30
0.0
  0
SEQEND
  5
39A
330
397
100
AcDbEntity
  8
Ebene 1
370
     0
  0
POLYLINE
  5
39B
330
3C
100
AcDbEntity
  8
Ebene 1
370
     0
100
AcDb2dPolyline
 66
     1
 10
0.0
 20
0.0
 30
0.0
  0
VERTEX
  5
39C
330
39B
100
AcDbEntity
  8
Ebene 1
370
     0
100
AcDbVertex
100
AcDb2dVertex
 10
600.3671875
 20
63.7353515625
 30
0.0
  0
VERTEX
  5
39D
330
39B
100
AcDbEntity
  8
Ebene 1
370
     0
100
AcDbVertex
100
AcDb2dVertex
 10
600.3671875
 20
57.25
 30
0.0
  0
SEQEND
  5
39E
330
39B
100
AcDbEntity
  8
Ebene 1
370
     0
  0
POLYLINE
  5
39F
330
3C
100
AcDbEntity
  8
Ebene 1
370
     0
100
AcDb2dPolyline
 66
     1
 10
0.0
 20
0.0
 30
0.0
  0
VERTEX
  5
3A0
330
39F
100
AcDbEntity
  8
Ebene 1
370
     0
100
AcDbVertex
100
AcDb2dVertex
 10
643.6025390625
 20
63.7353515625
 30
0.0
  0
VERTEX
  5
3A1
330
39F
100
AcDbEntity
  8
Ebene 1
370
     0
100
AcDbVertex
100
AcDb2dVertex
 10
607.25
 20
63.7353515625
 30
0.0
  0
SEQEND
  5
3A2
330
39F
100
AcDbEntity
  8
Ebene 1
370
     0
  0
POLYLINE
  5
3A3
330
3C
100
AcDbEntity
  8
Ebene 1
370
     0
100
AcDb2dPolyline
 66
     1
 10
0.0
 20
0.0
 30
0.0
  0
VERTEX
  5
3A4
330
3A3
100
AcDbEntity
  8
Ebene 1
370
     0
100
AcDbVertex
100
AcDb2dVertex
 10
643.6025390625
 20
57.25
 30
0.0
  0
VERTEX
  5
3A5
330
3A3
100
AcDbEntity
  8
Ebene 1
370
     0
100
AcDbVertex
100
AcDb2dVertex
 10
600.3671875
 20
57.25
 30
0.0
  0
SEQEND
  5
3A6
330
3A3
100
AcDbEntity
  8
Ebene 1
370
     0
  0
POLYLINE
  5
3A7
330
3C
100
AcDbEntity
  8
Ebene 1
370
     0
100
AcDb2dPolyline
 66
     1
 10
0.0
 20
0.0
 30
0.0
  0
VERTEX
  5
3A8
330
3A7
100
AcDbEntity
  8
Ebene 1
370
     0
100
AcDbVertex
100
AcDb2dVertex
 10
600.3671875
 20
16.1767578125
 30
0.0
  0
VERTEX
  5
3A9
330
3A7
100
AcDbEntity
  8
Ebene 1
370
     0
100
AcDbVertex
100
AcDb2dVertex
 10
600.3671875
 20
9.69140625
 30
0.0
  0
SEQEND
  5
3AA
330
3A7
100
AcDbEntity
  8
Ebene 1
370
     0
  0
POLYLINE
  5
3AB
330
3C
100
AcDbEntity
  8
Ebene 1
370
     0
100
AcDb2dPolyline
 66
     1
 10
0.0
 20
0.0
 30
0.0
  0
VERTEX
  5
3AC
330
3AB
100
AcDbEntity
  8
Ebene 1
370
     0
100
AcDbVertex
100
AcDb2dVertex
 10
643.6025390625
 20
9.69140625
 30
0.0
  0
VERTEX
  5
3AD
330
3AB
100
AcDbEntity
  8
Ebene 1
370
     0
100
AcDbVertex
100
AcDb2dVertex
 10
643.6025390625
 20
16.1767578125
 30
0.0
  0
VERTEX
  5
3AE
330
3AB
100
AcDbEntity
  8
Ebene 1
370
     0
100
AcDbVertex
100
AcDb2dVertex
 10
600.3671875
 20
16.1767578125
 30
0.0
  0
SEQEND
  5
3AF
330
3AB
100
AcDbEntity
  8
Ebene 1
370
     0
  0
POLYLINE
  5
3B0
330
3C
100
AcDbEntity
  8
Ebene 1
370
     0
100
AcDb2dPolyline
 66
     1
 10
0.0
 20
0.0
 30
0.0
  0
VERTEX
  5
3B1
330
3B0
100
AcDbEntity
  8
Ebene 1
370
     0
100
AcDbVertex
100
AcDb2dVertex
 10
600.3671875
 20
9.69140625
 30
0.0
  0
VERTEX
  5
3B2
330
3B0
100
AcDbEntity
  8
Ebene 1
370
     0
100
AcDbVertex
100
AcDb2dVertex
 10
643.6025390625
 20
9.69140625
 30
0.0
  0
SEQEND
  5
3B3
330
3B0
100
AcDbEntity
  8
Ebene 1
370
     0
  0
POLYLINE
  5
3B4
330
3C
100
AcDbEntity
  8
Ebene 1
370
     0
100
AcDb2dPolyline
 66
     1
 10
0.0
 20
0.0
 30
0.0
  0
VERTEX
  5
3B5
330
3B4
100
AcDbEntity
  8
Ebene 1
370
     0
100
AcDbVertex
100
AcDb2dVertex
 10
589.55859375
 20
57.25
 30
0.0
  0
VERTEX
  5
3B6
330
3B4
100
AcDbEntity
  8
Ebene 1
370
     0
100
AcDbVertex
100
AcDb2dVertex
 10
589.55859375
 20
63.7353515625
 30
0.0
  0
SEQEND
  5
3B7
330
3B4
100
AcDbEntity
  8
Ebene 1
370
     0
  0
POLYLINE
  5
3B8
330
3C
100
AcDbEntity
  8
Ebene 1
370
     0
100
AcDb2dPolyline
 66
     1
 10
0.0
 20
0.0
 30
0.0
  0
VERTEX
  5
3B9
330
3B8
100
AcDbEntity
  8
Ebene 1
370
     0
100
AcDbVertex
100
AcDb2dVertex
 10
600.3671875
 20
57.25
 30
0.0
  0
VERTEX
  5
3BA
330
3B8
100
AcDbEntity
  8
Ebene 1
370
     0
100
AcDbVertex
100
AcDb2dVertex
 10
589.55859375
 20
57.25
 30
0.0
  0
SEQEND
  5
3BB
330
3B8
100
AcDbEntity
  8
Ebene 1
370
     0
  0
POLYLINE
  5
3BC
330
3C
100
AcDbEntity
  8
Ebene 1
370
     0
100
AcDb2dPolyline
 66
     1
 10
0.0
 20
0.0
 30
0.0
  0
VERTEX
  5
3BD
330
3BC
100
AcDbEntity
  8
Ebene 1
370
     0
100
AcDbVertex
100
AcDb2dVertex
 10
589.55859375
 20
9.69140625
 30
0.0
  0
VERTEX
  5
3BE
330
3BC
100
AcDbEntity
  8
Ebene 1
370
     0
100
AcDbVertex
100
AcDb2dVertex
 10
589.55859375
 20
16.1767578125
 30
0.0
  0
VERTEX
  5
3BF
330
3BC
100
AcDbEntity
  8
Ebene 1
370
     0
100
AcDbVertex
100
AcDb2dVertex
 10
600.3671875
 20
16.1767578125
 30
0.0
  0
SEQEND
  5
3C0
330
3BC
100
AcDbEntity
  8
Ebene 1
370
     0
  0
POLYLINE
  5
3C1
330
3C
100
AcDbEntity
  8
Ebene 1
370
     0
100
AcDb2dPolyline
 66
     1
 10
0.0
 20
0.0
 30
0.0
  0
VERTEX
  5
3C2
330
3C1
100
AcDbEntity
  8
Ebene 1
370
     0
100
AcDbVertex
100
AcDb2dVertex
 10
600.3671875
 20
9.69140625
 30
0.0
  0
VERTEX
  5
3C3
330
3C1
100
AcDbEntity
  8
Ebene 1
370
     0
100
AcDbVertex
100
AcDb2dVertex
 10
589.55859375
 20
9.69140625
 30
0.0
  0
SEQEND
  5
3C4
330
3C1
100
AcDbEntity
  8
Ebene 1
370
     0
  0
POLYLINE
  5
3C5
330
3C
100
AcDbEntity
  8
Ebene 1
370
     0
100
AcDb2dPolyline
 66
     1
 10
0.0
 20
0.0
 30
0.0
  0
VERTEX
  5
3C6
330
3C5
100
AcDbEntity
  8
Ebene 1
370
     0
100
AcDbVertex
100
AcDb2dVertex
 10
589.55859375
 20
16.1767578125
 30
0.0
  0
VERTEX
  5
3C7
330
3C5
100
AcDbEntity
  8
Ebene 1
370
     0
100
AcDbVertex
100
AcDb2dVertex
 10
589.55859375
 20
17.2353515625
 30
0.0
  0
SEQEND
  5
3C8
330
3C5
100
AcDbEntity
  8
Ebene 1
370
     0
  0
POLYLINE
  5
3C9
330
3C
100
AcDbEntity
  8
Ebene 1
370
     0
100
AcDb2dPolyline
 66
     1
 10
0.0
 20
0.0
 30
0.0
  0
VERTEX
  5
3CA
330
3C9
100
AcDbEntity
  8
Ebene 1
370
     0
100
AcDbVertex
100
AcDb2dVertex
 10
589.55859375
 20
56.19140625
 30
0.0
  0
VERTEX
  5
3CB
330
3C9
100
AcDbEntity
  8
Ebene 1
370
     0
100
AcDbVertex
100
AcDb2dVertex
 10
589.55859375
 20
57.25
 30
0.0
  0
SEQEND
  5
3CC
330
3C9
100
AcDbEntity
  8
Ebene 1
370
     0
  0
POLYLINE
  5
3CD
330
3C
100
AcDbEntity
  8
Ebene 1
370
     0
100
AcDb2dPolyline
 66
     1
 10
0.0
 20
0.0
 30
0.0
  0
VERTEX
  5
3CE
330
3CD
100
AcDbEntity
  8
Ebene 1
370
     0
100
AcDbVertex
100
AcDb2dVertex
 10
643.912109375
 20
45.162109375
 30
0.0
  0
VERTEX
  5
3CF
330
3CD
100
AcDbEntity
  8
Ebene 1
370
     0
100
AcDbVertex
100
AcDb2dVertex
 10
635.970703125
 20
45.162109375
 30
0.0
  0
VERTEX
  5
3D0
330
3CD
100
AcDbEntity
  8
Ebene 1
370
     0
100
AcDbVertex
100
AcDb2dVertex
 10
633.2353515625
 20
45.162109375
 30
0.0
  0
VERTEX
  5
3D1
330
3CD
100
AcDbEntity
  8
Ebene 1
370
     0
100
AcDbVertex
100
AcDb2dVertex
 10
632.44140625
 20
45.162109375
 30
0.0
  0
VERTEX
  5
3D2
330
3CD
100
AcDbEntity
  8
Ebene 1
370
     0
100
AcDbVertex
100
AcDb2dVertex
 10
632.3974609375
 20
45.162109375
 30
0.0
  0
SEQEND
  5
3D3
330
3CD
100
AcDbEntity
  8
Ebene 1
370
     0
  0
POLYLINE
  5
3D4
330
3C
100
AcDbEntity
  8
Ebene 1
370
     0
100
AcDb2dPolyline
 66
     1
 10
0.0
 20
0.0
 30
0.0
  0
VERTEX
  5
3D5
330
3D4
100
AcDbEntity
  8
Ebene 1
370
     0
100
AcDbVertex
100
AcDb2dVertex
 10
632.3974609375
 20
36.8232421875
 30
0.0
  0
VERTEX
  5
3D6
330
3D4
100
AcDbEntity
  8
Ebene 1
370
     0
100
AcDbVertex
100
AcDb2dVertex
 10
632.44140625
 20
36.8232421875
 30
0.0
  0
VERTEX
  5
3D7
330
3D4
100
AcDbEntity
  8
Ebene 1
370
     0
100
AcDbVertex
100
AcDb2dVertex
 10
633.1474609375
 20
36.8232421875
 30
0.0
  0
VERTEX
  5
3D8
330
3D4
100
AcDbEntity
  8
Ebene 1
370
     0
100
AcDbVertex
100
AcDb2dVertex
 10
635.7060546875
 20
36.8232421875
 30
0.0
  0
VERTEX
  5
3D9
330
3D4
100
AcDbEntity
  8
Ebene 1
370
     0
100
AcDbVertex
100
AcDb2dVertex
 10
643.2939453125
 20
36.8232421875
 30
0.0
  0
SEQEND
  5
3DA
330
3D4
100
AcDbEntity
  8
Ebene 1
370
     0
  0
POLYLINE
  5
3DB
330
3C
100
AcDbEntity
  8
Ebene 1
370
     0
100
AcDb2dPolyline
 66
     1
 10
0.0
 20
0.0
 30
0.0
  0
VERTEX
  5
3DC
330
3DB
100
AcDbEntity
  8
Ebene 1
370
     0
100
AcDbVertex
100
AcDb2dVertex
 10
643.2939453125
 20
36.6025390625
 30
0.0
  0
VERTEX
  5
3DD
330
3DB
100
AcDbEntity
  8
Ebene 1
370
     0
100
AcDbVertex
100
AcDb2dVertex
 10
635.7060546875
 20
36.6025390625
 30
0.0
  0
VERTEX
  5
3DE
330
3DB
100
AcDbEntity
  8
Ebene 1
370
     0
100
AcDbVertex
100
AcDb2dVertex
 10
633.1474609375
 20
36.6025390625
 30
0.0
  0
VERTEX
  5
3DF
330
3DB
100
AcDbEntity
  8
Ebene 1
370
     0
100
AcDbVertex
100
AcDb2dVertex
 10
632.44140625
 20
36.6025390625
 30
0.0
  0
VERTEX
  5
3E0
330
3DB
100
AcDbEntity
  8
Ebene 1
370
     0
100
AcDbVertex
100
AcDb2dVertex
 10
632.3974609375
 20
36.6025390625
 30
0.0
  0
SEQEND
  5
3E1
330
3DB
100
AcDbEntity
  8
Ebene 1
370
     0
  0
POLYLINE
  5
3E2
330
3C
100
AcDbEntity
  8
Ebene 1
370
     0
100
AcDb2dPolyline
 66
     1
 10
0.0
 20
0.0
 30
0.0
  0
VERTEX
  5
3E3
330
3E2
100
AcDbEntity
  8
Ebene 1
370
     0
100
AcDbVertex
100
AcDb2dVertex
 10
632.3974609375
 20
28.2646484375
 30
0.0
  0
VERTEX
  5
3E4
330
3E2
100
AcDbEntity
  8
Ebene 1
370
     0
100
AcDbVertex
100
AcDb2dVertex
 10
632.529296875
 20
28.2646484375
 30
0.0
  0
VERTEX
  5
3E5
330
3E2
100
AcDbEntity
  8
Ebene 1
370
     0
100
AcDbVertex
100
AcDb2dVertex
 10
633.5
 20
28.2646484375
 30
0.0
  0
VERTEX
  5
3E6
330
3E2
100
AcDbEntity
  8
Ebene 1
370
     0
100
AcDbVertex
100
AcDb2dVertex
 10
634.9560546875
 20
28.2646484375
 30
0.0
  0
VERTEX
  5
3E7
330
3E2
100
AcDbEntity
  8
Ebene 1
370
     0
100
AcDbVertex
100
AcDb2dVertex
 10
636.8525390625
 20
28.2646484375
 30
0.0
  0
VERTEX
  5
3E8
330
3E2
100
AcDbEntity
  8
Ebene 1
370
     0
100
AcDbVertex
100
AcDb2dVertex
 10
641.3974609375
 20
28.2646484375
 30
0.0
  0
VERTEX
  5
3E9
330
3E2
100
AcDbEntity
  8
Ebene 1
370
     0
100
AcDbVertex
100
AcDb2dVertex
 10
645.80859375
 20
28.2646484375
 30
0.0
  0
SEQEND
  5
3EA
330
3E2
100
AcDbEntity
  8
Ebene 1
370
     0
  0
POLYLINE
  5
3EB
330
3C
100
AcDbEntity
  8
Ebene 1
370
     0
100
AcDb2dPolyline
 66
     1
 10
0.0
 20
0.0
 30
0.0
  0
VERTEX
  5
3EC
330
3EB
100
AcDbEntity
  8
Ebene 1
370
     0
100
AcDbVertex
100
AcDb2dVertex
 10
636.7646484375
 20
18.779296875
 30
0.0
  0
VERTEX
  5
3ED
330
3EB
100
AcDbEntity
  8
Ebene 1
370
     0
100
AcDbVertex
100
AcDb2dVertex
 10
637.912109375
 20
18.5146484375
 30
0.0
  0
VERTEX
  5
3EE
330
3EB
100
AcDbEntity
  8
Ebene 1
370
     0
100
AcDbVertex
100
AcDb2dVertex
 10
639.6328125
 20
18.470703125
 30
0.0
  0
VERTEX
  5
3EF
330
3EB
100
AcDbEntity
  8
Ebene 1
370
     0
100
AcDbVertex
100
AcDb2dVertex
 10
643.3828125
 20
18.779296875
 30
0.0
  0
SEQEND
  5
3F0
330
3EB
100
AcDbEntity
  8
Ebene 1
370
     0
  0
POLYLINE
  5
3F1
330
3C
100
AcDbEntity
  8
Ebene 1
370
     0
100
AcDb2dPolyline
 66
     1
 10
0.0
 20
0.0
 30
0.0
  0
VERTEX
  5
3F2
330
3F1
100
AcDbEntity
  8
Ebene 1
370
     0
100
AcDbVertex
100
AcDb2dVertex
 10
636.7646484375
 20
18.779296875
 30
0.0
  0
VERTEX
  5
3F3
330
3F1
100
AcDbEntity
  8
Ebene 1
370
     0
100
AcDbVertex
100
AcDb2dVertex
 10
636.80859375
 20
18.912109375
 30
0.0
  0
SEQEND
  5
3F4
330
3F1
100
AcDbEntity
  8
Ebene 1
370
     0
  0
POLYLINE
  5
3F5
330
3C
100
AcDbEntity
  8
Ebene 1
370
     0
100
AcDb2dPolyline
 66
     1
 10
0.0
 20
0.0
 30
0.0
  0
VERTEX
  5
3F6
330
3F5
100
AcDbEntity
  8
Ebene 1
370
     0
100
AcDbVertex
100
AcDb2dVertex
 10
643.337890625
 20
18.912109375
 30
0.0
  0
VERTEX
  5
3F7
330
3F5
100
AcDbEntity
  8
Ebene 1
370
     0
100
AcDbVertex
100
AcDb2dVertex
 10
639.6767578125
 20
18.8232421875
 30
0.0
  0
VERTEX
  5
3F8
330
3F5
100
AcDbEntity
  8
Ebene 1
370
     0
100
AcDbVertex
100
AcDb2dVertex
 10
638.0
 20
18.8232421875
 30
0.0
  0
VERTEX
  5
3F9
330
3F5
100
AcDbEntity
  8
Ebene 1
370
     0
100
AcDbVertex
100
AcDb2dVertex
 10
636.80859375
 20
18.912109375
 30
0.0
  0
SEQEND
  5
3FA
330
3F5
100
AcDbEntity
  8
Ebene 1
370
     0
  0
POLYLINE
  5
3FB
330
3C
100
AcDbEntity
  8
Ebene 1
370
     0
100
AcDb2dPolyline
 66
     1
 10
0.0
 20
0.0
 30
0.0
  0
VERTEX
  5
3FC
330
3FB
100
AcDbEntity
  8
Ebene 1
370
     0
100
AcDbVertex
100
AcDb2dVertex
 10
643.337890625
 20
18.912109375
 30
0.0
  0
VERTEX
  5
3FD
330
3FB
100
AcDbEntity
  8
Ebene 1
370
     0
100
AcDbVertex
100
AcDb2dVertex
 10
643.3828125
 20
18.779296875
 30
0.0
  0
SEQEND
  5
3FE
330
3FB
100
AcDbEntity
  8
Ebene 1
370
     0
  0
POLYLINE
  5
3FF
330
3C
100
AcDbEntity
  8
Ebene 1
370
     0
100
AcDb2dPolyline
 66
     1
 10
0.0
 20
0.0
 30
0.0
  0
VERTEX
  5
400
330
3FF
100
AcDbEntity
  8
Ebene 1
370
     0
100
AcDbVertex
100
AcDb2dVertex
 10
637.2939453125
 20
16.5732421875
 30
0.0
  0
VERTEX
  5
401
330
3FF
100
AcDbEntity
  8
Ebene 1
370
     0
100
AcDbVertex
100
AcDb2dVertex
 10
638.2646484375
 20
16.970703125
 30
0.0
  0
VERTEX
  5
402
330
3FF
100
AcDbEntity
  8
Ebene 1
370
     0
100
AcDbVertex
100
AcDb2dVertex
 10
639.7646484375
 20
17.1025390625
 30
0.0
  0
VERTEX
  5
403
330
3FF
100
AcDbEntity
  8
Ebene 1
370
     0
100
AcDbVertex
100
AcDb2dVertex
 10
642.94140625
 20
16.5732421875
 30
0.0
  0
SEQEND
  5
404
330
3FF
100
AcDbEntity
  8
Ebene 1
370
     0
  0
POLYLINE
  5
405
330
3C
100
AcDbEntity
  8
Ebene 1
370
     0
100
AcDb2dPolyline
 66
     1
 10
0.0
 20
0.0
 30
0.0
  0
VERTEX
  5
406
330
405
100
AcDbEntity
  8
Ebene 1
370
     0
100
AcDbVertex
100
AcDb2dVertex
 10
636.7646484375
 20
17.19140625
 30
0.0
  0
VERTEX
  5
407
330
405
100
AcDbEntity
  8
Ebene 1
370
     0
100
AcDbVertex
100
AcDb2dVertex
 10
636.8525390625
 20
16.9267578125
 30
0.0
  0
VERTEX
  5
408
330
405
100
AcDbEntity
  8
Ebene 1
370
     0
100
AcDbVertex
100
AcDb2dVertex
 10
637.029296875
 20
16.7060546875
 30
0.0
  0
VERTEX
  5
409
330
405
100
AcDbEntity
  8
Ebene 1
370
     0
100
AcDbVertex
100
AcDb2dVertex
 10
637.2939453125
 20
16.5732421875
 30
0.0
  0
SEQEND
  5
40A
330
405
100
AcDbEntity
  8
Ebene 1
370
     0
  0
POLYLINE
  5
40B
330
3C
100
AcDbEntity
  8
Ebene 1
370
     0
100
AcDb2dPolyline
 66
     1
 10
0.0
 20
0.0
 30
0.0
  0
VERTEX
  5
40C
330
40B
100
AcDbEntity
  8
Ebene 1
370
     0
100
AcDbVertex
100
AcDb2dVertex
 10
636.7646484375
 20
17.19140625
 30
0.0
  0
VERTEX
  5
40D
330
40B
100
AcDbEntity
  8
Ebene 1
370
     0
100
AcDbVertex
100
AcDb2dVertex
 10
637.912109375
 20
17.587890625
 30
0.0
  0
VERTEX
  5
40E
330
40B
100
AcDbEntity
  8
Ebene 1
370
     0
100
AcDbVertex
100
AcDb2dVertex
 10
639.6328125
 20
17.720703125
 30
0.0
  0
VERTEX
  5
40F
330
40B
100
AcDbEntity
  8
Ebene 1
370
     0
100
AcDbVertex
100
AcDb2dVertex
 10
643.3828125
 20
17.19140625
 30
0.0
  0
SEQEND
  5
410
330
40B
100
AcDbEntity
  8
Ebene 1
370
     0
  0
POLYLINE
  5
411
330
3C
100
AcDbEntity
  8
Ebene 1
370
     0
100
AcDb2dPolyline
 66
     1
 10
0.0
 20
0.0
 30
0.0
  0
VERTEX
  5
412
330
411
100
AcDbEntity
  8
Ebene 1
370
     0
100
AcDbVertex
100
AcDb2dVertex
 10
642.8974609375
 20
16.6171875
 30
0.0
  0
VERTEX
  5
413
330
411
100
AcDbEntity
  8
Ebene 1
370
     0
100
AcDbVertex
100
AcDb2dVertex
 10
643.2060546875
 20
16.837890625
 30
0.0
  0
VERTEX
  5
414
330
411
100
AcDbEntity
  8
Ebene 1
370
     0
100
AcDbVertex
100
AcDb2dVertex
 10
643.337890625
 20
17.19140625
 30
0.0
  0
SEQEND
  5
415
330
411
100
AcDbEntity
  8
Ebene 1
370
     0
  0
POLYLINE
  5
416
330
3C
100
AcDbEntity
  8
Ebene 1
370
     0
100
AcDb2dPolyline
 66
     1
 10
0.0
 20
0.0
 30
0.0
  0
VERTEX
  5
417
330
416
100
AcDbEntity
  8
Ebene 1
370
     0
100
AcDbVertex
100
AcDb2dVertex
 10
-145.0
 20
-1043.1328125
 30
0.0
  0
VERTEX
  5
418
330
416
100
AcDbEntity
  8
Ebene 1
370
     0
100
AcDbVertex
100
AcDb2dVertex
 10
-145.0
 20
-1043.1328125
 30
0.0
  0
SEQEND
  5
419
330
416
100
AcDbEntity
  8
Ebene 1
370
     0
  0
POLYLINE
  5
41A
330
3C
100
AcDbEntity
  8
Ebene 1
370
     0
100
AcDb2dPolyline
 66
     1
 10
0.0
 20
0.0
 30
0.0
  0
VERTEX
  5
41B
330
41A
100
AcDbEntity
  8
Ebene 1
370
     0
100
AcDbVertex
100
AcDb2dVertex
 10
-145.0
 20
-1043.1328125
 30
0.0
  0
VERTEX
  5
41C
330
41A
100
AcDbEntity
  8
Ebene 1
370
     0
100
AcDbVertex
100
AcDb2dVertex
 10
-145.0
 20
-1043.1328125
 30
0.0
  0
SEQEND
  5
41D
330
41A
100
AcDbEntity
  8
Ebene 1
370
     0
  0
POLYLINE
  5
41E
330
3C
100
AcDbEntity
  8
Ebene 1
370
     0
100
AcDb2dPolyline
 66
     1
 10
0.0
 20
0.0
 30
0.0
  0
VERTEX
  5
41F
330
41E
100
AcDbEntity
  8
Ebene 1
370
     0
100
AcDbVertex
100
AcDb2dVertex
 10
643.7353515625
 20
17.05859375
 30
0.0
  0
VERTEX
  5
420
330
41E
100
AcDbEntity
  8
Ebene 1
370
     0
100
AcDbVertex
100
AcDb2dVertex
 10
643.912109375
 20
17.05859375
 30
0.0
  0
SEQEND
  5
421
330
41E
100
AcDbEntity
  8
Ebene 1
370
     0
  0
POLYLINE
  5
422
330
3C
100
AcDbEntity
  8
Ebene 1
370
     0
100
AcDb2dPolyline
 66
     1
 10
0.0
 20
0.0
 30
0.0
  0
VERTEX
  5
423
330
422
100
AcDbEntity
  8
Ebene 1
370
     0
100
AcDbVertex
100
AcDb2dVertex
 10
643.7353515625
 20
19.0
 30
0.0
  0
VERTEX
  5
424
330
422
100
AcDbEntity
  8
Ebene 1
370
     0
100
AcDbVertex
100
AcDb2dVertex
 10
643.7353515625
 20
17.05859375
 30
0.0
  0
SEQEND
  5
425
330
422
100
AcDbEntity
  8
Ebene 1
370
     0
  0
POLYLINE
  5
426
330
3C
100
AcDbEntity
  8
Ebene 1
370
     0
100
AcDb2dPolyline
 66
     1
 10
0.0
 20
0.0
 30
0.0
  0
VERTEX
  5
427
330
426
100
AcDbEntity
  8
Ebene 1
370
     0
100
AcDbVertex
100
AcDb2dVertex
 10
636.587890625
 20
19.0
 30
0.0
  0
VERTEX
  5
428
330
426
100
AcDbEntity
  8
Ebene 1
370
     0
100
AcDbVertex
100
AcDb2dVertex
 10
643.7353515625
 20
19.0
 30
0.0
  0
SEQEND
  5
429
330
426
100
AcDbEntity
  8
Ebene 1
370
     0
  0
POLYLINE
  5
42A
330
3C
100
AcDbEntity
  8
Ebene 1
370
     0
100
AcDb2dPolyline
 66
     1
 10
0.0
 20
0.0
 30
0.0
  0
VERTEX
  5
42B
330
42A
100
AcDbEntity
  8
Ebene 1
370
     0
100
AcDbVertex
100
AcDb2dVertex
 10
636.587890625
 20
17.05859375
 30
0.0
  0
VERTEX
  5
42C
330
42A
100
AcDbEntity
  8
Ebene 1
370
     0
100
AcDbVertex
100
AcDb2dVertex
 10
636.587890625
 20
19.0
 30
0.0
  0
SEQEND
  5
42D
330
42A
100
AcDbEntity
  8
Ebene 1
370
     0
  0
POLYLINE
  5
42E
330
3C
100
AcDbEntity
  8
Ebene 1
370
     0
100
AcDb2dPolyline
 66
     1
 10
0.0
 20
0.0
 30
0.0
  0
VERTEX
  5
42F
330
42E
100
AcDbEntity
  8
Ebene 1
370
     0
100
AcDbVertex
100
AcDb2dVertex
 10
636.5
 20
17.05859375
 30
0.0
  0
VERTEX
  5
430
330
42E
100
AcDbEntity
  8
Ebene 1
370
     0
100
AcDbVertex
100
AcDb2dVertex
 10
636.587890625
 20
17.05859375
 30
0.0
  0
SEQEND
  5
431
330
42E
100
AcDbEntity
  8
Ebene 1
370
     0
  0
POLYLINE
  5
432
330
3C
100
AcDbEntity
  8
Ebene 1
370
     0
100
AcDb2dPolyline
 66
     1
 10
0.0
 20
0.0
 30
0.0
  0
VERTEX
  5
433
330
432
100
AcDbEntity
  8
Ebene 1
370
     0
100
AcDbVertex
100
AcDb2dVertex
 10
643.3828125
 20
17.19140625
 30
0.0
  0
VERTEX
  5
434
330
432
100
AcDbEntity
  8
Ebene 1
370
     0
100
AcDbVertex
100
AcDb2dVertex
 10
643.3828125
 20
18.779296875
 30
0.0
  0
SEQEND
  5
435
330
432
100
AcDbEntity
  8
Ebene 1
370
     0
  0
POLYLINE
  5
436
330
3C
100
AcDbEntity
  8
Ebene 1
370
     0
100
AcDb2dPolyline
 66
     1
 10
0.0
 20
0.0
 30
0.0
  0
VERTEX
  5
437
330
436
100
AcDbEntity
  8
Ebene 1
370
     0
100
AcDbVertex
100
AcDb2dVertex
 10
636.7646484375
 20
18.779296875
 30
0.0
  0
VERTEX
  5
438
330
436
100
AcDbEntity
  8
Ebene 1
370
     0
100
AcDbVertex
100
AcDb2dVertex
 10
636.7646484375
 20
17.19140625
 30
0.0
  0
SEQEND
  5
439
330
436
100
AcDbEntity
  8
Ebene 1
370
     0
  0
POLYLINE
  5
43A
330
3C
100
AcDbEntity
  8
Ebene 1
370
     0
100
AcDb2dPolyline
 66
     1
 10
0.0
 20
0.0
 30
0.0
  0
VERTEX
  5
43B
330
43A
100
AcDbEntity
  8
Ebene 1
370
     0
100
AcDbVertex
100
AcDb2dVertex
 10
643.7353515625
 20
19.0
 30
0.0
  0
VERTEX
  5
43C
330
43A
100
AcDbEntity
  8
Ebene 1
370
     0
100
AcDbVertex
100
AcDb2dVertex
 10
643.337890625
 20
18.912109375
 30
0.0
  0
SEQEND
  5
43D
330
43A
100
AcDbEntity
  8
Ebene 1
370
     0
  0
POLYLINE
  5
43E
330
3C
100
AcDbEntity
  8
Ebene 1
370
     0
100
AcDb2dPolyline
 66
     1
 10
0.0
 20
0.0
 30
0.0
  0
VERTEX
  5
43F
330
43E
100
AcDbEntity
  8
Ebene 1
370
     0
100
AcDbVertex
100
AcDb2dVertex
 10
636.80859375
 20
18.912109375
 30
0.0
  0
VERTEX
  5
440
330
43E
100
AcDbEntity
  8
Ebene 1
370
     0
100
AcDbVertex
100
AcDb2dVertex
 10
636.587890625
 20
19.0
 30
0.0
  0
SEQEND
  5
441
330
43E
100
AcDbEntity
  8
Ebene 1
370
     0
  0
POLYLINE
  5
442
330
3C
100
AcDbEntity
  8
Ebene 1
370
     0
100
AcDb2dPolyline
 66
     1
 10
0.0
 20
0.0
 30
0.0
  0
VERTEX
  5
443
330
442
100
AcDbEntity
  8
Ebene 1
370
     0
100
AcDbVertex
100
AcDb2dVertex
 10
642.94140625
 20
16.5732421875
 30
0.0
  0
VERTEX
  5
444
330
442
100
AcDbEntity
  8
Ebene 1
370
     0
100
AcDbVertex
100
AcDb2dVertex
 10
643.2939453125
 20
16.44140625
 30
0.0
  0
VERTEX
  5
445
330
442
100
AcDbEntity
  8
Ebene 1
370
     0
100
AcDbVertex
100
AcDb2dVertex
 10
637.1171875
 20
16.44140625
 30
0.0
  0
VERTEX
  5
446
330
442
100
AcDbEntity
  8
Ebene 1
370
     0
100
AcDbVertex
100
AcDb2dVertex
 10
637.2939453125
 20
16.5732421875
 30
0.0
  0
SEQEND
  5
447
330
442
100
AcDbEntity
  8
Ebene 1
370
     0
  0
POLYLINE
  5
448
330
3C
100
AcDbEntity
  8
Ebene 1
370
     0
100
AcDb2dPolyline
 66
     1
 10
0.0
 20
0.0
 30
0.0
  0
VERTEX
  5
449
330
448
100
AcDbEntity
  8
Ebene 1
370
     0
100
AcDbVertex
100
AcDb2dVertex
 10
643.7353515625
 20
17.05859375
 30
0.0
  0
VERTEX
  5
44A
330
448
100
AcDbEntity
  8
Ebene 1
370
     0
100
AcDbVertex
100
AcDb2dVertex
 10
643.3828125
 20
17.19140625
 30
0.0
  0
SEQEND
  5
44B
330
448
100
AcDbEntity
  8
Ebene 1
370
     0
  0
POLYLINE
  5
44C
330
3C
100
AcDbEntity
  8
Ebene 1
370
     0
100
AcDb2dPolyline
 66
     1
 10
0.0
 20
0.0
 30
0.0
  0
VERTEX
  5
44D
330
44C
100
AcDbEntity
  8
Ebene 1
370
     0
100
AcDbVertex
100
AcDb2dVertex
 10
643.2939453125
 20
16.44140625
 30
0.0
  0
VERTEX
  5
44E
330
44C
100
AcDbEntity
  8
Ebene 1
370
     0
100
AcDbVertex
100
AcDb2dVertex
 10
643.6025390625
 20
16.7060546875
 30
0.0
  0
VERTEX
  5
44F
330
44C
100
AcDbEntity
  8
Ebene 1
370
     0
100
AcDbVertex
100
AcDb2dVertex
 10
643.7353515625
 20
17.05859375
 30
0.0
  0
SEQEND
  5
450
330
44C
100
AcDbEntity
  8
Ebene 1
370
     0
  0
POLYLINE
  5
451
330
3C
100
AcDbEntity
  8
Ebene 1
370
     0
100
AcDb2dPolyline
 66
     1
 10
0.0
 20
0.0
 30
0.0
  0
VERTEX
  5
452
330
451
100
AcDbEntity
  8
Ebene 1
370
     0
100
AcDbVertex
100
AcDb2dVertex
 10
643.3828125
 20
18.779296875
 30
0.0
  0
VERTEX
  5
453
330
451
100
AcDbEntity
  8
Ebene 1
370
     0
100
AcDbVertex
100
AcDb2dVertex
 10
643.7353515625
 20
19.0
 30
0.0
  0
SEQEND
  5
454
330
451
100
AcDbEntity
  8
Ebene 1
370
     0
  0
POLYLINE
  5
455
330
3C
100
AcDbEntity
  8
Ebene 1
370
     0
100
AcDb2dPolyline
 66
     1
 10
0.0
 20
0.0
 30
0.0
  0
VERTEX
  5
456
330
455
100
AcDbEntity
  8
Ebene 1
370
     0
100
AcDbVertex
100
AcDb2dVertex
 10
643.5146484375
 20
16.3974609375
 30
0.0
  0
VERTEX
  5
457
330
455
100
AcDbEntity
  8
Ebene 1
370
     0
100
AcDbVertex
100
AcDb2dVertex
 10
643.2939453125
 20
16.44140625
 30
0.0
  0
SEQEND
  5
458
330
455
100
AcDbEntity
  8
Ebene 1
370
     0
  0
POLYLINE
  5
459
330
3C
100
AcDbEntity
  8
Ebene 1
370
     0
100
AcDb2dPolyline
 66
     1
 10
0.0
 20
0.0
 30
0.0
  0
VERTEX
  5
45A
330
459
100
AcDbEntity
  8
Ebene 1
370
     0
100
AcDbVertex
100
AcDb2dVertex
 10
643.25
 20
16.4853515625
 30
0.0
  0
VERTEX
  5
45B
330
459
100
AcDbEntity
  8
Ebene 1
370
     0
100
AcDbVertex
100
AcDb2dVertex
 10
643.55859375
 20
16.75
 30
0.0
  0
VERTEX
  5
45C
330
459
100
AcDbEntity
  8
Ebene 1
370
     0
100
AcDbVertex
100
AcDb2dVertex
 10
643.69140625
 20
17.05859375
 30
0.0
  0
SEQEND
  5
45D
330
459
100
AcDbEntity
  8
Ebene 1
370
     0
  0
POLYLINE
  5
45E
330
3C
100
AcDbEntity
  8
Ebene 1
370
     0
100
AcDb2dPolyline
 66
     1
 10
0.0
 20
0.0
 30
0.0
  0
VERTEX
  5
45F
330
45E
100
AcDbEntity
  8
Ebene 1
370
     0
100
AcDbVertex
100
AcDb2dVertex
 10
643.912109375
 20
17.05859375
 30
0.0
  0
VERTEX
  5
460
330
45E
100
AcDbEntity
  8
Ebene 1
370
     0
100
AcDbVertex
100
AcDb2dVertex
 10
643.912109375
 20
16.9267578125
 30
0.0
  0
VERTEX
  5
461
330
45E
100
AcDbEntity
  8
Ebene 1
370
     0
100
AcDbVertex
100
AcDb2dVertex
 10
643.8671875
 20
16.7939453125
 30
0.0
  0
VERTEX
  5
462
330
45E
100
AcDbEntity
  8
Ebene 1
370
     0
100
AcDbVertex
100
AcDb2dVertex
 10
643.8671875
 20
16.662109375
 30
0.0
  0
VERTEX
  5
463
330
45E
100
AcDbEntity
  8
Ebene 1
370
     0
100
AcDbVertex
100
AcDb2dVertex
 10
643.779296875
 20
16.5732421875
 30
0.0
  0
VERTEX
  5
464
330
45E
100
AcDbEntity
  8
Ebene 1
370
     0
100
AcDbVertex
100
AcDb2dVertex
 10
643.7353515625
 20
16.4853515625
 30
0.0
  0
VERTEX
  5
465
330
45E
100
AcDbEntity
  8
Ebene 1
370
     0
100
AcDbVertex
100
AcDb2dVertex
 10
643.69140625
 20
16.44140625
 30
0.0
  0
VERTEX
  5
466
330
45E
100
AcDbEntity
  8
Ebene 1
370
     0
100
AcDbVertex
100
AcDb2dVertex
 10
643.6025390625
 20
16.3974609375
 30
0.0
  0
VERTEX
  5
467
330
45E
100
AcDbEntity
  8
Ebene 1
370
     0
100
AcDbVertex
100
AcDb2dVertex
 10
643.5146484375
 20
16.3974609375
 30
0.0
  0
SEQEND
  5
468
330
45E
100
AcDbEntity
  8
Ebene 1
370
     0
  0
POLYLINE
  5
469
330
3C
100
AcDbEntity
  8
Ebene 1
370
     0
100
AcDb2dPolyline
 66
     1
 10
0.0
 20
0.0
 30
0.0
  0
VERTEX
  5
46A
330
469
100
AcDbEntity
  8
Ebene 1
370
     0
100
AcDbVertex
100
AcDb2dVertex
 10
643.5146484375
 20
16.3974609375
 30
0.0
  0
VERTEX
  5
46B
330
469
100
AcDbEntity
  8
Ebene 1
370
     0
100
AcDbVertex
100
AcDb2dVertex
 10
644.7060546875
 20
16.3974609375
 30
0.0
  0
SEQEND
  5
46C
330
469
100
AcDbEntity
  8
Ebene 1
370
     0
  0
POLYLINE
  5
46D
330
3C
100
AcDbEntity
  8
Ebene 1
370
     0
100
AcDb2dPolyline
 66
     1
 10
0.0
 20
0.0
 30
0.0
  0
VERTEX
  5
46E
330
46D
100
AcDbEntity
  8
Ebene 1
370
     0
100
AcDbVertex
100
AcDb2dVertex
 10
637.1171875
 20
16.44140625
 30
0.0
  0
VERTEX
  5
46F
330
46D
100
AcDbEntity
  8
Ebene 1
370
     0
100
AcDbVertex
100
AcDb2dVertex
 10
637.1171875
 20
16.3974609375
 30
0.0
  0
VERTEX
  5
470
330
46D
100
AcDbEntity
  8
Ebene 1
370
     0
100
AcDbVertex
100
AcDb2dVertex
 10
643.5146484375
 20
16.3974609375
 30
0.0
  0
SEQEND
  5
471
330
46D
100
AcDbEntity
  8
Ebene 1
370
     0
  0
POLYLINE
  5
472
330
3C
100
AcDbEntity
  8
Ebene 1
370
     0
100
AcDb2dPolyline
 66
     1
 10
0.0
 20
0.0
 30
0.0
  0
VERTEX
  5
473
330
472
100
AcDbEntity
  8
Ebene 1
370
     0
100
AcDbVertex
100
AcDb2dVertex
 10
636.587890625
 20
17.05859375
 30
0.0
  0
VERTEX
  5
474
330
472
100
AcDbEntity
  8
Ebene 1
370
     0
100
AcDbVertex
100
AcDb2dVertex
 10
636.6767578125
 20
16.7939453125
 30
0.0
  0
VERTEX
  5
475
330
472
100
AcDbEntity
  8
Ebene 1
370
     0
100
AcDbVertex
100
AcDb2dVertex
 10
636.8525390625
 20
16.5732421875
 30
0.0
  0
VERTEX
  5
476
330
472
100
AcDbEntity
  8
Ebene 1
370
     0
100
AcDbVertex
100
AcDb2dVertex
 10
637.1171875
 20
16.4853515625
 30
0.0
  0
SEQEND
  5
477
330
472
100
AcDbEntity
  8
Ebene 1
370
     0
  0
POLYLINE
  5
478
330
3C
100
AcDbEntity
  8
Ebene 1
370
     0
100
AcDb2dPolyline
 66
     1
 10
0.0
 20
0.0
 30
0.0
  0
VERTEX
  5
479
330
478
100
AcDbEntity
  8
Ebene 1
370
     0
100
AcDbVertex
100
AcDb2dVertex
 10
636.7646484375
 20
17.19140625
 30
0.0
  0
VERTEX
  5
47A
330
478
100
AcDbEntity
  8
Ebene 1
370
     0
100
AcDbVertex
100
AcDb2dVertex
 10
636.587890625
 20
17.05859375
 30
0.0
  0
SEQEND
  5
47B
330
478
100
AcDbEntity
  8
Ebene 1
370
     0
  0
POLYLINE
  5
47C
330
3C
100
AcDbEntity
  8
Ebene 1
370
     0
100
AcDb2dPolyline
 66
     1
 10
0.0
 20
0.0
 30
0.0
  0
VERTEX
  5
47D
330
47C
100
AcDbEntity
  8
Ebene 1
370
     0
100
AcDbVertex
100
AcDb2dVertex
 10
636.587890625
 20
19.0
 30
0.0
  0
VERTEX
  5
47E
330
47C
100
AcDbEntity
  8
Ebene 1
370
     0
100
AcDbVertex
100
AcDb2dVertex
 10
636.7646484375
 20
18.779296875
 30
0.0
  0
SEQEND
  5
47F
330
47C
100
AcDbEntity
  8
Ebene 1
370
     0
  0
POLYLINE
  5
480
330
3C
100
AcDbEntity
  8
Ebene 1
370
     0
100
AcDb2dPolyline
 66
     1
 10
0.0
 20
0.0
 30
0.0
  0
VERTEX
  5
481
330
480
100
AcDbEntity
  8
Ebene 1
370
     0
100
AcDbVertex
100
AcDb2dVertex
 10
636.5
 20
17.05859375
 30
0.0
  0
VERTEX
  5
482
330
480
100
AcDbEntity
  8
Ebene 1
370
     0
100
AcDbVertex
100
AcDb2dVertex
 10
636.587890625
 20
16.7060546875
 30
0.0
  0
VERTEX
  5
483
330
480
100
AcDbEntity
  8
Ebene 1
370
     0
100
AcDbVertex
100
AcDb2dVertex
 10
636.80859375
 20
16.4853515625
 30
0.0
  0
VERTEX
  5
484
330
480
100
AcDbEntity
  8
Ebene 1
370
     0
100
AcDbVertex
100
AcDb2dVertex
 10
637.0732421875
 20
16.3974609375
 30
0.0
  0
SEQEND
  5
485
330
480
100
AcDbEntity
  8
Ebene 1
370
     0
  0
POLYLINE
  5
486
330
3C
100
AcDbEntity
  8
Ebene 1
370
     0
100
AcDb2dPolyline
 66
     1
 10
0.0
 20
0.0
 30
0.0
  0
VERTEX
  5
487
330
486
100
AcDbEntity
  8
Ebene 1
370
     0
100
AcDbVertex
100
AcDb2dVertex
 10
636.587890625
 20
17.05859375
 30
0.0
  0
VERTEX
  5
488
330
486
100
AcDbEntity
  8
Ebene 1
370
     0
100
AcDbVertex
100
AcDb2dVertex
 10
636.6767578125
 20
16.7939453125
 30
0.0
  0
VERTEX
  5
489
330
486
100
AcDbEntity
  8
Ebene 1
370
     0
100
AcDbVertex
100
AcDb2dVertex
 10
636.8525390625
 20
16.5732421875
 30
0.0
  0
VERTEX
  5
48A
330
486
100
AcDbEntity
  8
Ebene 1
370
     0
100
AcDbVertex
100
AcDb2dVertex
 10
637.1171875
 20
16.4853515625
 30
0.0
  0
SEQEND
  5
48B
330
486
100
AcDbEntity
  8
Ebene 1
370
     0
  0
POLYLINE
  5
48C
330
3C
100
AcDbEntity
  8
Ebene 1
370
     0
100
AcDb2dPolyline
 66
     1
 10
0.0
 20
0.0
 30
0.0
  0
VERTEX
  5
48D
330
48C
100
AcDbEntity
  8
Ebene 1
370
     0
100
AcDbVertex
100
AcDb2dVertex
 10
626.837890625
 20
49.837890625
 30
0.0
  0
VERTEX
  5
48E
330
48C
100
AcDbEntity
  8
Ebene 1
370
     0
100
AcDbVertex
100
AcDb2dVertex
 10
626.837890625
 20
45.5146484375
 30
0.0
  0
SEQEND
  5
48F
330
48C
100
AcDbEntity
  8
Ebene 1
370
     0
  0
POLYLINE
  5
490
330
3C
100
AcDbEntity
  8
Ebene 1
370
     0
100
AcDb2dPolyline
 66
     1
 10
0.0
 20
0.0
 30
0.0
  0
VERTEX
  5
491
330
490
100
AcDbEntity
  8
Ebene 1
370
     0
100
AcDbVertex
100
AcDb2dVertex
 10
643.912109375
 20
49.837890625
 30
0.0
  0
VERTEX
  5
492
330
490
100
AcDbEntity
  8
Ebene 1
370
     0
100
AcDbVertex
100
AcDb2dVertex
 10
626.837890625
 20
49.837890625
 30
0.0
  0
SEQEND
  5
493
330
490
100
AcDbEntity
  8
Ebene 1
370
     0
  0
POLYLINE
  5
494
330
3C
100
AcDbEntity
  8
Ebene 1
370
     0
100
AcDb2dPolyline
 66
     1
 10
0.0
 20
0.0
 30
0.0
  0
VERTEX
  5
495
330
494
100
AcDbEntity
  8
Ebene 1
370
     0
100
AcDbVertex
100
AcDb2dVertex
 10
626.837890625
 20
45.5146484375
 30
0.0
  0
VERTEX
  5
496
330
494
100
AcDbEntity
  8
Ebene 1
370
     0
100
AcDbVertex
100
AcDb2dVertex
 10
643.912109375
 20
45.5146484375
 30
0.0
  0
SEQEND
  5
497
330
494
100
AcDbEntity
  8
Ebene 1
370
     0
  0
POLYLINE
  5
498
330
3C
100
AcDbEntity
  8
Ebene 1
370
     0
100
AcDb2dPolyline
 66
     1
 10
0.0
 20
0.0
 30
0.0
  0
VERTEX
  5
499
330
498
100
AcDbEntity
  8
Ebene 1
370
     0
100
AcDbVertex
100
AcDb2dVertex
 10
626.837890625
 20
49.837890625
 30
0.0
  0
VERTEX
  5
49A
330
498
100
AcDbEntity
  8
Ebene 1
370
     0
100
AcDbVertex
100
AcDb2dVertex
 10
625.69140625
 20
49.837890625
 30
0.0
  0
SEQEND
  5
49B
330
498
100
AcDbEntity
  8
Ebene 1
370
     0
  0
POLYLINE
  5
49C
330
3C
100
AcDbEntity
  8
Ebene 1
370
     0
100
AcDb2dPolyline
 66
     1
 10
0.0
 20
0.0
 30
0.0
  0
VERTEX
  5
49D
330
49C
100
AcDbEntity
  8
Ebene 1
370
     0
100
AcDbVertex
100
AcDb2dVertex
 10
626.837890625
 20
45.5146484375
 30
0.0
  0
VERTEX
  5
49E
330
49C
100
AcDbEntity
  8
Ebene 1
370
     0
100
AcDbVertex
100
AcDb2dVertex
 10
625.69140625
 20
45.5146484375
 30
0.0
  0
SEQEND
  5
49F
330
49C
100
AcDbEntity
  8
Ebene 1
370
     0
  0
POLYLINE
  5
4A0
330
3C
100
AcDbEntity
  8
Ebene 1
370
     0
100
AcDb2dPolyline
 66
     1
 10
0.0
 20
0.0
 30
0.0
  0
VERTEX
  5
4A1
330
4A0
100
AcDbEntity
  8
Ebene 1
370
     0
100
AcDbVertex
100
AcDb2dVertex
 10
626.837890625
 20
27.912109375
 30
0.0
  0
VERTEX
  5
4A2
330
4A0
100
AcDbEntity
  8
Ebene 1
370
     0
100
AcDbVertex
100
AcDb2dVertex
 10
626.837890625
 20
23.587890625
 30
0.0
  0
SEQEND
  5
4A3
330
4A0
100
AcDbEntity
  8
Ebene 1
370
     0
  0
POLYLINE
  5
4A4
330
3C
100
AcDbEntity
  8
Ebene 1
370
     0
100
AcDb2dPolyline
 66
     1
 10
0.0
 20
0.0
 30
0.0
  0
VERTEX
  5
4A5
330
4A4
100
AcDbEntity
  8
Ebene 1
370
     0
100
AcDbVertex
100
AcDb2dVertex
 10
645.7646484375
 20
27.912109375
 30
0.0
  0
VERTEX
  5
4A6
330
4A4
100
AcDbEntity
  8
Ebene 1
370
     0
100
AcDbVertex
100
AcDb2dVertex
 10
626.837890625
 20
27.912109375
 30
0.0
  0
SEQEND
  5
4A7
330
4A4
100
AcDbEntity
  8
Ebene 1
370
     0
  0
POLYLINE
  5
4A8
330
3C
100
AcDbEntity
  8
Ebene 1
370
     0
100
AcDb2dPolyline
 66
     1
 10
0.0
 20
0.0
 30
0.0
  0
VERTEX
  5
4A9
330
4A8
100
AcDbEntity
  8
Ebene 1
370
     0
100
AcDbVertex
100
AcDb2dVertex
 10
626.837890625
 20
23.587890625
 30
0.0
  0
VERTEX
  5
4AA
330
4A8
100
AcDbEntity
  8
Ebene 1
370
     0
100
AcDbVertex
100
AcDb2dVertex
 10
645.7646484375
 20
23.587890625
 30
0.0
  0
SEQEND
  5
4AB
330
4A8
100
AcDbEntity
  8
Ebene 1
370
     0
  0
POLYLINE
  5
4AC
330
3C
100
AcDbEntity
  8
Ebene 1
370
     0
100
AcDb2dPolyline
 66
     1
 10
0.0
 20
0.0
 30
0.0
  0
VERTEX
  5
4AD
330
4AC
100
AcDbEntity
  8
Ebene 1
370
     0
100
AcDbVertex
100
AcDb2dVertex
 10
626.837890625
 20
27.912109375
 30
0.0
  0
VERTEX
  5
4AE
330
4AC
100
AcDbEntity
  8
Ebene 1
370
     0
100
AcDbVertex
100
AcDb2dVertex
 10
625.69140625
 20
27.912109375
 30
0.0
  0
SEQEND
  5
4AF
330
4AC
100
AcDbEntity
  8
Ebene 1
370
     0
  0
POLYLINE
  5
4B0
330
3C
100
AcDbEntity
  8
Ebene 1
370
     0
100
AcDb2dPolyline
 66
     1
 10
0.0
 20
0.0
 30
0.0
  0
VERTEX
  5
4B1
330
4B0
100
AcDbEntity
  8
Ebene 1
370
     0
100
AcDbVertex
100
AcDb2dVertex
 10
626.837890625
 20
23.587890625
 30
0.0
  0
VERTEX
  5
4B2
330
4B0
100
AcDbEntity
  8
Ebene 1
370
     0
100
AcDbVertex
100
AcDb2dVertex
 10
625.69140625
 20
23.587890625
 30
0.0
  0
SEQEND
  5
4B3
330
4B0
100
AcDbEntity
  8
Ebene 1
370
     0
  0
POLYLINE
  5
4B4
330
3C
100
AcDbEntity
  8
Ebene 1
370
     0
100
AcDb2dPolyline
 66
     1
 10
0.0
 20
0.0
 30
0.0
  0
VERTEX
  5
4B5
330
4B4
100
AcDbEntity
  8
Ebene 1
370
     0
100
AcDbVertex
100
AcDb2dVertex
 10
621.9853515625
 20
19.0439453125
 30
0.0
  0
VERTEX
  5
4B6
330
4B4
100
AcDbEntity
  8
Ebene 1
370
     0
100
AcDbVertex
100
AcDb2dVertex
 10
645.7646484375
 20
19.0439453125
 30
0.0
  0
SEQEND
  5
4B7
330
4B4
100
AcDbEntity
  8
Ebene 1
370
     0
  0
POLYLINE
  5
4B8
330
3C
100
AcDbEntity
  8
Ebene 1
370
     0
100
AcDb2dPolyline
 66
     1
 10
0.0
 20
0.0
 30
0.0
  0
VERTEX
  5
4B9
330
4B8
100
AcDbEntity
  8
Ebene 1
370
     0
100
AcDbVertex
100
AcDb2dVertex
 10
645.7646484375
 20
23.3671875
 30
0.0
  0
VERTEX
  5
4BA
330
4B8
100
AcDbEntity
  8
Ebene 1
370
     0
100
AcDbVertex
100
AcDb2dVertex
 10
621.9853515625
 20
23.3671875
 30
0.0
  0
SEQEND
  5
4BB
330
4B8
100
AcDbEntity
  8
Ebene 1
370
     0
  0
POLYLINE
  5
4BC
330
3C
100
AcDbEntity
  8
Ebene 1
370
     0
100
AcDb2dPolyline
 66
     1
 10
0.0
 20
0.0
 30
0.0
  0
VERTEX
  5
4BD
330
4BC
100
AcDbEntity
  8
Ebene 1
370
     0
100
AcDbVertex
100
AcDb2dVertex
 10
621.9853515625
 20
50.05859375
 30
0.0
  0
VERTEX
  5
4BE
330
4BC
100
AcDbEntity
  8
Ebene 1
370
     0
100
AcDbVertex
100
AcDb2dVertex
 10
643.912109375
 20
50.05859375
 30
0.0
  0
SEQEND
  5
4BF
330
4BC
100
AcDbEntity
  8
Ebene 1
370
     0
  0
POLYLINE
  5
4C0
330
3C
100
AcDbEntity
  8
Ebene 1
370
     0
100
AcDb2dPolyline
 66
     1
 10
0.0
 20
0.0
 30
0.0
  0
VERTEX
  5
4C1
330
4C0
100
AcDbEntity
  8
Ebene 1
370
     0
100
AcDbVertex
100
AcDb2dVertex
 10
645.7646484375
 20
54.3828125
 30
0.0
  0
VERTEX
  5
4C2
330
4C0
100
AcDbEntity
  8
Ebene 1
370
     0
100
AcDbVertex
100
AcDb2dVertex
 10
621.9853515625
 20
54.3828125
 30
0.0
  0
SEQEND
  5
4C3
330
4C0
100
AcDbEntity
  8
Ebene 1
370
     0
  0
POLYLINE
  5
4C4
330
3C
100
AcDbEntity
  8
Ebene 1
370
     0
100
AcDb2dPolyline
 66
     1
 10
0.0
 20
0.0
 30
0.0
  0
VERTEX
  5
4C5
330
4C4
100
AcDbEntity
  8
Ebene 1
370
     0
100
AcDbVertex
100
AcDb2dVertex
 10
645.7646484375
 20
57.25
 30
0.0
  0
VERTEX
  5
4C6
330
4C4
100
AcDbEntity
  8
Ebene 1
370
     0
100
AcDbVertex
100
AcDb2dVertex
 10
643.6025390625
 20
57.25
 30
0.0
  0
SEQEND
  5
4C7
330
4C4
100
AcDbEntity
  8
Ebene 1
370
     0
  0
POLYLINE
  5
4C8
330
3C
100
AcDbEntity
  8
Ebene 1
370
     0
100
AcDb2dPolyline
 66
     1
 10
0.0
 20
0.0
 30
0.0
  0
VERTEX
  5
4C9
330
4C8
100
AcDbEntity
  8
Ebene 1
370
     0
100
AcDbVertex
100
AcDb2dVertex
 10
645.587890625
 20
32.5439453125
 30
0.0
  0
VERTEX
  5
4CA
330
4C8
100
AcDbEntity
  8
Ebene 1
370
     0
100
AcDbVertex
100
AcDb2dVertex
 10
645.720703125
 20
32.5439453125
 30
0.0
  0
SEQEND
  5
4CB
330
4C8
100
AcDbEntity
  8
Ebene 1
370
     0
  0
POLYLINE
  5
4CC
330
3C
100
AcDbEntity
  8
Ebene 1
370
     0
100
AcDb2dPolyline
 66
     1
 10
0.0
 20
0.0
 30
0.0
  0
VERTEX
  5
4CD
330
4CC
100
AcDbEntity
  8
Ebene 1
370
     0
100
AcDbVertex
100
AcDb2dVertex
 10
645.587890625
 20
33.8232421875
 30
0.0
  0
VERTEX
  5
4CE
330
4CC
100
AcDbEntity
  8
Ebene 1
370
     0
100
AcDbVertex
100
AcDb2dVertex
 10
645.587890625
 20
32.5439453125
 30
0.0
  0
SEQEND
  5
4CF
330
4CC
100
AcDbEntity
  8
Ebene 1
370
     0
  0
POLYLINE
  5
4D0
330
3C
100
AcDbEntity
  8
Ebene 1
370
     0
100
AcDb2dPolyline
 66
     1
 10
0.0
 20
0.0
 30
0.0
  0
VERTEX
  5
4D1
330
4D0
100
AcDbEntity
  8
Ebene 1
370
     0
100
AcDbVertex
100
AcDb2dVertex
 10
645.587890625
 20
52.44140625
 30
0.0
  0
VERTEX
  5
4D2
330
4D0
100
AcDbEntity
  8
Ebene 1
370
     0
100
AcDbVertex
100
AcDb2dVertex
 10
645.587890625
 20
51.2939453125
 30
0.0
  0
SEQEND
  5
4D3
330
4D0
100
AcDbEntity
  8
Ebene 1
370
     0
  0
POLYLINE
  5
4D4
330
3C
100
AcDbEntity
  8
Ebene 1
370
     0
100
AcDb2dPolyline
 66
     1
 10
0.0
 20
0.0
 30
0.0
  0
VERTEX
  5
4D5
330
4D4
100
AcDbEntity
  8
Ebene 1
370
     0
100
AcDbVertex
100
AcDb2dVertex
 10
645.720703125
 20
52.44140625
 30
0.0
  0
VERTEX
  5
4D6
330
4D4
100
AcDbEntity
  8
Ebene 1
370
     0
100
AcDbVertex
100
AcDb2dVertex
 10
645.587890625
 20
52.44140625
 30
0.0
  0
SEQEND
  5
4D7
330
4D4
100
AcDbEntity
  8
Ebene 1
370
     0
  0
POLYLINE
  5
4D8
330
3C
100
AcDbEntity
  8
Ebene 1
370
     0
100
AcDb2dPolyline
 66
     1
 10
0.0
 20
0.0
 30
0.0
  0
VERTEX
  5
4D9
330
4D8
100
AcDbEntity
  8
Ebene 1
370
     0
100
AcDbVertex
100
AcDb2dVertex
 10
645.3232421875
 20
32.5439453125
 30
0.0
  0
VERTEX
  5
4DA
330
4D8
100
AcDbEntity
  8
Ebene 1
370
     0
100
AcDbVertex
100
AcDb2dVertex
 10
645.3232421875
 20
34.0
 30
0.0
  0
SEQEND
  5
4DB
330
4D8
100
AcDbEntity
  8
Ebene 1
370
     0
  0
POLYLINE
  5
4DC
330
3C
100
AcDbEntity
  8
Ebene 1
370
     0
100
AcDb2dPolyline
 66
     1
 10
0.0
 20
0.0
 30
0.0
  0
VERTEX
  5
4DD
330
4DC
100
AcDbEntity
  8
Ebene 1
370
     0
100
AcDbVertex
100
AcDb2dVertex
 10
645.3232421875
 20
51.1171875
 30
0.0
  0
VERTEX
  5
4DE
330
4DC
100
AcDbEntity
  8
Ebene 1
370
     0
100
AcDbVertex
100
AcDb2dVertex
 10
645.3232421875
 20
52.44140625
 30
0.0
  0
SEQEND
  5
4DF
330
4DC
100
AcDbEntity
  8
Ebene 1
370
     0
  0
POLYLINE
  5
4E0
330
3C
100
AcDbEntity
  8
Ebene 1
370
     0
100
AcDb2dPolyline
 66
     1
 10
0.0
 20
0.0
 30
0.0
  0
VERTEX
  5
4E1
330
4E0
100
AcDbEntity
  8
Ebene 1
370
     0
100
AcDbVertex
100
AcDb2dVertex
 10
645.6328125
 20
32.1025390625
 30
0.0
  0
VERTEX
  5
4E2
330
4E0
100
AcDbEntity
  8
Ebene 1
370
     0
100
AcDbVertex
100
AcDb2dVertex
 10
645.3232421875
 20
32.5439453125
 30
0.0
  0
SEQEND
  5
4E3
330
4E0
100
AcDbEntity
  8
Ebene 1
370
     0
  0
POLYLINE
  5
4E4
330
3C
100
AcDbEntity
  8
Ebene 1
370
     0
100
AcDb2dPolyline
 66
     1
 10
0.0
 20
0.0
 30
0.0
  0
VERTEX
  5
4E5
330
4E4
100
AcDbEntity
  8
Ebene 1
370
     0
100
AcDbVertex
100
AcDb2dVertex
 10
645.3232421875
 20
52.44140625
 30
0.0
  0
VERTEX
  5
4E6
330
4E4
100
AcDbEntity
  8
Ebene 1
370
     0
100
AcDbVertex
100
AcDb2dVertex
 10
645.6328125
 20
52.8828125
 30
0.0
  0
SEQEND
  5
4E7
330
4E4
100
AcDbEntity
  8
Ebene 1
370
     0
  0
POLYLINE
  5
4E8
330
3C
100
AcDbEntity
  8
Ebene 1
370
     0
100
AcDb2dPolyline
 66
     1
 10
0.0
 20
0.0
 30
0.0
  0
VERTEX
  5
4E9
330
4E8
100
AcDbEntity
  8
Ebene 1
370
     0
100
AcDbVertex
100
AcDb2dVertex
 10
645.3232421875
 20
51.1171875
 30
0.0
  0
VERTEX
  5
4EA
330
4E8
100
AcDbEntity
  8
Ebene 1
370
     0
100
AcDbVertex
100
AcDb2dVertex
 10
645.19140625
 20
51.1171875
 30
0.0
  0
SEQEND
  5
4EB
330
4E8
100
AcDbEntity
  8
Ebene 1
370
     0
  0
POLYLINE
  5
4EC
330
3C
100
AcDbEntity
  8
Ebene 1
370
     0
100
AcDb2dPolyline
 66
     1
 10
0.0
 20
0.0
 30
0.0
  0
VERTEX
  5
4ED
330
4EC
100
AcDbEntity
  8
Ebene 1
370
     0
100
AcDbVertex
100
AcDb2dVertex
 10
645.19140625
 20
34.0
 30
0.0
  0
VERTEX
  5
4EE
330
4EC
100
AcDbEntity
  8
Ebene 1
370
     0
100
AcDbVertex
100
AcDb2dVertex
 10
645.3232421875
 20
34.0
 30
0.0
  0
SEQEND
  5
4EF
330
4EC
100
AcDbEntity
  8
Ebene 1
370
     0
  0
POLYLINE
  5
4F0
330
3C
100
AcDbEntity
  8
Ebene 1
370
     0
100
AcDb2dPolyline
 66
     1
 10
0.0
 20
0.0
 30
0.0
  0
VERTEX
  5
4F1
330
4F0
100
AcDbEntity
  8
Ebene 1
370
     0
100
AcDbVertex
100
AcDb2dVertex
 10
645.3232421875
 20
32.5439453125
 30
0.0
  0
VERTEX
  5
4F2
330
4F0
100
AcDbEntity
  8
Ebene 1
370
     0
100
AcDbVertex
100
AcDb2dVertex
 10
645.19140625
 20
32.5439453125
 30
0.0
  0
VERTEX
  5
4F3
330
4F0
100
AcDbEntity
  8
Ebene 1
370
     0
100
AcDbVertex
100
AcDb2dVertex
 10
645.19140625
 20
34.0
 30
0.0
  0
SEQEND
  5
4F4
330
4F0
100
AcDbEntity
  8
Ebene 1
370
     0
  0
POLYLINE
  5
4F5
330
3C
100
AcDbEntity
  8
Ebene 1
370
     0
100
AcDb2dPolyline
 66
     1
 10
0.0
 20
0.0
 30
0.0
  0
VERTEX
  5
4F6
330
4F5
100
AcDbEntity
  8
Ebene 1
370
     0
100
AcDbVertex
100
AcDb2dVertex
 10
645.19140625
 20
52.44140625
 30
0.0
  0
VERTEX
  5
4F7
330
4F5
100
AcDbEntity
  8
Ebene 1
370
     0
100
AcDbVertex
100
AcDb2dVertex
 10
645.3232421875
 20
52.44140625
 30
0.0
  0
SEQEND
  5
4F8
330
4F5
100
AcDbEntity
  8
Ebene 1
370
     0
  0
POLYLINE
  5
4F9
330
3C
100
AcDbEntity
  8
Ebene 1
370
     0
100
AcDb2dPolyline
 66
     1
 10
0.0
 20
0.0
 30
0.0
  0
VERTEX
  5
4FA
330
4F9
100
AcDbEntity
  8
Ebene 1
370
     0
100
AcDbVertex
100
AcDb2dVertex
 10
645.19140625
 20
51.1171875
 30
0.0
  0
VERTEX
  5
4FB
330
4F9
100
AcDbEntity
  8
Ebene 1
370
     0
100
AcDbVertex
100
AcDb2dVertex
 10
645.19140625
 20
52.44140625
 30
0.0
  0
SEQEND
  5
4FC
330
4F9
100
AcDbEntity
  8
Ebene 1
370
     0
  0
POLYLINE
  5
4FD
330
3C
100
AcDbEntity
  8
Ebene 1
370
     0
100
AcDb2dPolyline
 66
     1
 10
0.0
 20
0.0
 30
0.0
  0
VERTEX
  5
4FE
330
4FD
100
AcDbEntity
  8
Ebene 1
370
     0
100
AcDbVertex
100
AcDb2dVertex
 10
645.19140625
 20
32.5439453125
 30
0.0
  0
VERTEX
  5
4FF
330
4FD
100
AcDbEntity
  8
Ebene 1
370
     0
100
AcDbVertex
100
AcDb2dVertex
 10
645.6328125
 20
32.1025390625
 30
0.0
  0
SEQEND
  5
500
330
4FD
100
AcDbEntity
  8
Ebene 1
370
     0
  0
POLYLINE
  5
501
330
3C
100
AcDbEntity
  8
Ebene 1
370
     0
100
AcDb2dPolyline
 66
     1
 10
0.0
 20
0.0
 30
0.0
  0
VERTEX
  5
502
330
501
100
AcDbEntity
  8
Ebene 1
370
     0
100
AcDbVertex
100
AcDb2dVertex
 10
644.970703125
 20
42.55859375
 30
0.0
  0
VERTEX
  5
503
330
501
100
AcDbEntity
  8
Ebene 1
370
     0
100
AcDbVertex
100
AcDb2dVertex
 10
645.0146484375
 20
37.5732421875
 30
0.0
  0
VERTEX
  5
504
330
501
100
AcDbEntity
  8
Ebene 1
370
     0
100
AcDbVertex
100
AcDb2dVertex
 10
645.1025390625
 20
35.5
 30
0.0
  0
VERTEX
  5
505
330
501
100
AcDbEntity
  8
Ebene 1
370
     0
100
AcDbVertex
100
AcDb2dVertex
 10
645.19140625
 20
34.0
 30
0.0
  0
SEQEND
  5
506
330
501
100
AcDbEntity
  8
Ebene 1
370
     0
  0
POLYLINE
  5
507
330
3C
100
AcDbEntity
  8
Ebene 1
370
     0
100
AcDb2dPolyline
 66
     1
 10
0.0
 20
0.0
 30
0.0
  0
VERTEX
  5
508
330
507
100
AcDbEntity
  8
Ebene 1
370
     0
100
AcDbVertex
100
AcDb2dVertex
 10
644.970703125
 20
42.55859375
 30
0.0
  0
VERTEX
  5
509
330
507
100
AcDbEntity
  8
Ebene 1
370
     0
100
AcDbVertex
100
AcDb2dVertex
 10
645.412109375
 20
42.55859375
 30
0.0
  0
SEQEND
  5
50A
330
507
100
AcDbEntity
  8
Ebene 1
370
     0
  0
POLYLINE
  5
50B
330
3C
100
AcDbEntity
  8
Ebene 1
370
     0
100
AcDb2dPolyline
 66
     1
 10
0.0
 20
0.0
 30
0.0
  0
VERTEX
  5
50C
330
50B
100
AcDbEntity
  8
Ebene 1
370
     0
100
AcDbVertex
100
AcDb2dVertex
 10
645.19140625
 20
51.1171875
 30
0.0
  0
VERTEX
  5
50D
330
50B
100
AcDbEntity
  8
Ebene 1
370
     0
100
AcDbVertex
100
AcDb2dVertex
 10
645.1025390625
 20
49.6171875
 30
0.0
  0
VERTEX
  5
50E
330
50B
100
AcDbEntity
  8
Ebene 1
370
     0
100
AcDbVertex
100
AcDb2dVertex
 10
645.0146484375
 20
47.5439453125
 30
0.0
  0
VERTEX
  5
50F
330
50B
100
AcDbEntity
  8
Ebene 1
370
     0
100
AcDbVertex
100
AcDb2dVertex
 10
644.970703125
 20
42.55859375
 30
0.0
  0
SEQEND
  5
510
330
50B
100
AcDbEntity
  8
Ebene 1
370
     0
  0
POLYLINE
  5
511
330
3C
100
AcDbEntity
  8
Ebene 1
370
     0
100
AcDb2dPolyline
 66
     1
 10
0.0
 20
0.0
 30
0.0
  0
VERTEX
  5
512
330
511
100
AcDbEntity
  8
Ebene 1
370
     0
100
AcDbVertex
100
AcDb2dVertex
 10
644.9267578125
 20
32.5439453125
 30
0.0
  0
VERTEX
  5
513
330
511
100
AcDbEntity
  8
Ebene 1
370
     0
100
AcDbVertex
100
AcDb2dVertex
 10
645.19140625
 20
32.5439453125
 30
0.0
  0
SEQEND
  5
514
330
511
100
AcDbEntity
  8
Ebene 1
370
     0
  0
POLYLINE
  5
515
330
3C
100
AcDbEntity
  8
Ebene 1
370
     0
100
AcDb2dPolyline
 66
     1
 10
0.0
 20
0.0
 30
0.0
  0
VERTEX
  5
516
330
515
100
AcDbEntity
  8
Ebene 1
370
     0
100
AcDbVertex
100
AcDb2dVertex
 10
644.662109375
 20
31.087890625
 30
0.0
  0
VERTEX
  5
517
330
515
100
AcDbEntity
  8
Ebene 1
370
     0
100
AcDbVertex
100
AcDb2dVertex
 10
644.7939453125
 20
32.19140625
 30
0.0
  0
VERTEX
  5
518
330
515
100
AcDbEntity
  8
Ebene 1
370
     0
100
AcDbVertex
100
AcDb2dVertex
 10
644.9267578125
 20
32.5439453125
 30
0.0
  0
SEQEND
  5
519
330
515
100
AcDbEntity
  8
Ebene 1
370
     0
  0
POLYLINE
  5
51A
330
3C
100
AcDbEntity
  8
Ebene 1
370
     0
100
AcDb2dPolyline
 66
     1
 10
0.0
 20
0.0
 30
0.0
  0
VERTEX
  5
51B
330
51A
100
AcDbEntity
  8
Ebene 1
370
     0
100
AcDbVertex
100
AcDb2dVertex
 10
644.4853515625
 20
29.6767578125
 30
0.0
  0
VERTEX
  5
51C
330
51A
100
AcDbEntity
  8
Ebene 1
370
     0
100
AcDbVertex
100
AcDb2dVertex
 10
644.662109375
 20
31.087890625
 30
0.0
  0
SEQEND
  5
51D
330
51A
100
AcDbEntity
  8
Ebene 1
370
     0
  0
POLYLINE
  5
51E
330
3C
100
AcDbEntity
  8
Ebene 1
370
     0
100
AcDb2dPolyline
 66
     1
 10
0.0
 20
0.0
 30
0.0
  0
VERTEX
  5
51F
330
51E
100
AcDbEntity
  8
Ebene 1
370
     0
100
AcDbVertex
100
AcDb2dVertex
 10
644.44140625
 20
29.5439453125
 30
0.0
  0
VERTEX
  5
520
330
51E
100
AcDbEntity
  8
Ebene 1
370
     0
100
AcDbVertex
100
AcDb2dVertex
 10
644.4853515625
 20
29.6767578125
 30
0.0
  0
SEQEND
  5
521
330
51E
100
AcDbEntity
  8
Ebene 1
370
     0
  0
POLYLINE
  5
522
330
3C
100
AcDbEntity
  8
Ebene 1
370
     0
100
AcDb2dPolyline
 66
     1
 10
0.0
 20
0.0
 30
0.0
  0
VERTEX
  5
523
330
522
100
AcDbEntity
  8
Ebene 1
370
     0
100
AcDbVertex
100
AcDb2dVertex
 10
643.912109375
 20
44.7646484375
 30
0.0
  0
VERTEX
  5
524
330
522
100
AcDbEntity
  8
Ebene 1
370
     0
100
AcDbVertex
100
AcDb2dVertex
 10
643.8671875
 20
43.8828125
 30
0.0
  0
SEQEND
  5
525
330
522
100
AcDbEntity
  8
Ebene 1
370
     0
  0
POLYLINE
  5
526
330
3C
100
AcDbEntity
  8
Ebene 1
370
     0
100
AcDb2dPolyline
 66
     1
 10
0.0
 20
0.0
 30
0.0
  0
VERTEX
  5
527
330
526
100
AcDbEntity
  8
Ebene 1
370
     0
100
AcDbVertex
100
AcDb2dVertex
 10
644.0439453125
 20
52.44140625
 30
0.0
  0
VERTEX
  5
528
330
526
100
AcDbEntity
  8
Ebene 1
370
     0
100
AcDbVertex
100
AcDb2dVertex
 10
644.0
 20
52.1767578125
 30
0.0
  0
VERTEX
  5
529
330
526
100
AcDbEntity
  8
Ebene 1
370
     0
100
AcDbVertex
100
AcDb2dVertex
 10
643.9560546875
 20
51.2939453125
 30
0.0
  0
VERTEX
  5
52A
330
526
100
AcDbEntity
  8
Ebene 1
370
     0
100
AcDbVertex
100
AcDb2dVertex
 10
643.912109375
 20
48.55859375
 30
0.0
  0
SEQEND
  5
52B
330
526
100
AcDbEntity
  8
Ebene 1
370
     0
  0
POLYLINE
  5
52C
330
3C
100
AcDbEntity
  8
Ebene 1
370
     0
100
AcDb2dPolyline
 66
     1
 10
0.0
 20
0.0
 30
0.0
  0
VERTEX
  5
52D
330
52C
100
AcDbEntity
  8
Ebene 1
370
     0
100
AcDbVertex
100
AcDb2dVertex
 10
644.1767578125
 20
52.44140625
 30
0.0
  0
VERTEX
  5
52E
330
52C
100
AcDbEntity
  8
Ebene 1
370
     0
100
AcDbVertex
100
AcDb2dVertex
 10
644.0439453125
 20
52.44140625
 30
0.0
  0
SEQEND
  5
52F
330
52C
100
AcDbEntity
  8
Ebene 1
370
     0
  0
POLYLINE
  5
530
330
3C
100
AcDbEntity
  8
Ebene 1
370
     0
100
AcDb2dPolyline
 66
     1
 10
0.0
 20
0.0
 30
0.0
  0
VERTEX
  5
531
330
530
100
AcDbEntity
  8
Ebene 1
370
     0
100
AcDbVertex
100
AcDb2dVertex
 10
643.9560546875
 20
42.55859375
 30
0.0
  0
VERTEX
  5
532
330
530
100
AcDbEntity
  8
Ebene 1
370
     0
100
AcDbVertex
100
AcDb2dVertex
 10
644.0
 20
47.5439453125
 30
0.0
  0
VERTEX
  5
533
330
530
100
AcDbEntity
  8
Ebene 1
370
     0
100
AcDbVertex
100
AcDb2dVertex
 10
644.087890625
 20
49.6171875
 30
0.0
  0
VERTEX
  5
534
330
530
100
AcDbEntity
  8
Ebene 1
370
     0
100
AcDbVertex
100
AcDb2dVertex
 10
644.1767578125
 20
51.1171875
 30
0.0
  0
SEQEND
  5
535
330
530
100
AcDbEntity
  8
Ebene 1
370
     0
  0
POLYLINE
  5
536
330
3C
100
AcDbEntity
  8
Ebene 1
370
     0
100
AcDb2dPolyline
 66
     1
 10
0.0
 20
0.0
 30
0.0
  0
VERTEX
  5
537
330
536
100
AcDbEntity
  8
Ebene 1
370
     0
100
AcDbVertex
100
AcDb2dVertex
 10
643.9560546875
 20
38.5
 30
0.0
  0
VERTEX
  5
538
330
536
100
AcDbEntity
  8
Ebene 1
370
     0
100
AcDbVertex
100
AcDb2dVertex
 10
643.9560546875
 20
42.55859375
 30
0.0
  0
SEQEND
  5
539
330
536
100
AcDbEntity
  8
Ebene 1
370
     0
  0
POLYLINE
  5
53A
330
3C
100
AcDbEntity
  8
Ebene 1
370
     0
100
AcDb2dPolyline
 66
     1
 10
0.0
 20
0.0
 30
0.0
  0
VERTEX
  5
53B
330
53A
100
AcDbEntity
  8
Ebene 1
370
     0
100
AcDbVertex
100
AcDb2dVertex
 10
644.7939453125
 20
42.55859375
 30
0.0
  0
VERTEX
  5
53C
330
53A
100
AcDbEntity
  8
Ebene 1
370
     0
100
AcDbVertex
100
AcDb2dVertex
 10
644.75
 20
39.25
 30
0.0
  0
VERTEX
  5
53D
330
53A
100
AcDbEntity
  8
Ebene 1
370
     0
100
AcDbVertex
100
AcDb2dVertex
 10
644.662109375
 20
36.337890625
 30
0.0
  0
VERTEX
  5
53E
330
53A
100
AcDbEntity
  8
Ebene 1
370
     0
100
AcDbVertex
100
AcDb2dVertex
 10
644.5732421875
 20
34.1767578125
 30
0.0
  0
VERTEX
  5
53F
330
53A
100
AcDbEntity
  8
Ebene 1
370
     0
100
AcDbVertex
100
AcDb2dVertex
 10
644.44140625
 20
33.0732421875
 30
0.0
  0
SEQEND
  5
540
330
53A
100
AcDbEntity
  8
Ebene 1
370
     0
  0
POLYLINE
  5
541
330
3C
100
AcDbEntity
  8
Ebene 1
370
     0
100
AcDb2dPolyline
 66
     1
 10
0.0
 20
0.0
 30
0.0
  0
VERTEX
  5
542
330
541
100
AcDbEntity
  8
Ebene 1
370
     0
100
AcDbVertex
100
AcDb2dVertex
 10
644.529296875
 20
51.2939453125
 30
0.0
  0
VERTEX
  5
543
330
541
100
AcDbEntity
  8
Ebene 1
370
     0
100
AcDbVertex
100
AcDb2dVertex
 10
644.6171875
 20
49.7939453125
 30
0.0
  0
VERTEX
  5
544
330
541
100
AcDbEntity
  8
Ebene 1
370
     0
100
AcDbVertex
100
AcDb2dVertex
 10
644.7060546875
 20
47.720703125
 30
0.0
  0
VERTEX
  5
545
330
541
100
AcDbEntity
  8
Ebene 1
370
     0
100
AcDbVertex
100
AcDb2dVertex
 10
644.7939453125
 20
42.55859375
 30
0.0
  0
SEQEND
  5
546
330
541
100
AcDbEntity
  8
Ebene 1
370
     0
  0
POLYLINE
  5
547
330
3C
100
AcDbEntity
  8
Ebene 1
370
     0
100
AcDb2dPolyline
 66
     1
 10
0.0
 20
0.0
 30
0.0
  0
VERTEX
  5
548
330
547
100
AcDbEntity
  8
Ebene 1
370
     0
100
AcDbVertex
100
AcDb2dVertex
 10
644.529296875
 20
52.44140625
 30
0.0
  0
VERTEX
  5
549
330
547
100
AcDbEntity
  8
Ebene 1
370
     0
100
AcDbVertex
100
AcDb2dVertex
 10
644.529296875
 20
51.2939453125
 30
0.0
  0
SEQEND
  5
54A
330
547
100
AcDbEntity
  8
Ebene 1
370
     0
  0
POLYLINE
  5
54B
330
3C
100
AcDbEntity
  8
Ebene 1
370
     0
100
AcDb2dPolyline
 66
     1
 10
0.0
 20
0.0
 30
0.0
  0
VERTEX
  5
54C
330
54B
100
AcDbEntity
  8
Ebene 1
370
     0
100
AcDbVertex
100
AcDb2dVertex
 10
645.19140625
 20
52.44140625
 30
0.0
  0
VERTEX
  5
54D
330
54B
100
AcDbEntity
  8
Ebene 1
370
     0
100
AcDbVertex
100
AcDb2dVertex
 10
644.529296875
 20
52.44140625
 30
0.0
  0
SEQEND
  5
54E
330
54B
100
AcDbEntity
  8
Ebene 1
370
     0
  0
POLYLINE
  5
54F
330
3C
100
AcDbEntity
  8
Ebene 1
370
     0
100
AcDb2dPolyline
 66
     1
 10
0.0
 20
0.0
 30
0.0
  0
VERTEX
  5
550
330
54F
100
AcDbEntity
  8
Ebene 1
370
     0
100
AcDbVertex
100
AcDb2dVertex
 10
644.970703125
 20
32.5439453125
 30
0.0
  0
VERTEX
  5
551
330
54F
100
AcDbEntity
  8
Ebene 1
370
     0
100
AcDbVertex
100
AcDb2dVertex
 10
645.0146484375
 20
32.3671875
 30
0.0
  0
VERTEX
  5
552
330
54F
100
AcDbEntity
  8
Ebene 1
370
     0
100
AcDbVertex
100
AcDb2dVertex
 10
645.1474609375
 20
32.19140625
 30
0.0
  0
VERTEX
  5
553
330
54F
100
AcDbEntity
  8
Ebene 1
370
     0
100
AcDbVertex
100
AcDb2dVertex
 10
645.3671875
 20
32.1474609375
 30
0.0
  0
SEQEND
  5
554
330
54F
100
AcDbEntity
  8
Ebene 1
370
     0
  0
POLYLINE
  5
555
330
3C
100
AcDbEntity
  8
Ebene 1
370
     0
100
AcDb2dPolyline
 66
     1
 10
0.0
 20
0.0
 30
0.0
  0
VERTEX
  5
556
330
555
100
AcDbEntity
  8
Ebene 1
370
     0
100
AcDbVertex
100
AcDb2dVertex
 10
644.529296875
 20
52.44140625
 30
0.0
  0
VERTEX
  5
557
330
555
100
AcDbEntity
  8
Ebene 1
370
     0
100
AcDbVertex
100
AcDb2dVertex
 10
644.970703125
 20
52.8828125
 30
0.0
  0
VERTEX
  5
558
330
555
100
AcDbEntity
  8
Ebene 1
370
     0
100
AcDbVertex
100
AcDb2dVertex
 10
645.6328125
 20
52.8828125
 30
0.0
  0
SEQEND
  5
559
330
555
100
AcDbEntity
  8
Ebene 1
370
     0
  0
POLYLINE
  5
55A
330
3C
100
AcDbEntity
  8
Ebene 1
370
     0
100
AcDb2dPolyline
 66
     1
 10
0.0
 20
0.0
 30
0.0
  0
VERTEX
  5
55B
330
55A
100
AcDbEntity
  8
Ebene 1
370
     0
100
AcDbVertex
100
AcDb2dVertex
 10
645.3671875
 20
32.1025390625
 30
0.0
  0
VERTEX
  5
55C
330
55A
100
AcDbEntity
  8
Ebene 1
370
     0
100
AcDbVertex
100
AcDb2dVertex
 10
645.2353515625
 20
31.75
 30
0.0
  0
VERTEX
  5
55D
330
55A
100
AcDbEntity
  8
Ebene 1
370
     0
100
AcDbVertex
100
AcDb2dVertex
 10
645.1025390625
 20
30.69140625
 30
0.0
  0
SEQEND
  5
55E
330
55A
100
AcDbEntity
  8
Ebene 1
370
     0
  0
POLYLINE
  5
55F
330
3C
100
AcDbEntity
  8
Ebene 1
370
     0
100
AcDb2dPolyline
 66
     1
 10
0.0
 20
0.0
 30
0.0
  0
VERTEX
  5
560
330
55F
100
AcDbEntity
  8
Ebene 1
370
     0
100
AcDbVertex
100
AcDb2dVertex
 10
644.662109375
 20
31.087890625
 30
0.0
  0
VERTEX
  5
561
330
55F
100
AcDbEntity
  8
Ebene 1
370
     0
100
AcDbVertex
100
AcDb2dVertex
 10
645.1025390625
 20
30.69140625
 30
0.0
  0
VERTEX
  5
562
330
55F
100
AcDbEntity
  8
Ebene 1
370
     0
100
AcDbVertex
100
AcDb2dVertex
 10
644.8828125
 20
29.279296875
 30
0.0
  0
SEQEND
  5
563
330
55F
100
AcDbEntity
  8
Ebene 1
370
     0
  0
POLYLINE
  5
564
330
3C
100
AcDbEntity
  8
Ebene 1
370
     0
100
AcDb2dPolyline
 66
     1
 10
0.0
 20
0.0
 30
0.0
  0
VERTEX
  5
565
330
564
100
AcDbEntity
  8
Ebene 1
370
     0
100
AcDbVertex
100
AcDb2dVertex
 10
644.529296875
 20
29.6767578125
 30
0.0
  0
VERTEX
  5
566
330
564
100
AcDbEntity
  8
Ebene 1
370
     0
100
AcDbVertex
100
AcDb2dVertex
 10
644.6171875
 20
29.412109375
 30
0.0
  0
VERTEX
  5
567
330
564
100
AcDbEntity
  8
Ebene 1
370
     0
100
AcDbVertex
100
AcDb2dVertex
 10
644.8828125
 20
29.279296875
 30
0.0
  0
SEQEND
  5
568
330
564
100
AcDbEntity
  8
Ebene 1
370
     0
  0
POLYLINE
  5
569
330
3C
100
AcDbEntity
  8
Ebene 1
370
     0
100
AcDb2dPolyline
 66
     1
 10
0.0
 20
0.0
 30
0.0
  0
VERTEX
  5
56A
330
569
100
AcDbEntity
  8
Ebene 1
370
     0
100
AcDbVertex
100
AcDb2dVertex
 10
644.7939453125
 20
29.1474609375
 30
0.0
  0
VERTEX
  5
56B
330
569
100
AcDbEntity
  8
Ebene 1
370
     0
100
AcDbVertex
100
AcDb2dVertex
 10
644.8828125
 20
29.279296875
 30
0.0
  0
SEQEND
  5
56C
330
569
100
AcDbEntity
  8
Ebene 1
370
     0
  0
POLYLINE
  5
56D
330
3C
100
AcDbEntity
  8
Ebene 1
370
     0
100
AcDb2dPolyline
 66
     1
 10
0.0
 20
0.0
 30
0.0
  0
VERTEX
  5
56E
330
56D
100
AcDbEntity
  8
Ebene 1
370
     0
100
AcDbVertex
100
AcDb2dVertex
 10
644.44140625
 20
29.5439453125
 30
0.0
  0
VERTEX
  5
56F
330
56D
100
AcDbEntity
  8
Ebene 1
370
     0
100
AcDbVertex
100
AcDb2dVertex
 10
644.529296875
 20
29.279296875
 30
0.0
  0
VERTEX
  5
570
330
56D
100
AcDbEntity
  8
Ebene 1
370
     0
100
AcDbVertex
100
AcDb2dVertex
 10
644.75
 20
29.1474609375
 30
0.0
  0
SEQEND
  5
571
330
56D
100
AcDbEntity
  8
Ebene 1
370
     0
  0
POLYLINE
  5
572
330
3C
100
AcDbEntity
  8
Ebene 1
370
     0
100
AcDb2dPolyline
 66
     1
 10
0.0
 20
0.0
 30
0.0
  0
VERTEX
  5
573
330
572
100
AcDbEntity
  8
Ebene 1
370
     0
100
AcDbVertex
100
AcDb2dVertex
 10
643.9560546875
 20
42.55859375
 30
0.0
  0
VERTEX
  5
574
330
572
100
AcDbEntity
  8
Ebene 1
370
     0
100
AcDbVertex
100
AcDb2dVertex
 10
644.3525390625
 20
42.55859375
 30
0.0
  0
VERTEX
  5
575
330
572
100
AcDbEntity
  8
Ebene 1
370
     0
100
AcDbVertex
100
AcDb2dVertex
 10
644.3974609375
 20
38.80859375
 30
0.0
  0
SEQEND
  5
576
330
572
100
AcDbEntity
  8
Ebene 1
370
     0
  0
POLYLINE
  5
577
330
3C
100
AcDbEntity
  8
Ebene 1
370
     0
100
AcDb2dPolyline
 66
     1
 10
0.0
 20
0.0
 30
0.0
  0
VERTEX
  5
578
330
577
100
AcDbEntity
  8
Ebene 1
370
     0
100
AcDbVertex
100
AcDb2dVertex
 10
644.30859375
 20
52.44140625
 30
0.0
  0
VERTEX
  5
579
330
577
100
AcDbEntity
  8
Ebene 1
370
     0
100
AcDbVertex
100
AcDb2dVertex
 10
644.30859375
 20
51.1171875
 30
0.0
  0
SEQEND
  5
57A
330
577
100
AcDbEntity
  8
Ebene 1
370
     0
  0
POLYLINE
  5
57B
330
3C
100
AcDbEntity
  8
Ebene 1
370
     0
100
AcDb2dPolyline
 66
     1
 10
0.0
 20
0.0
 30
0.0
  0
VERTEX
  5
57C
330
57B
100
AcDbEntity
  8
Ebene 1
370
     0
100
AcDbVertex
100
AcDb2dVertex
 10
644.30859375
 20
52.44140625
 30
0.0
  0
VERTEX
  5
57D
330
57B
100
AcDbEntity
  8
Ebene 1
370
     0
100
AcDbVertex
100
AcDb2dVertex
 10
644.6171875
 20
52.8828125
 30
0.0
  0
SEQEND
  5
57E
330
57B
100
AcDbEntity
  8
Ebene 1
370
     0
  0
POLYLINE
  5
57F
330
3C
100
AcDbEntity
  8
Ebene 1
370
     0
100
AcDb2dPolyline
 66
     1
 10
0.0
 20
0.0
 30
0.0
  0
VERTEX
  5
580
330
57F
100
AcDbEntity
  8
Ebene 1
370
     0
100
AcDbVertex
100
AcDb2dVertex
 10
644.30859375
 20
51.1171875
 30
0.0
  0
VERTEX
  5
581
330
57F
100
AcDbEntity
  8
Ebene 1
370
     0
100
AcDbVertex
100
AcDb2dVertex
 10
644.1767578125
 20
51.1171875
 30
0.0
  0
SEQEND
  5
582
330
57F
100
AcDbEntity
  8
Ebene 1
370
     0
  0
POLYLINE
  5
583
330
3C
100
AcDbEntity
  8
Ebene 1
370
     0
100
AcDb2dPolyline
 66
     1
 10
0.0
 20
0.0
 30
0.0
  0
VERTEX
  5
584
330
583
100
AcDbEntity
  8
Ebene 1
370
     0
100
AcDbVertex
100
AcDb2dVertex
 10
644.1767578125
 20
52.44140625
 30
0.0
  0
VERTEX
  5
585
330
583
100
AcDbEntity
  8
Ebene 1
370
     0
100
AcDbVertex
100
AcDb2dVertex
 10
644.30859375
 20
52.44140625
 30
0.0
  0
SEQEND
  5
586
330
583
100
AcDbEntity
  8
Ebene 1
370
     0
  0
POLYLINE
  5
587
330
3C
100
AcDbEntity
  8
Ebene 1
370
     0
100
AcDb2dPolyline
 66
     1
 10
0.0
 20
0.0
 30
0.0
  0
VERTEX
  5
588
330
587
100
AcDbEntity
  8
Ebene 1
370
     0
100
AcDbVertex
100
AcDb2dVertex
 10
644.6171875
 20
52.8828125
 30
0.0
  0
VERTEX
  5
589
330
587
100
AcDbEntity
  8
Ebene 1
370
     0
100
AcDbVertex
100
AcDb2dVertex
 10
644.1767578125
 20
52.44140625
 30
0.0
  0
SEQEND
  5
58A
330
587
100
AcDbEntity
  8
Ebene 1
370
     0
  0
POLYLINE
  5
58B
330
3C
100
AcDbEntity
  8
Ebene 1
370
     0
100
AcDb2dPolyline
 66
     1
 10
0.0
 20
0.0
 30
0.0
  0
VERTEX
  5
58C
330
58B
100
AcDbEntity
  8
Ebene 1
370
     0
100
AcDbVertex
100
AcDb2dVertex
 10
627.720703125
 20
64.2646484375
 30
0.0
  0
VERTEX
  5
58D
330
58B
100
AcDbEntity
  8
Ebene 1
370
     0
100
AcDbVertex
100
AcDb2dVertex
 10
613.69140625
 20
64.2646484375
 30
0.0
  0
SEQEND
  5
58E
330
58B
100
AcDbEntity
  8
Ebene 1
370
     0
  0
POLYLINE
  5
58F
330
3C
100
AcDbEntity
  8
Ebene 1
370
     0
100
AcDb2dPolyline
 66
     1
 10
0.0
 20
0.0
 30
0.0
  0
VERTEX
  5
590
330
58F
100
AcDbEntity
  8
Ebene 1
370
     0
100
AcDbVertex
100
AcDb2dVertex
 10
645.7646484375
 20
64.2646484375
 30
0.0
  0
VERTEX
  5
591
330
58F
100
AcDbEntity
  8
Ebene 1
370
     0
100
AcDbVertex
100
AcDb2dVertex
 10
634.9560546875
 20
64.2646484375
 30
0.0
  0
SEQEND
  5
592
330
58F
100
AcDbEntity
  8
Ebene 1
370
     0
  0
POLYLINE
  5
593
330
3C
100
AcDbEntity
  8
Ebene 1
370
     0
100
AcDb2dPolyline
 66
     1
 10
0.0
 20
0.0
 30
0.0
  0
VERTEX
  5
594
330
593
100
AcDbEntity
  8
Ebene 1
370
     0
100
AcDbVertex
100
AcDb2dVertex
 10
597.0146484375
 20
64.2646484375
 30
0.0
  0
VERTEX
  5
595
330
593
100
AcDbEntity
  8
Ebene 1
370
     0
100
AcDbVertex
100
AcDb2dVertex
 10
587.087890625
 20
64.2646484375
 30
0.0
  0
SEQEND
  5
596
330
593
100
AcDbEntity
  8
Ebene 1
370
     0
  0
POLYLINE
  5
597
330
3C
100
AcDbEntity
  8
Ebene 1
370
     0
100
AcDb2dPolyline
 66
     1
 10
0.0
 20
0.0
 30
0.0
  0
VERTEX
  5
598
330
597
100
AcDbEntity
  8
Ebene 1
370
     0
100
AcDbVertex
100
AcDb2dVertex
 10
613.69140625
 20
64.2646484375
 30
0.0
  0
VERTEX
  5
599
330
597
100
AcDbEntity
  8
Ebene 1
370
     0
100
AcDbVertex
100
AcDb2dVertex
 10
597.0146484375
 20
64.2646484375
 30
0.0
  0
SEQEND
  5
59A
330
597
100
AcDbEntity
  8
Ebene 1
370
     0
  0
POLYLINE
  5
59B
330
3C
100
AcDbEntity
  8
Ebene 1
370
     0
100
AcDb2dPolyline
 66
     1
 10
0.0
 20
0.0
 30
0.0
  0
VERTEX
  5
59C
330
59B
100
AcDbEntity
  8
Ebene 1
370
     0
100
AcDbVertex
100
AcDb2dVertex
 10
578.7939453125
 20
44.279296875
 30
0.0
  0
VERTEX
  5
59D
330
59B
100
AcDbEntity
  8
Ebene 1
370
     0
100
AcDbVertex
100
AcDb2dVertex
 10
621.9853515625
 20
44.279296875
 30
0.0
  0
SEQEND
  5
59E
330
59B
100
AcDbEntity
  8
Ebene 1
370
     0
  0
POLYLINE
  5
59F
330
3C
100
AcDbEntity
  8
Ebene 1
370
     0
100
AcDb2dPolyline
 66
     1
 10
0.0
 20
0.0
 30
0.0
  0
VERTEX
  5
5A0
330
59F
100
AcDbEntity
  8
Ebene 1
370
     0
100
AcDbVertex
100
AcDb2dVertex
 10
578.7939453125
 20
19.3974609375
 30
0.0
  0
VERTEX
  5
5A1
330
59F
100
AcDbEntity
  8
Ebene 1
370
     0
100
AcDbVertex
100
AcDb2dVertex
 10
621.9853515625
 20
19.3974609375
 30
0.0
  0
SEQEND
  5
5A2
330
59F
100
AcDbEntity
  8
Ebene 1
370
     0
  0
POLYLINE
  5
5A3
330
3C
100
AcDbEntity
  8
Ebene 1
370
     0
100
AcDb2dPolyline
 66
     1
 10
0.0
 20
0.0
 30
0.0
  0
VERTEX
  5
5A4
330
5A3
100
AcDbEntity
  8
Ebene 1
370
     0
100
AcDbVertex
100
AcDb2dVertex
 10
590.44140625
 20
29.1474609375
 30
0.0
  0
VERTEX
  5
5A5
330
5A3
100
AcDbEntity
  8
Ebene 1
370
     0
100
AcDbVertex
100
AcDb2dVertex
 10
578.7939453125
 20
29.1474609375
 30
0.0
  0
SEQEND
  5
5A6
330
5A3
100
AcDbEntity
  8
Ebene 1
370
     0
  0
POLYLINE
  5
5A7
330
3C
100
AcDbEntity
  8
Ebene 1
370
     0
100
AcDb2dPolyline
 66
     1
 10
0.0
 20
0.0
 30
0.0
  0
VERTEX
  5
5A8
330
5A7
100
AcDbEntity
  8
Ebene 1
370
     0
100
AcDbVertex
100
AcDb2dVertex
 10
621.9853515625
 20
29.1474609375
 30
0.0
  0
VERTEX
  5
5A9
330
5A7
100
AcDbEntity
  8
Ebene 1
370
     0
100
AcDbVertex
100
AcDb2dVertex
 10
590.44140625
 20
29.1474609375
 30
0.0
  0
SEQEND
  5
5AA
330
5A7
100
AcDbEntity
  8
Ebene 1
370
     0
  0
POLYLINE
  5
5AB
330
3C
100
AcDbEntity
  8
Ebene 1
370
     0
100
AcDb2dPolyline
 66
     1
 10
0.0
 20
0.0
 30
0.0
  0
VERTEX
  5
5AC
330
5AB
100
AcDbEntity
  8
Ebene 1
370
     0
100
AcDbVertex
100
AcDb2dVertex
 10
621.9853515625
 20
54.029296875
 30
0.0
  0
VERTEX
  5
5AD
330
5AB
100
AcDbEntity
  8
Ebene 1
370
     0
100
AcDbVertex
100
AcDb2dVertex
 10
578.7939453125
 20
54.029296875
 30
0.0
  0
SEQEND
  5
5AE
330
5AB
100
AcDbEntity
  8
Ebene 1
370
     0
  0
POLYLINE
  5
5AF
330
3C
100
AcDbEntity
  8
Ebene 1
370
     0
100
AcDb2dPolyline
 66
     1
 10
0.0
 20
0.0
 30
0.0
  0
VERTEX
  5
5B0
330
5AF
100
AcDbEntity
  8
Ebene 1
370
     0
100
AcDbVertex
100
AcDb2dVertex
 10
594.8974609375
 20
32.412109375
 30
0.0
  0
VERTEX
  5
5B1
330
5AF
100
AcDbEntity
  8
Ebene 1
370
     0
100
AcDbVertex
100
AcDb2dVertex
 10
612.279296875
 20
32.412109375
 30
0.0
  0
SEQEND
  5
5B2
330
5AF
100
AcDbEntity
  8
Ebene 1
370
     0
  0
POLYLINE
  5
5B3
330
3C
100
AcDbEntity
  8
Ebene 1
370
     0
100
AcDb2dPolyline
 66
     1
 10
0.0
 20
0.0
 30
0.0
  0
VERTEX
  5
5B4
330
5B3
100
AcDbEntity
  8
Ebene 1
370
     0
100
AcDbVertex
100
AcDb2dVertex
 10
588.5
 20
32.412109375
 30
0.0
  0
VERTEX
  5
5B5
330
5B3
100
AcDbEntity
  8
Ebene 1
370
     0
100
AcDbVertex
100
AcDb2dVertex
 10
594.8974609375
 20
32.412109375
 30
0.0
  0
SEQEND
  5
5B6
330
5B3
100
AcDbEntity
  8
Ebene 1
370
     0
  0
POLYLINE
  5
5B7
330
3C
100
AcDbEntity
  8
Ebene 1
370
     0
100
AcDb2dPolyline
 66
     1
 10
0.0
 20
0.0
 30
0.0
  0
VERTEX
  5
5B8
330
5B7
100
AcDbEntity
  8
Ebene 1
370
     0
100
AcDbVertex
100
AcDb2dVertex
 10
612.279296875
 20
41.05859375
 30
0.0
  0
VERTEX
  5
5B9
330
5B7
100
AcDbEntity
  8
Ebene 1
370
     0
100
AcDbVertex
100
AcDb2dVertex
 10
588.5
 20
41.05859375
 30
0.0
  0
SEQEND
  5
5BA
330
5B7
100
AcDbEntity
  8
Ebene 1
370
     0
  0
POLYLINE
  5
5BB
330
3C
100
AcDbEntity
  8
Ebene 1
370
     0
100
AcDb2dPolyline
 66
     1
 10
0.0
 20
0.0
 30
0.0
  0
VERTEX
  5
5BC
330
5BB
100
AcDbEntity
  8
Ebene 1
370
     0
100
AcDbVertex
100
AcDb2dVertex
 10
643.9560546875
 20
44.720703125
 30
0.0
  0
VERTEX
  5
5BD
330
5BB
100
AcDbEntity
  8
Ebene 1
370
     0
100
AcDbVertex
100
AcDb2dVertex
 10
631.8232421875
 20
44.720703125
 30
0.0
  0
SEQEND
  5
5BE
330
5BB
100
AcDbEntity
  8
Ebene 1
370
     0
  0
POLYLINE
  5
5BF
330
3C
100
AcDbEntity
  8
Ebene 1
370
     0
100
AcDb2dPolyline
 66
     1
 10
0.0
 20
0.0
 30
0.0
  0
VERTEX
  5
5C0
330
5BF
100
AcDbEntity
  8
Ebene 1
370
     0
100
AcDbVertex
100
AcDb2dVertex
 10
631.8232421875
 20
37.2646484375
 30
0.0
  0
VERTEX
  5
5C1
330
5BF
100
AcDbEntity
  8
Ebene 1
370
     0
100
AcDbVertex
100
AcDb2dVertex
 10
643.4267578125
 20
37.2646484375
 30
0.0
  0
SEQEND
  5
5C2
330
5BF
100
AcDbEntity
  8
Ebene 1
370
     0
  0
POLYLINE
  5
5C3
330
3C
100
AcDbEntity
  8
Ebene 1
370
     0
100
AcDb2dPolyline
 66
     1
 10
0.0
 20
0.0
 30
0.0
  0
VERTEX
  5
5C4
330
5C3
100
AcDbEntity
  8
Ebene 1
370
     0
100
AcDbVertex
100
AcDb2dVertex
 10
643.4267578125
 20
36.162109375
 30
0.0
  0
VERTEX
  5
5C5
330
5C3
100
AcDbEntity
  8
Ebene 1
370
     0
100
AcDbVertex
100
AcDb2dVertex
 10
631.8232421875
 20
36.162109375
 30
0.0
  0
SEQEND
  5
5C6
330
5C3
100
AcDbEntity
  8
Ebene 1
370
     0
  0
POLYLINE
  5
5C7
330
3C
100
AcDbEntity
  8
Ebene 1
370
     0
100
AcDb2dPolyline
 66
     1
 10
0.0
 20
0.0
 30
0.0
  0
VERTEX
  5
5C8
330
5C7
100
AcDbEntity
  8
Ebene 1
370
     0
100
AcDbVertex
100
AcDb2dVertex
 10
631.8232421875
 20
28.7060546875
 30
0.0
  0
VERTEX
  5
5C9
330
5C7
100
AcDbEntity
  8
Ebene 1
370
     0
100
AcDbVertex
100
AcDb2dVertex
 10
645.7646484375
 20
28.7060546875
 30
0.0
  0
SEQEND
  5
5CA
330
5C7
100
AcDbEntity
  8
Ebene 1
370
     0
  0
POLYLINE
  5
5CB
330
3C
100
AcDbEntity
  8
Ebene 1
370
     0
100
AcDb2dPolyline
 66
     1
 10
0.0
 20
0.0
 30
0.0
  0
VERTEX
  5
5CC
330
5CB
100
AcDbEntity
  8
Ebene 1
370
     0
100
AcDbVertex
100
AcDb2dVertex
 10
636.5
 20
17.05859375
 30
0.0
  0
VERTEX
  5
5CD
330
5CB
100
AcDbEntity
  8
Ebene 1
370
     0
100
AcDbVertex
100
AcDb2dVertex
 10
636.1474609375
 20
17.05859375
 30
0.0
  0
SEQEND
  5
5CE
330
5CB
100
AcDbEntity
  8
Ebene 1
370
     0
  0
POLYLINE
  5
5CF
330
3C
100
AcDbEntity
  8
Ebene 1
370
     0
100
AcDb2dPolyline
 66
     1
 10
0.0
 20
0.0
 30
0.0
  0
VERTEX
  5
5D0
330
5CF
100
AcDbEntity
  8
Ebene 1
370
     0
100
AcDbVertex
100
AcDb2dVertex
 10
645.7646484375
 20
17.05859375
 30
0.0
  0
VERTEX
  5
5D1
330
5CF
100
AcDbEntity
  8
Ebene 1
370
     0
100
AcDbVertex
100
AcDb2dVertex
 10
643.912109375
 20
17.05859375
 30
0.0
  0
SEQEND
  5
5D2
330
5CF
100
AcDbEntity
  8
Ebene 1
370
     0
  0
POLYLINE
  5
5D3
330
3C
100
AcDbEntity
  8
Ebene 1
370
     0
100
AcDb2dPolyline
 66
     1
 10
0.0
 20
0.0
 30
0.0
  0
VERTEX
  5
5D4
330
5D3
100
AcDbEntity
  8
Ebene 1
370
     0
100
AcDbVertex
100
AcDb2dVertex
 10
-145.0
 20
-1043.1328125
 30
0.0
  0
VERTEX
  5
5D5
330
5D3
100
AcDbEntity
  8
Ebene 1
370
     0
100
AcDbVertex
100
AcDb2dVertex
 10
-145.0
 20
-1043.1328125
 30
0.0
  0
SEQEND
  5
5D6
330
5D3
100
AcDbEntity
  8
Ebene 1
370
     0
  0
POLYLINE
  5
5D7
330
3C
100
AcDbEntity
  8
Ebene 1
370
     0
100
AcDb2dPolyline
 66
     1
 10
0.0
 20
0.0
 30
0.0
  0
VERTEX
  5
5D8
330
5D7
100
AcDbEntity
  8
Ebene 1
370
     0
100
AcDbVertex
100
AcDb2dVertex
 10
-145.0
 20
-1043.1328125
 30
0.0
  0
VERTEX
  5
5D9
330
5D7
100
AcDbEntity
  8
Ebene 1
370
     0
100
AcDbVertex
100
AcDb2dVertex
 10
-145.0
 20
-1043.1328125
 30
0.0
  0
SEQEND
  5
5DA
330
5D7
100
AcDbEntity
  8
Ebene 1
370
     0
  0
POLYLINE
  5
5DB
330
3C
100
AcDbEntity
  8
Ebene 1
370
     0
100
AcDb2dPolyline
 66
     1
 10
0.0
 20
0.0
 30
0.0
  0
VERTEX
  5
5DC
330
5DB
100
AcDbEntity
  8
Ebene 1
370
     0
100
AcDbVertex
100
AcDb2dVertex
 10
-145.0
 20
-1043.1328125
 30
0.0
  0
VERTEX
  5
5DD
330
5DB
100
AcDbEntity
  8
Ebene 1
370
     0
100
AcDbVertex
100
AcDb2dVertex
 10
-145.0
 20
-1043.1328125
 30
0.0
  0
SEQEND
  5
5DE
330
5DB
100
AcDbEntity
  8
Ebene 1
370
     0
  0
POLYLINE
  5
5DF
330
3C
100
AcDbEntity
  8
Ebene 1
370
     0
100
AcDb2dPolyline
 66
     1
 10
0.0
 20
0.0
 30
0.0
  0
VERTEX
  5
5E0
330
5DF
100
AcDbEntity
  8
Ebene 1
370
     0
100
AcDbVertex
100
AcDb2dVertex
 10
-139.35302734375
 20
1834.0
 30
0.0
  0
VERTEX
  5
5E1
330
5DF
100
AcDbEntity
  8
Ebene 1
370
     0
100
AcDbVertex
100
AcDb2dVertex
 10
-139.35302734375
 20
1834.0
 30
0.0
  0
SEQEND
  5
5E2
330
5DF
100
AcDbEntity
  8
Ebene 1
370
     0
  0
POLYLINE
  5
5E3
330
3C
100
AcDbEntity
  8
Ebene 1
370
     0
100
AcDb2dPolyline
 66
     1
 10
0.0
 20
0.0
 30
0.0
  0
VERTEX
  5
5E4
330
5E3
100
AcDbEntity
  8
Ebene 1
370
     0
100
AcDbVertex
100
AcDb2dVertex
 10
645.80859375
 20
52.6171875
 30
0.0
  0
VERTEX
  5
5E5
330
5E3
100
AcDbEntity
  8
Ebene 1
370
     0
100
AcDbVertex
100
AcDb2dVertex
 10
645.7646484375
 20
52.44140625
 30
0.0
  0
SEQEND
  5
5E6
330
5E3
100
AcDbEntity
  8
Ebene 1
370
     0
  0
POLYLINE
  5
5E7
330
3C
100
AcDbEntity
  8
Ebene 1
370
     0
100
AcDb2dPolyline
 66
     1
 10
0.0
 20
0.0
 30
0.0
  0
VERTEX
  5
5E8
330
5E7
100
AcDbEntity
  8
Ebene 1
370
     0
100
AcDbVertex
100
AcDb2dVertex
 10
-145.0
 20
-1043.1328125
 30
0.0
  0
VERTEX
  5
5E9
330
5E7
100
AcDbEntity
  8
Ebene 1
370
     0
100
AcDbVertex
100
AcDb2dVertex
 10
-145.0
 20
-1043.1328125
 30
0.0
  0
SEQEND
  5
5EA
330
5E7
100
AcDbEntity
  8
Ebene 1
370
     0
  0
POLYLINE
  5
5EB
330
3C
100
AcDbEntity
  8
Ebene 1
370
     0
100
AcDb2dPolyline
 66
     1
 10
0.0
 20
0.0
 30
0.0
  0
VERTEX
  5
5EC
330
5EB
100
AcDbEntity
  8
Ebene 1
370
     0
100
AcDbVertex
100
AcDb2dVertex
 10
645.587890625
 20
32.5439453125
 30
0.0
  0
VERTEX
  5
5ED
330
5EB
100
AcDbEntity
  8
Ebene 1
370
     0
100
AcDbVertex
100
AcDb2dVertex
 10
645.3232421875
 20
32.5439453125
 30
0.0
  0
SEQEND
  5
5EE
330
5EB
100
AcDbEntity
  8
Ebene 1
370
     0
  0
POLYLINE
  5
5EF
330
3C
100
AcDbEntity
  8
Ebene 1
370
     0
100
AcDb2dPolyline
 66
     1
 10
0.0
 20
0.0
 30
0.0
  0
VERTEX
  5
5F0
330
5EF
100
AcDbEntity
  8
Ebene 1
370
     0
100
AcDbVertex
100
AcDb2dVertex
 10
643.4267578125
 20
29.5439453125
 30
0.0
  0
VERTEX
  5
5F1
330
5EF
100
AcDbEntity
  8
Ebene 1
370
     0
100
AcDbVertex
100
AcDb2dVertex
 10
644.44140625
 20
29.5439453125
 30
0.0
  0
SEQEND
  5
5F2
330
5EF
100
AcDbEntity
  8
Ebene 1
370
     0
  0
POLYLINE
  5
5F3
330
3C
100
AcDbEntity
  8
Ebene 1
370
     0
100
AcDb2dPolyline
 66
     1
 10
0.0
 20
0.0
 30
0.0
  0
VERTEX
  5
5F4
330
5F3
100
AcDbEntity
  8
Ebene 1
370
     0
100
AcDbVertex
100
AcDb2dVertex
 10
643.8671875
 20
43.8828125
 30
0.0
  0
VERTEX
  5
5F5
330
5F3
100
AcDbEntity
  8
Ebene 1
370
     0
100
AcDbVertex
100
AcDb2dVertex
 10
643.4267578125
 20
43.8828125
 30
0.0
  0
SEQEND
  5
5F6
330
5F3
100
AcDbEntity
  8
Ebene 1
370
     0
  0
POLYLINE
  5
5F7
330
3C
100
AcDbEntity
  8
Ebene 1
370
     0
100
AcDb2dPolyline
 66
     1
 10
0.0
 20
0.0
 30
0.0
  0
VERTEX
  5
5F8
330
5F7
100
AcDbEntity
  8
Ebene 1
370
     0
100
AcDbVertex
100
AcDb2dVertex
 10
643.912109375
 20
45.5146484375
 30
0.0
  0
VERTEX
  5
5F9
330
5F7
100
AcDbEntity
  8
Ebene 1
370
     0
100
AcDbVertex
100
AcDb2dVertex
 10
643.912109375
 20
44.7646484375
 30
0.0
  0
SEQEND
  5
5FA
330
5F7
100
AcDbEntity
  8
Ebene 1
370
     0
  0
POLYLINE
  5
5FB
330
3C
100
AcDbEntity
  8
Ebene 1
370
     0
100
AcDb2dPolyline
 66
     1
 10
0.0
 20
0.0
 30
0.0
  0
VERTEX
  5
5FC
330
5FB
100
AcDbEntity
  8
Ebene 1
370
     0
100
AcDbVertex
100
AcDb2dVertex
 10
644.44140625
 20
33.0732421875
 30
0.0
  0
VERTEX
  5
5FD
330
5FB
100
AcDbEntity
  8
Ebene 1
370
     0
100
AcDbVertex
100
AcDb2dVertex
 10
644.30859375
 20
33.0732421875
 30
0.0
  0
VERTEX
  5
5FE
330
5FB
100
AcDbEntity
  8
Ebene 1
370
     0
100
AcDbVertex
100
AcDb2dVertex
 10
644.1767578125
 20
34.0439453125
 30
0.0
  0
VERTEX
  5
5FF
330
5FB
100
AcDbEntity
  8
Ebene 1
370
     0
100
AcDbVertex
100
AcDb2dVertex
 10
644.0439453125
 20
35.94140625
 30
0.0
  0
VERTEX
  5
600
330
5FB
100
AcDbEntity
  8
Ebene 1
370
     0
100
AcDbVertex
100
AcDb2dVertex
 10
643.9560546875
 20
38.5
 30
0.0
  0
SEQEND
  5
601
330
5FB
100
AcDbEntity
  8
Ebene 1
370
     0
  0
POLYLINE
  5
602
330
3C
100
AcDbEntity
  8
Ebene 1
370
     0
100
AcDb2dPolyline
 66
     1
 10
0.0
 20
0.0
 30
0.0
  0
VERTEX
  5
603
330
602
100
AcDbEntity
  8
Ebene 1
370
     0
100
AcDbVertex
100
AcDb2dVertex
 10
645.7646484375
 20
30.6474609375
 30
0.0
  0
VERTEX
  5
604
330
602
100
AcDbEntity
  8
Ebene 1
370
     0
100
AcDbVertex
100
AcDb2dVertex
 10
645.1025390625
 20
30.69140625
 30
0.0
  0
SEQEND
  5
605
330
602
100
AcDbEntity
  8
Ebene 1
370
     0
  0
POLYLINE
  5
606
330
3C
100
AcDbEntity
  8
Ebene 1
370
     0
100
AcDb2dPolyline
 66
     1
 10
0.0
 20
0.0
 30
0.0
  0
VERTEX
  5
607
330
606
100
AcDbEntity
  8
Ebene 1
370
     0
100
AcDbVertex
100
AcDb2dVertex
 10
644.44140625
 20
33.0732421875
 30
0.0
  0
VERTEX
  5
608
330
606
100
AcDbEntity
  8
Ebene 1
370
     0
100
AcDbVertex
100
AcDb2dVertex
 10
644.44140625
 20
33.162109375
 30
0.0
  0
SEQEND
  5
609
330
606
100
AcDbEntity
  8
Ebene 1
370
     0
  0
POLYLINE
  5
60A
330
3C
100
AcDbEntity
  8
Ebene 1
370
     0
100
AcDb2dPolyline
 66
     1
 10
0.0
 20
0.0
 30
0.0
  0
VERTEX
  5
60B
330
60A
100
AcDbEntity
  8
Ebene 1
370
     0
100
AcDbVertex
100
AcDb2dVertex
 10
645.7646484375
 20
29.8525390625
 30
0.0
  0
VERTEX
  5
60C
330
60A
100
AcDbEntity
  8
Ebene 1
370
     0
100
AcDbVertex
100
AcDb2dVertex
 10
644.8828125
 20
29.279296875
 30
0.0
  0
SEQEND
  5
60D
330
60A
100
AcDbEntity
  8
Ebene 1
370
     0
  0
POLYLINE
  5
60E
330
3C
100
AcDbEntity
  8
Ebene 1
370
     0
100
AcDb2dPolyline
 66
     1
 10
0.0
 20
0.0
 30
0.0
  0
VERTEX
  5
60F
330
60E
100
AcDbEntity
  8
Ebene 1
370
     0
100
AcDbVertex
100
AcDb2dVertex
 10
644.7939453125
 20
29.1474609375
 30
0.0
  0
VERTEX
  5
610
330
60E
100
AcDbEntity
  8
Ebene 1
370
     0
100
AcDbVertex
100
AcDb2dVertex
 10
645.7646484375
 20
28.9267578125
 30
0.0
  0
SEQEND
  5
611
330
60E
100
AcDbEntity
  8
Ebene 1
370
     0
  0
POLYLINE
  5
612
330
3C
100
AcDbEntity
  8
Ebene 1
370
     0
100
AcDb2dPolyline
 66
     1
 10
0.0
 20
0.0
 30
0.0
  0
VERTEX
  5
613
330
612
100
AcDbEntity
  8
Ebene 1
370
     0
100
AcDbVertex
100
AcDb2dVertex
 10
644.7939453125
 20
29.1474609375
 30
0.0
  0
VERTEX
  5
614
330
612
100
AcDbEntity
  8
Ebene 1
370
     0
100
AcDbVertex
100
AcDb2dVertex
 10
643.779296875
 20
29.1474609375
 30
0.0
  0
SEQEND
  5
615
330
612
100
AcDbEntity
  8
Ebene 1
370
     0
  0
POLYLINE
  5
616
330
3C
100
AcDbEntity
  8
Ebene 1
370
     0
100
AcDb2dPolyline
 66
     1
 10
0.0
 20
0.0
 30
0.0
  0
VERTEX
  5
617
330
616
100
AcDbEntity
  8
Ebene 1
370
     0
100
AcDbVertex
100
AcDb2dVertex
 10
645.587890625
 20
28.75
 30
0.0
  0
VERTEX
  5
618
330
616
100
AcDbEntity
  8
Ebene 1
370
     0
100
AcDbVertex
100
AcDb2dVertex
 10
645.7646484375
 20
28.75
 30
0.0
  0
SEQEND
  5
619
330
616
100
AcDbEntity
  8
Ebene 1
370
     0
  0
POLYLINE
  5
61A
330
3C
100
AcDbEntity
  8
Ebene 1
370
     0
100
AcDb2dPolyline
 66
     1
 10
0.0
 20
0.0
 30
0.0
  0
VERTEX
  5
61B
330
61A
100
AcDbEntity
  8
Ebene 1
370
     0
100
AcDbVertex
100
AcDb2dVertex
 10
-145.0
 20
-1043.1328125
 30
0.0
  0
VERTEX
  5
61C
330
61A
100
AcDbEntity
  8
Ebene 1
370
     0
100
AcDbVertex
100
AcDb2dVertex
 10
-145.0
 20
-1043.1328125
 30
0.0
  0
SEQEND
  5
61D
330
61A
100
AcDbEntity
  8
Ebene 1
370
     0
  0
POLYLINE
  5
61E
330
3C
100
AcDbEntity
  8
Ebene 1
370
     0
100
AcDb2dPolyline
 66
     1
 10
0.0
 20
0.0
 30
0.0
  0
VERTEX
  5
61F
330
61E
100
AcDbEntity
  8
Ebene 1
370
     0
100
AcDbVertex
100
AcDb2dVertex
 10
643.8671875
 20
44.0146484375
 30
0.0
  0
VERTEX
  5
620
330
61E
100
AcDbEntity
  8
Ebene 1
370
     0
100
AcDbVertex
100
AcDb2dVertex
 10
643.8671875
 20
43.970703125
 30
0.0
  0
VERTEX
  5
621
330
61E
100
AcDbEntity
  8
Ebene 1
370
     0
100
AcDbVertex
100
AcDb2dVertex
 10
643.8671875
 20
43.8828125
 30
0.0
  0
SEQEND
  5
622
330
61E
100
AcDbEntity
  8
Ebene 1
370
     0
  0
POLYLINE
  5
623
330
3C
100
AcDbEntity
  8
Ebene 1
370
     0
100
AcDb2dPolyline
 66
     1
 10
0.0
 20
0.0
 30
0.0
  0
VERTEX
  5
624
330
623
100
AcDbEntity
  8
Ebene 1
370
     0
100
AcDbVertex
100
AcDb2dVertex
 10
621.9853515625
 20
19.3974609375
 30
0.0
  0
VERTEX
  5
625
330
623
100
AcDbEntity
  8
Ebene 1
370
     0
100
AcDbVertex
100
AcDb2dVertex
 10
621.9853515625
 20
29.1474609375
 30
0.0
  0
SEQEND
  5
626
330
623
100
AcDbEntity
  8
Ebene 1
370
     0
  0
POLYLINE
  5
627
330
3C
100
AcDbEntity
  8
Ebene 1
370
     0
100
AcDb2dPolyline
 66
     1
 10
0.0
 20
0.0
 30
0.0
  0
VERTEX
  5
628
330
627
100
AcDbEntity
  8
Ebene 1
370
     0
100
AcDbVertex
100
AcDb2dVertex
 10
621.9853515625
 20
44.279296875
 30
0.0
  0
VERTEX
  5
629
330
627
100
AcDbEntity
  8
Ebene 1
370
     0
100
AcDbVertex
100
AcDb2dVertex
 10
621.9853515625
 20
54.029296875
 30
0.0
  0
SEQEND
  5
62A
330
627
100
AcDbEntity
  8
Ebene 1
370
     0
  0
POLYLINE
  5
62B
330
3C
100
AcDbEntity
  8
Ebene 1
370
     0
100
AcDb2dPolyline
 66
     1
 10
0.0
 20
0.0
 30
0.0
  0
VERTEX
  5
62C
330
62B
100
AcDbEntity
  8
Ebene 1
370
     0
100
AcDbVertex
100
AcDb2dVertex
 10
578.7939453125
 20
54.029296875
 30
0.0
  0
VERTEX
  5
62D
330
62B
100
AcDbEntity
  8
Ebene 1
370
     0
100
AcDbVertex
100
AcDb2dVertex
 10
578.7939453125
 20
44.279296875
 30
0.0
  0
SEQEND
  5
62E
330
62B
100
AcDbEntity
  8
Ebene 1
370
     0
  0
POLYLINE
  5
62F
330
3C
100
AcDbEntity
  8
Ebene 1
370
     0
100
AcDb2dPolyline
 66
     1
 10
0.0
 20
0.0
 30
0.0
  0
VERTEX
  5
630
330
62F
100
AcDbEntity
  8
Ebene 1
370
     0
100
AcDbVertex
100
AcDb2dVertex
 10
578.7939453125
 20
29.1474609375
 30
0.0
  0
VERTEX
  5
631
330
62F
100
AcDbEntity
  8
Ebene 1
370
     0
100
AcDbVertex
100
AcDb2dVertex
 10
578.7939453125
 20
19.3974609375
 30
0.0
  0
SEQEND
  5
632
330
62F
100
AcDbEntity
  8
Ebene 1
370
     0
  0
POLYLINE
  5
633
330
3C
100
AcDbEntity
  8
Ebene 1
370
     0
100
AcDb2dPolyline
 66
     1
 10
0.0
 20
0.0
 30
0.0
  0
VERTEX
  5
634
330
633
100
AcDbEntity
  8
Ebene 1
370
     0
100
AcDbVertex
100
AcDb2dVertex
 10
580.9560546875
 20
56.19140625
 30
0.0
  0
VERTEX
  5
635
330
633
100
AcDbEntity
  8
Ebene 1
370
     0
100
AcDbVertex
100
AcDb2dVertex
 10
580.470703125
 20
56.1474609375
 30
0.0
  0
VERTEX
  5
636
330
633
100
AcDbEntity
  8
Ebene 1
370
     0
100
AcDbVertex
100
AcDb2dVertex
 10
580.029296875
 20
55.970703125
 30
0.0
  0
VERTEX
  5
637
330
633
100
AcDbEntity
  8
Ebene 1
370
     0
100
AcDbVertex
100
AcDb2dVertex
 10
579.6328125
 20
55.7060546875
 30
0.0
  0
VERTEX
  5
638
330
633
100
AcDbEntity
  8
Ebene 1
370
     0
100
AcDbVertex
100
AcDb2dVertex
 10
579.279296875
 20
55.3974609375
 30
0.0
  0
VERTEX
  5
639
330
633
100
AcDbEntity
  8
Ebene 1
370
     0
100
AcDbVertex
100
AcDb2dVertex
 10
579.05859375
 20
54.9560546875
 30
0.0
  0
VERTEX
  5
63A
330
633
100
AcDbEntity
  8
Ebene 1
370
     0
100
AcDbVertex
100
AcDb2dVertex
 10
578.8828125
 20
54.5146484375
 30
0.0
  0
VERTEX
  5
63B
330
633
100
AcDbEntity
  8
Ebene 1
370
     0
100
AcDbVertex
100
AcDb2dVertex
 10
578.837890625
 20
54.029296875
 30
0.0
  0
SEQEND
  5
63C
330
633
100
AcDbEntity
  8
Ebene 1
370
     0
  0
POLYLINE
  5
63D
330
3C
100
AcDbEntity
  8
Ebene 1
370
     0
100
AcDb2dPolyline
 66
     1
 10
0.0
 20
0.0
 30
0.0
  0
VERTEX
  5
63E
330
63D
100
AcDbEntity
  8
Ebene 1
370
     0
100
AcDbVertex
100
AcDb2dVertex
 10
621.94140625
 20
54.029296875
 30
0.0
  0
VERTEX
  5
63F
330
63D
100
AcDbEntity
  8
Ebene 1
370
     0
100
AcDbVertex
100
AcDb2dVertex
 10
621.8974609375
 20
54.5146484375
 30
0.0
  0
VERTEX
  5
640
330
63D
100
AcDbEntity
  8
Ebene 1
370
     0
100
AcDbVertex
100
AcDb2dVertex
 10
621.720703125
 20
54.9560546875
 30
0.0
  0
VERTEX
  5
641
330
63D
100
AcDbEntity
  8
Ebene 1
370
     0
100
AcDbVertex
100
AcDb2dVertex
 10
621.5
 20
55.3974609375
 30
0.0
  0
VERTEX
  5
642
330
63D
100
AcDbEntity
  8
Ebene 1
370
     0
100
AcDbVertex
100
AcDb2dVertex
 10
621.1474609375
 20
55.7060546875
 30
0.0
  0
VERTEX
  5
643
330
63D
100
AcDbEntity
  8
Ebene 1
370
     0
100
AcDbVertex
100
AcDb2dVertex
 10
620.75
 20
55.970703125
 30
0.0
  0
VERTEX
  5
644
330
63D
100
AcDbEntity
  8
Ebene 1
370
     0
100
AcDbVertex
100
AcDb2dVertex
 10
620.30859375
 20
56.1474609375
 30
0.0
  0
VERTEX
  5
645
330
63D
100
AcDbEntity
  8
Ebene 1
370
     0
100
AcDbVertex
100
AcDb2dVertex
 10
619.8232421875
 20
56.19140625
 30
0.0
  0
SEQEND
  5
646
330
63D
100
AcDbEntity
  8
Ebene 1
370
     0
  0
POLYLINE
  5
647
330
3C
100
AcDbEntity
  8
Ebene 1
370
     0
100
AcDb2dPolyline
 66
     1
 10
0.0
 20
0.0
 30
0.0
  0
VERTEX
  5
648
330
647
100
AcDbEntity
  8
Ebene 1
370
     0
100
AcDbVertex
100
AcDb2dVertex
 10
578.837890625
 20
19.3974609375
 30
0.0
  0
VERTEX
  5
649
330
647
100
AcDbEntity
  8
Ebene 1
370
     0
100
AcDbVertex
100
AcDb2dVertex
 10
578.9267578125
 20
18.8232421875
 30
0.0
  0
VERTEX
  5
64A
330
647
100
AcDbEntity
  8
Ebene 1
370
     0
100
AcDbVertex
100
AcDb2dVertex
 10
579.1025390625
 20
18.337890625
 30
0.0
  0
VERTEX
  5
64B
330
647
100
AcDbEntity
  8
Ebene 1
370
     0
100
AcDbVertex
100
AcDb2dVertex
 10
579.4560546875
 20
17.8525390625
 30
0.0
  0
VERTEX
  5
64C
330
647
100
AcDbEntity
  8
Ebene 1
370
     0
100
AcDbVertex
100
AcDb2dVertex
 10
579.8974609375
 20
17.5439453125
 30
0.0
  0
VERTEX
  5
64D
330
647
100
AcDbEntity
  8
Ebene 1
370
     0
100
AcDbVertex
100
AcDb2dVertex
 10
580.4267578125
 20
17.3232421875
 30
0.0
  0
VERTEX
  5
64E
330
647
100
AcDbEntity
  8
Ebene 1
370
     0
100
AcDbVertex
100
AcDb2dVertex
 10
580.9560546875
 20
17.2353515625
 30
0.0
  0
SEQEND
  5
64F
330
647
100
AcDbEntity
  8
Ebene 1
370
     0
  0
POLYLINE
  5
650
330
3C
100
AcDbEntity
  8
Ebene 1
370
     0
100
AcDb2dPolyline
 66
     1
 10
0.0
 20
0.0
 30
0.0
  0
VERTEX
  5
651
330
650
100
AcDbEntity
  8
Ebene 1
370
     0
100
AcDbVertex
100
AcDb2dVertex
 10
619.8232421875
 20
17.2353515625
 30
0.0
  0
VERTEX
  5
652
330
650
100
AcDbEntity
  8
Ebene 1
370
     0
100
AcDbVertex
100
AcDb2dVertex
 10
620.30859375
 20
17.279296875
 30
0.0
  0
VERTEX
  5
653
330
650
100
AcDbEntity
  8
Ebene 1
370
     0
100
AcDbVertex
100
AcDb2dVertex
 10
620.75
 20
17.4560546875
 30
0.0
  0
VERTEX
  5
654
330
650
100
AcDbEntity
  8
Ebene 1
370
     0
100
AcDbVertex
100
AcDb2dVertex
 10
621.1474609375
 20
17.720703125
 30
0.0
  0
VERTEX
  5
655
330
650
100
AcDbEntity
  8
Ebene 1
370
     0
100
AcDbVertex
100
AcDb2dVertex
 10
621.5
 20
18.029296875
 30
0.0
  0
VERTEX
  5
656
330
650
100
AcDbEntity
  8
Ebene 1
370
     0
100
AcDbVertex
100
AcDb2dVertex
 10
621.720703125
 20
18.470703125
 30
0.0
  0
VERTEX
  5
657
330
650
100
AcDbEntity
  8
Ebene 1
370
     0
100
AcDbVertex
100
AcDb2dVertex
 10
621.8974609375
 20
18.912109375
 30
0.0
  0
VERTEX
  5
658
330
650
100
AcDbEntity
  8
Ebene 1
370
     0
100
AcDbVertex
100
AcDb2dVertex
 10
621.94140625
 20
19.3974609375
 30
0.0
  0
SEQEND
  5
659
330
650
100
AcDbEntity
  8
Ebene 1
370
     0
  0
POLYLINE
  5
65A
330
3C
100
AcDbEntity
  8
Ebene 1
370
     0
100
AcDb2dPolyline
 66
     1
 10
0.0
 20
0.0
 30
0.0
  0
VERTEX
  5
65B
330
65A
100
AcDbEntity
  8
Ebene 1
370
     0
100
AcDbVertex
100
AcDb2dVertex
 10
580.9560546875
 20
56.19140625
 30
0.0
  0
VERTEX
  5
65C
330
65A
100
AcDbEntity
  8
Ebene 1
370
     0
100
AcDbVertex
100
AcDb2dVertex
 10
619.8232421875
 20
56.19140625
 30
0.0
  0
SEQEND
  5
65D
330
65A
100
AcDbEntity
  8
Ebene 1
370
     0
  0
POLYLINE
  5
65E
330
3C
100
AcDbEntity
  8
Ebene 1
370
     0
100
AcDb2dPolyline
 66
     1
 10
0.0
 20
0.0
 30
0.0
  0
VERTEX
  5
65F
330
65E
100
AcDbEntity
  8
Ebene 1
370
     0
100
AcDbVertex
100
AcDb2dVertex
 10
619.8232421875
 20
17.2353515625
 30
0.0
  0
VERTEX
  5
660
330
65E
100
AcDbEntity
  8
Ebene 1
370
     0
100
AcDbVertex
100
AcDb2dVertex
 10
580.9560546875
 20
17.2353515625
 30
0.0
  0
SEQEND
  5
661
330
65E
100
AcDbEntity
  8
Ebene 1
370
     0
  0
POLYLINE
  5
662
330
3C
100
AcDbEntity
  8
Ebene 1
370
     0
100
AcDb2dPolyline
 66
     1
 10
0.0
 20
0.0
 30
0.0
  0
VERTEX
  5
663
330
662
100
AcDbEntity
  8
Ebene 1
370
     0
100
AcDbVertex
100
AcDb2dVertex
 10
578.7939453125
 20
19.3974609375
 30
0.0
  0
VERTEX
  5
664
330
662
100
AcDbEntity
  8
Ebene 1
370
     0
100
AcDbVertex
100
AcDb2dVertex
 10
621.9853515625
 20
19.3974609375
 30
0.0
  0
SEQEND
  5
665
330
662
100
AcDbEntity
  8
Ebene 1
370
     0
  0
POLYLINE
  5
666
330
3C
100
AcDbEntity
  8
Ebene 1
370
     0
100
AcDb2dPolyline
 66
     1
 10
0.0
 20
0.0
 30
0.0
  0
VERTEX
  5
667
330
666
100
AcDbEntity
  8
Ebene 1
370
     0
100
AcDbVertex
100
AcDb2dVertex
 10
621.9853515625
 20
54.029296875
 30
0.0
  0
VERTEX
  5
668
330
666
100
AcDbEntity
  8
Ebene 1
370
     0
100
AcDbVertex
100
AcDb2dVertex
 10
578.7939453125
 20
54.029296875
 30
0.0
  0
SEQEND
  5
669
330
666
100
AcDbEntity
  8
Ebene 1
370
     0
  0
POLYLINE
  5
66A
330
3C
100
AcDbEntity
  8
Ebene 1
370
     0
100
AcDb2dPolyline
 66
     1
 10
0.0
 20
0.0
 30
0.0
  0
VERTEX
  5
66B
330
66A
100
AcDbEntity
  8
Ebene 1
370
     0
100
AcDbVertex
100
AcDb2dVertex
 10
580.9560546875
 20
42.1171875
 30
0.0
  0
VERTEX
  5
66C
330
66A
100
AcDbEntity
  8
Ebene 1
370
     0
100
AcDbVertex
100
AcDb2dVertex
 10
619.8232421875
 20
42.1171875
 30
0.0
  0
SEQEND
  5
66D
330
66A
100
AcDbEntity
  8
Ebene 1
370
     0
  0
POLYLINE
  5
66E
330
3C
100
AcDbEntity
  8
Ebene 1
370
     0
100
AcDb2dPolyline
 66
     1
 10
0.0
 20
0.0
 30
0.0
  0
VERTEX
  5
66F
330
66E
100
AcDbEntity
  8
Ebene 1
370
     0
100
AcDbVertex
100
AcDb2dVertex
 10
580.912109375
 20
31.30859375
 30
0.0
  0
VERTEX
  5
670
330
66E
100
AcDbEntity
  8
Ebene 1
370
     0
100
AcDbVertex
100
AcDb2dVertex
 10
619.8232421875
 20
31.30859375
 30
0.0
  0
SEQEND
  5
671
330
66E
100
AcDbEntity
  8
Ebene 1
370
     0
  0
POLYLINE
  5
672
330
3C
100
AcDbEntity
  8
Ebene 1
370
     0
100
AcDb2dPolyline
 66
     1
 10
0.0
 20
0.0
 30
0.0
  0
VERTEX
  5
673
330
672
100
AcDbEntity
  8
Ebene 1
370
     0
100
AcDbVertex
100
AcDb2dVertex
 10
588.5
 20
42.1171875
 30
0.0
  0
VERTEX
  5
674
330
672
100
AcDbEntity
  8
Ebene 1
370
     0
100
AcDbVertex
100
AcDb2dVertex
 10
588.5
 20
31.30859375
 30
0.0
  0
SEQEND
  5
675
330
672
100
AcDbEntity
  8
Ebene 1
370
     0
  0
POLYLINE
  5
676
330
3C
100
AcDbEntity
  8
Ebene 1
370
     0
100
AcDb2dPolyline
 66
     1
 10
0.0
 20
0.0
 30
0.0
  0
VERTEX
  5
677
330
676
100
AcDbEntity
  8
Ebene 1
370
     0
100
AcDbVertex
100
AcDb2dVertex
 10
612.279296875
 20
42.1171875
 30
0.0
  0
VERTEX
  5
678
330
676
100
AcDbEntity
  8
Ebene 1
370
     0
100
AcDbVertex
100
AcDb2dVertex
 10
612.279296875
 20
31.30859375
 30
0.0
  0
SEQEND
  5
679
330
676
100
AcDbEntity
  8
Ebene 1
370
     0
  0
POLYLINE
  5
67A
330
3C
100
AcDbEntity
  8
Ebene 1
370
     0
100
AcDb2dPolyline
 66
     1
 10
0.0
 20
0.0
 30
0.0
  0
VERTEX
  5
67B
330
67A
100
AcDbEntity
  8
Ebene 1
370
     0
100
AcDbVertex
100
AcDb2dVertex
 10
578.837890625
 20
44.279296875
 30
0.0
  0
VERTEX
  5
67C
330
67A
100
AcDbEntity
  8
Ebene 1
370
     0
100
AcDbVertex
100
AcDb2dVertex
 10
578.9267578125
 20
43.7060546875
 30
0.0
  0
VERTEX
  5
67D
330
67A
100
AcDbEntity
  8
Ebene 1
370
     0
100
AcDbVertex
100
AcDb2dVertex
 10
579.1025390625
 20
43.220703125
 30
0.0
  0
VERTEX
  5
67E
330
67A
100
AcDbEntity
  8
Ebene 1
370
     0
100
AcDbVertex
100
AcDb2dVertex
 10
579.4560546875
 20
42.7353515625
 30
0.0
  0
VERTEX
  5
67F
330
67A
100
AcDbEntity
  8
Ebene 1
370
     0
100
AcDbVertex
100
AcDb2dVertex
 10
579.8974609375
 20
42.4267578125
 30
0.0
  0
VERTEX
  5
680
330
67A
100
AcDbEntity
  8
Ebene 1
370
     0
100
AcDbVertex
100
AcDb2dVertex
 10
580.4267578125
 20
42.2060546875
 30
0.0
  0
VERTEX
  5
681
330
67A
100
AcDbEntity
  8
Ebene 1
370
     0
100
AcDbVertex
100
AcDb2dVertex
 10
580.9560546875
 20
42.1171875
 30
0.0
  0
SEQEND
  5
682
330
67A
100
AcDbEntity
  8
Ebene 1
370
     0
  0
POLYLINE
  5
683
330
3C
100
AcDbEntity
  8
Ebene 1
370
     0
100
AcDb2dPolyline
 66
     1
 10
0.0
 20
0.0
 30
0.0
  0
VERTEX
  5
684
330
683
100
AcDbEntity
  8
Ebene 1
370
     0
100
AcDbVertex
100
AcDb2dVertex
 10
619.8232421875
 20
42.1171875
 30
0.0
  0
VERTEX
  5
685
330
683
100
AcDbEntity
  8
Ebene 1
370
     0
100
AcDbVertex
100
AcDb2dVertex
 10
620.30859375
 20
42.162109375
 30
0.0
  0
VERTEX
  5
686
330
683
100
AcDbEntity
  8
Ebene 1
370
     0
100
AcDbVertex
100
AcDb2dVertex
 10
620.75
 20
42.337890625
 30
0.0
  0
VERTEX
  5
687
330
683
100
AcDbEntity
  8
Ebene 1
370
     0
100
AcDbVertex
100
AcDb2dVertex
 10
621.1474609375
 20
42.6025390625
 30
0.0
  0
VERTEX
  5
688
330
683
100
AcDbEntity
  8
Ebene 1
370
     0
100
AcDbVertex
100
AcDb2dVertex
 10
621.5
 20
42.912109375
 30
0.0
  0
VERTEX
  5
689
330
683
100
AcDbEntity
  8
Ebene 1
370
     0
100
AcDbVertex
100
AcDb2dVertex
 10
621.720703125
 20
43.3525390625
 30
0.0
  0
VERTEX
  5
68A
330
683
100
AcDbEntity
  8
Ebene 1
370
     0
100
AcDbVertex
100
AcDb2dVertex
 10
621.8974609375
 20
43.7939453125
 30
0.0
  0
VERTEX
  5
68B
330
683
100
AcDbEntity
  8
Ebene 1
370
     0
100
AcDbVertex
100
AcDb2dVertex
 10
621.94140625
 20
44.279296875
 30
0.0
  0
SEQEND
  5
68C
330
683
100
AcDbEntity
  8
Ebene 1
370
     0
  0
POLYLINE
  5
68D
330
3C
100
AcDbEntity
  8
Ebene 1
370
     0
100
AcDb2dPolyline
 66
     1
 10
0.0
 20
0.0
 30
0.0
  0
VERTEX
  5
68E
330
68D
100
AcDbEntity
  8
Ebene 1
370
     0
100
AcDbVertex
100
AcDb2dVertex
 10
621.9853515625
 20
44.279296875
 30
0.0
  0
VERTEX
  5
68F
330
68D
100
AcDbEntity
  8
Ebene 1
370
     0
100
AcDbVertex
100
AcDb2dVertex
 10
578.7939453125
 20
44.279296875
 30
0.0
  0
SEQEND
  5
690
330
68D
100
AcDbEntity
  8
Ebene 1
370
     0
  0
POLYLINE
  5
691
330
3C
100
AcDbEntity
  8
Ebene 1
370
     0
100
AcDb2dPolyline
 66
     1
 10
0.0
 20
0.0
 30
0.0
  0
VERTEX
  5
692
330
691
100
AcDbEntity
  8
Ebene 1
370
     0
100
AcDbVertex
100
AcDb2dVertex
 10
580.9560546875
 20
31.30859375
 30
0.0
  0
VERTEX
  5
693
330
691
100
AcDbEntity
  8
Ebene 1
370
     0
100
AcDbVertex
100
AcDb2dVertex
 10
580.470703125
 20
31.2646484375
 30
0.0
  0
VERTEX
  5
694
330
691
100
AcDbEntity
  8
Ebene 1
370
     0
100
AcDbVertex
100
AcDb2dVertex
 10
580.029296875
 20
31.087890625
 30
0.0
  0
VERTEX
  5
695
330
691
100
AcDbEntity
  8
Ebene 1
370
     0
100
AcDbVertex
100
AcDb2dVertex
 10
579.6328125
 20
30.8232421875
 30
0.0
  0
VERTEX
  5
696
330
691
100
AcDbEntity
  8
Ebene 1
370
     0
100
AcDbVertex
100
AcDb2dVertex
 10
579.279296875
 20
30.5146484375
 30
0.0
  0
VERTEX
  5
697
330
691
100
AcDbEntity
  8
Ebene 1
370
     0
100
AcDbVertex
100
AcDb2dVertex
 10
579.05859375
 20
30.0732421875
 30
0.0
  0
VERTEX
  5
698
330
691
100
AcDbEntity
  8
Ebene 1
370
     0
100
AcDbVertex
100
AcDb2dVertex
 10
578.8828125
 20
29.6328125
 30
0.0
  0
VERTEX
  5
699
330
691
100
AcDbEntity
  8
Ebene 1
370
     0
100
AcDbVertex
100
AcDb2dVertex
 10
578.837890625
 20
29.1474609375
 30
0.0
  0
SEQEND
  5
69A
330
691
100
AcDbEntity
  8
Ebene 1
370
     0
  0
POLYLINE
  5
69B
330
3C
100
AcDbEntity
  8
Ebene 1
370
     0
100
AcDb2dPolyline
 66
     1
 10
0.0
 20
0.0
 30
0.0
  0
VERTEX
  5
69C
330
69B
100
AcDbEntity
  8
Ebene 1
370
     0
100
AcDbVertex
100
AcDb2dVertex
 10
621.94140625
 20
29.1474609375
 30
0.0
  0
VERTEX
  5
69D
330
69B
100
AcDbEntity
  8
Ebene 1
370
     0
100
AcDbVertex
100
AcDb2dVertex
 10
621.8974609375
 20
29.6328125
 30
0.0
  0
VERTEX
  5
69E
330
69B
100
AcDbEntity
  8
Ebene 1
370
     0
100
AcDbVertex
100
AcDb2dVertex
 10
621.720703125
 20
30.0732421875
 30
0.0
  0
VERTEX
  5
69F
330
69B
100
AcDbEntity
  8
Ebene 1
370
     0
100
AcDbVertex
100
AcDb2dVertex
 10
621.5
 20
30.5146484375
 30
0.0
  0
VERTEX
  5
6A0
330
69B
100
AcDbEntity
  8
Ebene 1
370
     0
100
AcDbVertex
100
AcDb2dVertex
 10
621.1474609375
 20
30.8232421875
 30
0.0
  0
VERTEX
  5
6A1
330
69B
100
AcDbEntity
  8
Ebene 1
370
     0
100
AcDbVertex
100
AcDb2dVertex
 10
620.75
 20
31.087890625
 30
0.0
  0
VERTEX
  5
6A2
330
69B
100
AcDbEntity
  8
Ebene 1
370
     0
100
AcDbVertex
100
AcDb2dVertex
 10
620.30859375
 20
31.2646484375
 30
0.0
  0
VERTEX
  5
6A3
330
69B
100
AcDbEntity
  8
Ebene 1
370
     0
100
AcDbVertex
100
AcDb2dVertex
 10
619.8232421875
 20
31.30859375
 30
0.0
  0
SEQEND
  5
6A4
330
69B
100
AcDbEntity
  8
Ebene 1
370
     0
  0
POLYLINE
  5
6A5
330
3C
100
AcDbEntity
  8
Ebene 1
370
     0
100
AcDb2dPolyline
 66
     1
 10
0.0
 20
0.0
 30
0.0
  0
VERTEX
  5
6A6
330
6A5
100
AcDbEntity
  8
Ebene 1
370
     0
100
AcDbVertex
100
AcDb2dVertex
 10
578.7939453125
 20
29.1474609375
 30
0.0
  0
VERTEX
  5
6A7
330
6A5
100
AcDbEntity
  8
Ebene 1
370
     0
100
AcDbVertex
100
AcDb2dVertex
 10
621.9853515625
 20
29.1474609375
 30
0.0
  0
SEQEND
  5
6A8
330
6A5
100
AcDbEntity
  8
Ebene 1
370
     0
  0
POLYLINE
  5
6A9
330
3C
100
AcDbEntity
  8
Ebene 1
370
     0
100
AcDb2dPolyline
 66
     1
 10
0.0
 20
0.0
 30
0.0
  0
VERTEX
  5
6AA
330
6A9
100
AcDbEntity
  8
Ebene 1
370
     0
100
AcDbVertex
100
AcDb2dVertex
 10
686.30859375
 20
84.69140625
 30
0.0
  0
VERTEX
  5
6AB
330
6A9
100
AcDbEntity
  8
Ebene 1
370
     0
100
AcDbVertex
100
AcDb2dVertex
 10
686.30859375
 20
3.4267578125
 30
0.0
  0
SEQEND
  5
6AC
330
6A9
100
AcDbEntity
  8
Ebene 1
370
     0
  0
POLYLINE
  5
6AD
330
3C
100
AcDbEntity
  8
Ebene 1
370
     0
100
AcDb2dPolyline
 66
     1
 10
0.0
 20
0.0
 30
0.0
  0
VERTEX
  5
6AE
330
6AD
100
AcDbEntity
  8
Ebene 1
370
     0
100
AcDbVertex
100
AcDb2dVertex
 10
718.7353515625
 20
84.912109375
 30
0.0
  0
VERTEX
  5
6AF
330
6AD
100
AcDbEntity
  8
Ebene 1
370
     0
100
AcDbVertex
100
AcDb2dVertex
 10
718.7353515625
 20
3.6025390625
 30
0.0
  0
SEQEND
  5
6B0
330
6AD
100
AcDbEntity
  8
Ebene 1
370
     0
  0
POLYLINE
  5
6B1
330
3C
100
AcDbEntity
  8
Ebene 1
370
     0
100
AcDb2dPolyline
 66
     1
 10
0.0
 20
0.0
 30
0.0
  0
VERTEX
  5
6B2
330
6B1
100
AcDbEntity
  8
Ebene 1
370
     0
100
AcDbVertex
100
AcDb2dVertex
 10
730.029296875
 20
31.0
 30
0.0
  0
VERTEX
  5
6B3
330
6B1
100
AcDbEntity
  8
Ebene 1
370
     0
100
AcDbVertex
100
AcDb2dVertex
 10
730.8671875
 20
30.8232421875
 30
0.0
  0
VERTEX
  5
6B4
330
6B1
100
AcDbEntity
  8
Ebene 1
370
     0
100
AcDbVertex
100
AcDb2dVertex
 10
731.7060546875
 20
30.779296875
 30
0.0
  0
VERTEX
  5
6B5
330
6B1
100
AcDbEntity
  8
Ebene 1
370
     0
100
AcDbVertex
100
AcDb2dVertex
 10
732.5439453125
 20
30.8232421875
 30
0.0
  0
VERTEX
  5
6B6
330
6B1
100
AcDbEntity
  8
Ebene 1
370
     0
100
AcDbVertex
100
AcDb2dVertex
 10
733.3828125
 20
31.0
 30
0.0
  0
VERTEX
  5
6B7
330
6B1
100
AcDbEntity
  8
Ebene 1
370
     0
100
AcDbVertex
100
AcDb2dVertex
 10
734.1767578125
 20
31.2646484375
 30
0.0
  0
VERTEX
  5
6B8
330
6B1
100
AcDbEntity
  8
Ebene 1
370
     0
100
AcDbVertex
100
AcDb2dVertex
 10
734.9267578125
 20
31.662109375
 30
0.0
  0
VERTEX
  5
6B9
330
6B1
100
AcDbEntity
  8
Ebene 1
370
     0
100
AcDbVertex
100
AcDb2dVertex
 10
735.6328125
 20
32.1025390625
 30
0.0
  0
VERTEX
  5
6BA
330
6B1
100
AcDbEntity
  8
Ebene 1
370
     0
100
AcDbVertex
100
AcDb2dVertex
 10
736.25
 20
32.6767578125
 30
0.0
  0
VERTEX
  5
6BB
330
6B1
100
AcDbEntity
  8
Ebene 1
370
     0
100
AcDbVertex
100
AcDb2dVertex
 10
736.8232421875
 20
33.337890625
 30
0.0
  0
VERTEX
  5
6BC
330
6B1
100
AcDbEntity
  8
Ebene 1
370
     0
100
AcDbVertex
100
AcDb2dVertex
 10
737.2646484375
 20
34.0439453125
 30
0.0
  0
VERTEX
  5
6BD
330
6B1
100
AcDbEntity
  8
Ebene 1
370
     0
100
AcDbVertex
100
AcDb2dVertex
 10
737.662109375
 20
34.7939453125
 30
0.0
  0
VERTEX
  5
6BE
330
6B1
100
AcDbEntity
  8
Ebene 1
370
     0
100
AcDbVertex
100
AcDb2dVertex
 10
737.9267578125
 20
35.587890625
 30
0.0
  0
VERTEX
  5
6BF
330
6B1
100
AcDbEntity
  8
Ebene 1
370
     0
100
AcDbVertex
100
AcDb2dVertex
 10
738.1025390625
 20
36.4267578125
 30
0.0
  0
VERTEX
  5
6C0
330
6B1
100
AcDbEntity
  8
Ebene 1
370
     0
100
AcDbVertex
100
AcDb2dVertex
 10
738.1474609375
 20
37.2646484375
 30
0.0
  0
VERTEX
  5
6C1
330
6B1
100
AcDbEntity
  8
Ebene 1
370
     0
100
AcDbVertex
100
AcDb2dVertex
 10
738.1025390625
 20
38.1025390625
 30
0.0
  0
VERTEX
  5
6C2
330
6B1
100
AcDbEntity
  8
Ebene 1
370
     0
100
AcDbVertex
100
AcDb2dVertex
 10
737.9267578125
 20
38.94140625
 30
0.0
  0
VERTEX
  5
6C3
330
6B1
100
AcDbEntity
  8
Ebene 1
370
     0
100
AcDbVertex
100
AcDb2dVertex
 10
737.662109375
 20
39.7353515625
 30
0.0
  0
VERTEX
  5
6C4
330
6B1
100
AcDbEntity
  8
Ebene 1
370
     0
100
AcDbVertex
100
AcDb2dVertex
 10
737.2646484375
 20
40.529296875
 30
0.0
  0
VERTEX
  5
6C5
330
6B1
100
AcDbEntity
  8
Ebene 1
370
     0
100
AcDbVertex
100
AcDb2dVertex
 10
736.8232421875
 20
41.19140625
 30
0.0
  0
VERTEX
  5
6C6
330
6B1
100
AcDbEntity
  8
Ebene 1
370
     0
100
AcDbVertex
100
AcDb2dVertex
 10
736.25
 20
41.8525390625
 30
0.0
  0
VERTEX
  5
6C7
330
6B1
100
AcDbEntity
  8
Ebene 1
370
     0
100
AcDbVertex
100
AcDb2dVertex
 10
735.6328125
 20
42.4267578125
 30
0.0
  0
VERTEX
  5
6C8
330
6B1
100
AcDbEntity
  8
Ebene 1
370
     0
100
AcDbVertex
100
AcDb2dVertex
 10
734.9267578125
 20
42.8671875
 30
0.0
  0
VERTEX
  5
6C9
330
6B1
100
AcDbEntity
  8
Ebene 1
370
     0
100
AcDbVertex
100
AcDb2dVertex
 10
734.1767578125
 20
43.2646484375
 30
0.0
  0
VERTEX
  5
6CA
330
6B1
100
AcDbEntity
  8
Ebene 1
370
     0
100
AcDbVertex
100
AcDb2dVertex
 10
733.3828125
 20
43.529296875
 30
0.0
  0
VERTEX
  5
6CB
330
6B1
100
AcDbEntity
  8
Ebene 1
370
     0
100
AcDbVertex
100
AcDb2dVertex
 10
732.5439453125
 20
43.7060546875
 30
0.0
  0
VERTEX
  5
6CC
330
6B1
100
AcDbEntity
  8
Ebene 1
370
     0
100
AcDbVertex
100
AcDb2dVertex
 10
731.7060546875
 20
43.75
 30
0.0
  0
VERTEX
  5
6CD
330
6B1
100
AcDbEntity
  8
Ebene 1
370
     0
100
AcDbVertex
100
AcDb2dVertex
 10
730.8671875
 20
43.7060546875
 30
0.0
  0
VERTEX
  5
6CE
330
6B1
100
AcDbEntity
  8
Ebene 1
370
     0
100
AcDbVertex
100
AcDb2dVertex
 10
730.029296875
 20
43.529296875
 30
0.0
  0
VERTEX
  5
6CF
330
6B1
100
AcDbEntity
  8
Ebene 1
370
     0
100
AcDbVertex
100
AcDb2dVertex
 10
729.2353515625
 20
43.2646484375
 30
0.0
  0
VERTEX
  5
6D0
330
6B1
100
AcDbEntity
  8
Ebene 1
370
     0
100
AcDbVertex
100
AcDb2dVertex
 10
728.4853515625
 20
42.8671875
 30
0.0
  0
VERTEX
  5
6D1
330
6B1
100
AcDbEntity
  8
Ebene 1
370
     0
100
AcDbVertex
100
AcDb2dVertex
 10
727.779296875
 20
42.4267578125
 30
0.0
  0
VERTEX
  5
6D2
330
6B1
100
AcDbEntity
  8
Ebene 1
370
     0
100
AcDbVertex
100
AcDb2dVertex
 10
727.162109375
 20
41.8525390625
 30
0.0
  0
VERTEX
  5
6D3
330
6B1
100
AcDbEntity
  8
Ebene 1
370
     0
100
AcDbVertex
100
AcDb2dVertex
 10
726.587890625
 20
41.19140625
 30
0.0
  0
VERTEX
  5
6D4
330
6B1
100
AcDbEntity
  8
Ebene 1
370
     0
100
AcDbVertex
100
AcDb2dVertex
 10
726.1474609375
 20
40.529296875
 30
0.0
  0
VERTEX
  5
6D5
330
6B1
100
AcDbEntity
  8
Ebene 1
370
     0
100
AcDbVertex
100
AcDb2dVertex
 10
725.75
 20
39.7353515625
 30
0.0
  0
VERTEX
  5
6D6
330
6B1
100
AcDbEntity
  8
Ebene 1
370
     0
100
AcDbVertex
100
AcDb2dVertex
 10
725.4853515625
 20
38.94140625
 30
0.0
  0
SEQEND
  5
6D7
330
6B1
100
AcDbEntity
  8
Ebene 1
370
     0
  0
POLYLINE
  5
6D8
330
3C
100
AcDbEntity
  8
Ebene 1
370
     0
100
AcDb2dPolyline
 66
     1
 10
0.0
 20
0.0
 30
0.0
  0
VERTEX
  5
6D9
330
6D8
100
AcDbEntity
  8
Ebene 1
370
     0
100
AcDbVertex
100
AcDb2dVertex
 10
672.720703125
 20
31.0
 30
0.0
  0
VERTEX
  5
6DA
330
6D8
100
AcDbEntity
  8
Ebene 1
370
     0
100
AcDbVertex
100
AcDb2dVertex
 10
673.55859375
 20
30.8232421875
 30
0.0
  0
VERTEX
  5
6DB
330
6D8
100
AcDbEntity
  8
Ebene 1
370
     0
100
AcDbVertex
100
AcDb2dVertex
 10
674.3974609375
 20
30.779296875
 30
0.0
  0
VERTEX
  5
6DC
330
6D8
100
AcDbEntity
  8
Ebene 1
370
     0
100
AcDbVertex
100
AcDb2dVertex
 10
675.2353515625
 20
30.8232421875
 30
0.0
  0
VERTEX
  5
6DD
330
6D8
100
AcDbEntity
  8
Ebene 1
370
     0
100
AcDbVertex
100
AcDb2dVertex
 10
676.0732421875
 20
31.0
 30
0.0
  0
VERTEX
  5
6DE
330
6D8
100
AcDbEntity
  8
Ebene 1
370
     0
100
AcDbVertex
100
AcDb2dVertex
 10
676.8671875
 20
31.2646484375
 30
0.0
  0
VERTEX
  5
6DF
330
6D8
100
AcDbEntity
  8
Ebene 1
370
     0
100
AcDbVertex
100
AcDb2dVertex
 10
677.6171875
 20
31.662109375
 30
0.0
  0
VERTEX
  5
6E0
330
6D8
100
AcDbEntity
  8
Ebene 1
370
     0
100
AcDbVertex
100
AcDb2dVertex
 10
678.3232421875
 20
32.1025390625
 30
0.0
  0
VERTEX
  5
6E1
330
6D8
100
AcDbEntity
  8
Ebene 1
370
     0
100
AcDbVertex
100
AcDb2dVertex
 10
678.94140625
 20
32.6767578125
 30
0.0
  0
VERTEX
  5
6E2
330
6D8
100
AcDbEntity
  8
Ebene 1
370
     0
100
AcDbVertex
100
AcDb2dVertex
 10
679.5146484375
 20
33.337890625
 30
0.0
  0
VERTEX
  5
6E3
330
6D8
100
AcDbEntity
  8
Ebene 1
370
     0
100
AcDbVertex
100
AcDb2dVertex
 10
679.9560546875
 20
34.0439453125
 30
0.0
  0
VERTEX
  5
6E4
330
6D8
100
AcDbEntity
  8
Ebene 1
370
     0
100
AcDbVertex
100
AcDb2dVertex
 10
680.3525390625
 20
34.7939453125
 30
0.0
  0
VERTEX
  5
6E5
330
6D8
100
AcDbEntity
  8
Ebene 1
370
     0
100
AcDbVertex
100
AcDb2dVertex
 10
680.6171875
 20
35.587890625
 30
0.0
  0
VERTEX
  5
6E6
330
6D8
100
AcDbEntity
  8
Ebene 1
370
     0
100
AcDbVertex
100
AcDb2dVertex
 10
680.7939453125
 20
36.4267578125
 30
0.0
  0
VERTEX
  5
6E7
330
6D8
100
AcDbEntity
  8
Ebene 1
370
     0
100
AcDbVertex
100
AcDb2dVertex
 10
680.837890625
 20
37.2646484375
 30
0.0
  0
VERTEX
  5
6E8
330
6D8
100
AcDbEntity
  8
Ebene 1
370
     0
100
AcDbVertex
100
AcDb2dVertex
 10
680.7939453125
 20
38.1025390625
 30
0.0
  0
VERTEX
  5
6E9
330
6D8
100
AcDbEntity
  8
Ebene 1
370
     0
100
AcDbVertex
100
AcDb2dVertex
 10
680.6171875
 20
38.94140625
 30
0.0
  0
VERTEX
  5
6EA
330
6D8
100
AcDbEntity
  8
Ebene 1
370
     0
100
AcDbVertex
100
AcDb2dVertex
 10
680.3525390625
 20
39.7353515625
 30
0.0
  0
VERTEX
  5
6EB
330
6D8
100
AcDbEntity
  8
Ebene 1
370
     0
100
AcDbVertex
100
AcDb2dVertex
 10
679.9560546875
 20
40.529296875
 30
0.0
  0
VERTEX
  5
6EC
330
6D8
100
AcDbEntity
  8
Ebene 1
370
     0
100
AcDbVertex
100
AcDb2dVertex
 10
679.5146484375
 20
41.19140625
 30
0.0
  0
VERTEX
  5
6ED
330
6D8
100
AcDbEntity
  8
Ebene 1
370
     0
100
AcDbVertex
100
AcDb2dVertex
 10
678.94140625
 20
41.8525390625
 30
0.0
  0
VERTEX
  5
6EE
330
6D8
100
AcDbEntity
  8
Ebene 1
370
     0
100
AcDbVertex
100
AcDb2dVertex
 10
678.3232421875
 20
42.4267578125
 30
0.0
  0
VERTEX
  5
6EF
330
6D8
100
AcDbEntity
  8
Ebene 1
370
     0
100
AcDbVertex
100
AcDb2dVertex
 10
677.6171875
 20
42.8671875
 30
0.0
  0
VERTEX
  5
6F0
330
6D8
100
AcDbEntity
  8
Ebene 1
370
     0
100
AcDbVertex
100
AcDb2dVertex
 10
676.8671875
 20
43.2646484375
 30
0.0
  0
VERTEX
  5
6F1
330
6D8
100
AcDbEntity
  8
Ebene 1
370
     0
100
AcDbVertex
100
AcDb2dVertex
 10
676.0732421875
 20
43.529296875
 30
0.0
  0
VERTEX
  5
6F2
330
6D8
100
AcDbEntity
  8
Ebene 1
370
     0
100
AcDbVertex
100
AcDb2dVertex
 10
675.2353515625
 20
43.7060546875
 30
0.0
  0
VERTEX
  5
6F3
330
6D8
100
AcDbEntity
  8
Ebene 1
370
     0
100
AcDbVertex
100
AcDb2dVertex
 10
674.3974609375
 20
43.75
 30
0.0
  0
VERTEX
  5
6F4
330
6D8
100
AcDbEntity
  8
Ebene 1
370
     0
100
AcDbVertex
100
AcDb2dVertex
 10
673.55859375
 20
43.7060546875
 30
0.0
  0
VERTEX
  5
6F5
330
6D8
100
AcDbEntity
  8
Ebene 1
370
     0
100
AcDbVertex
100
AcDb2dVertex
 10
672.720703125
 20
43.529296875
 30
0.0
  0
VERTEX
  5
6F6
330
6D8
100
AcDbEntity
  8
Ebene 1
370
     0
100
AcDbVertex
100
AcDb2dVertex
 10
671.9267578125
 20
43.2646484375
 30
0.0
  0
VERTEX
  5
6F7
330
6D8
100
AcDbEntity
  8
Ebene 1
370
     0
100
AcDbVertex
100
AcDb2dVertex
 10
671.1767578125
 20
42.8671875
 30
0.0
  0
VERTEX
  5
6F8
330
6D8
100
AcDbEntity
  8
Ebene 1
370
     0
100
AcDbVertex
100
AcDb2dVertex
 10
670.470703125
 20
42.4267578125
 30
0.0
  0
VERTEX
  5
6F9
330
6D8
100
AcDbEntity
  8
Ebene 1
370
     0
100
AcDbVertex
100
AcDb2dVertex
 10
669.8525390625
 20
41.8525390625
 30
0.0
  0
VERTEX
  5
6FA
330
6D8
100
AcDbEntity
  8
Ebene 1
370
     0
100
AcDbVertex
100
AcDb2dVertex
 10
669.279296875
 20
41.19140625
 30
0.0
  0
VERTEX
  5
6FB
330
6D8
100
AcDbEntity
  8
Ebene 1
370
     0
100
AcDbVertex
100
AcDb2dVertex
 10
668.837890625
 20
40.529296875
 30
0.0
  0
VERTEX
  5
6FC
330
6D8
100
AcDbEntity
  8
Ebene 1
370
     0
100
AcDbVertex
100
AcDb2dVertex
 10
668.44140625
 20
39.7353515625
 30
0.0
  0
VERTEX
  5
6FD
330
6D8
100
AcDbEntity
  8
Ebene 1
370
     0
100
AcDbVertex
100
AcDb2dVertex
 10
668.1767578125
 20
38.94140625
 30
0.0
  0
SEQEND
  5
6FE
330
6D8
100
AcDbEntity
  8
Ebene 1
370
     0
  0
POLYLINE
  5
6FF
330
3C
100
AcDbEntity
  8
Ebene 1
370
     0
100
AcDb2dPolyline
 66
     1
 10
0.0
 20
0.0
 30
0.0
  0
VERTEX
  5
700
330
6FF
100
AcDbEntity
  8
Ebene 1
370
     0
100
AcDbVertex
100
AcDb2dVertex
 10
649.25
 20
69.162109375
 30
0.0
  0
VERTEX
  5
701
330
6FF
100
AcDbEntity
  8
Ebene 1
370
     0
100
AcDbVertex
100
AcDb2dVertex
 10
757.162109375
 20
69.162109375
 30
0.0
  0
SEQEND
  5
702
330
6FF
100
AcDbEntity
  8
Ebene 1
370
     0
  0
POLYLINE
  5
703
330
3C
100
AcDbEntity
  8
Ebene 1
370
     0
100
AcDb2dPolyline
 66
     1
 10
0.0
 20
0.0
 30
0.0
  0
VERTEX
  5
704
330
703
100
AcDbEntity
  8
Ebene 1
370
     0
100
AcDbVertex
100
AcDb2dVertex
 10
649.25
 20
26.4560546875
 30
0.0
  0
VERTEX
  5
705
330
703
100
AcDbEntity
  8
Ebene 1
370
     0
100
AcDbVertex
100
AcDb2dVertex
 10
757.162109375
 20
26.4560546875
 30
0.0
  0
SEQEND
  5
706
330
703
100
AcDbEntity
  8
Ebene 1
370
     0
  0
POLYLINE
  5
707
330
3C
100
AcDbEntity
  8
Ebene 1
370
     0
100
AcDb2dPolyline
 66
     1
 10
0.0
 20
0.0
 30
0.0
  0
VERTEX
  5
708
330
707
100
AcDbEntity
  8
Ebene 1
370
     0
100
AcDbVertex
100
AcDb2dVertex
 10
681.412109375
 20
37.2646484375
 30
0.0
  0
VERTEX
  5
709
330
707
100
AcDbEntity
  8
Ebene 1
370
     0
100
AcDbVertex
100
AcDb2dVertex
 10
681.3671875
 20
38.1474609375
 30
0.0
  0
VERTEX
  5
70A
330
707
100
AcDbEntity
  8
Ebene 1
370
     0
100
AcDbVertex
100
AcDb2dVertex
 10
681.19140625
 20
39.029296875
 30
0.0
  0
VERTEX
  5
70B
330
707
100
AcDbEntity
  8
Ebene 1
370
     0
100
AcDbVertex
100
AcDb2dVertex
 10
680.9267578125
 20
39.8671875
 30
0.0
  0
VERTEX
  5
70C
330
707
100
AcDbEntity
  8
Ebene 1
370
     0
100
AcDbVertex
100
AcDb2dVertex
 10
680.529296875
 20
40.662109375
 30
0.0
  0
VERTEX
  5
70D
330
707
100
AcDbEntity
  8
Ebene 1
370
     0
100
AcDbVertex
100
AcDb2dVertex
 10
680.087890625
 20
41.3671875
 30
0.0
  0
VERTEX
  5
70E
330
707
100
AcDbEntity
  8
Ebene 1
370
     0
100
AcDbVertex
100
AcDb2dVertex
 10
679.5146484375
 20
42.0732421875
 30
0.0
  0
VERTEX
  5
70F
330
707
100
AcDbEntity
  8
Ebene 1
370
     0
100
AcDbVertex
100
AcDb2dVertex
 10
678.8525390625
 20
42.69140625
 30
0.0
  0
VERTEX
  5
710
330
707
100
AcDbEntity
  8
Ebene 1
370
     0
100
AcDbVertex
100
AcDb2dVertex
 10
678.1474609375
 20
43.1767578125
 30
0.0
  0
VERTEX
  5
711
330
707
100
AcDbEntity
  8
Ebene 1
370
     0
100
AcDbVertex
100
AcDb2dVertex
 10
677.3974609375
 20
43.6171875
 30
0.0
  0
VERTEX
  5
712
330
707
100
AcDbEntity
  8
Ebene 1
370
     0
100
AcDbVertex
100
AcDb2dVertex
 10
676.55859375
 20
43.9267578125
 30
0.0
  0
VERTEX
  5
713
330
707
100
AcDbEntity
  8
Ebene 1
370
     0
100
AcDbVertex
100
AcDb2dVertex
 10
675.720703125
 20
44.1474609375
 30
0.0
  0
VERTEX
  5
714
330
707
100
AcDbEntity
  8
Ebene 1
370
     0
100
AcDbVertex
100
AcDb2dVertex
 10
674.837890625
 20
44.279296875
 30
0.0
  0
VERTEX
  5
715
330
707
100
AcDbEntity
  8
Ebene 1
370
     0
100
AcDbVertex
100
AcDb2dVertex
 10
673.9560546875
 20
44.279296875
 30
0.0
  0
VERTEX
  5
716
330
707
100
AcDbEntity
  8
Ebene 1
370
     0
100
AcDbVertex
100
AcDb2dVertex
 10
673.0732421875
 20
44.1474609375
 30
0.0
  0
VERTEX
  5
717
330
707
100
AcDbEntity
  8
Ebene 1
370
     0
100
AcDbVertex
100
AcDb2dVertex
 10
672.2353515625
 20
43.9267578125
 30
0.0
  0
VERTEX
  5
718
330
707
100
AcDbEntity
  8
Ebene 1
370
     0
100
AcDbVertex
100
AcDb2dVertex
 10
671.3974609375
 20
43.6171875
 30
0.0
  0
VERTEX
  5
719
330
707
100
AcDbEntity
  8
Ebene 1
370
     0
100
AcDbVertex
100
AcDb2dVertex
 10
670.6474609375
 20
43.1767578125
 30
0.0
  0
VERTEX
  5
71A
330
707
100
AcDbEntity
  8
Ebene 1
370
     0
100
AcDbVertex
100
AcDb2dVertex
 10
669.94140625
 20
42.69140625
 30
0.0
  0
VERTEX
  5
71B
330
707
100
AcDbEntity
  8
Ebene 1
370
     0
100
AcDbVertex
100
AcDb2dVertex
 10
669.279296875
 20
42.0732421875
 30
0.0
  0
VERTEX
  5
71C
330
707
100
AcDbEntity
  8
Ebene 1
370
     0
100
AcDbVertex
100
AcDb2dVertex
 10
668.7060546875
 20
41.3671875
 30
0.0
  0
VERTEX
  5
71D
330
707
100
AcDbEntity
  8
Ebene 1
370
     0
100
AcDbVertex
100
AcDb2dVertex
 10
668.2646484375
 20
40.662109375
 30
0.0
  0
VERTEX
  5
71E
330
707
100
AcDbEntity
  8
Ebene 1
370
     0
100
AcDbVertex
100
AcDb2dVertex
 10
667.8671875
 20
39.8671875
 30
0.0
  0
VERTEX
  5
71F
330
707
100
AcDbEntity
  8
Ebene 1
370
     0
100
AcDbVertex
100
AcDb2dVertex
 10
667.6025390625
 20
39.029296875
 30
0.0
  0
VERTEX
  5
720
330
707
100
AcDbEntity
  8
Ebene 1
370
     0
100
AcDbVertex
100
AcDb2dVertex
 10
667.4267578125
 20
38.1474609375
 30
0.0
  0
VERTEX
  5
721
330
707
100
AcDbEntity
  8
Ebene 1
370
     0
100
AcDbVertex
100
AcDb2dVertex
 10
667.3828125
 20
37.2646484375
 30
0.0
  0
VERTEX
  5
722
330
707
100
AcDbEntity
  8
Ebene 1
370
     0
100
AcDbVertex
100
AcDb2dVertex
 10
667.4267578125
 20
36.3828125
 30
0.0
  0
VERTEX
  5
723
330
707
100
AcDbEntity
  8
Ebene 1
370
     0
100
AcDbVertex
100
AcDb2dVertex
 10
667.6025390625
 20
35.5
 30
0.0
  0
VERTEX
  5
724
330
707
100
AcDbEntity
  8
Ebene 1
370
     0
100
AcDbVertex
100
AcDb2dVertex
 10
667.8671875
 20
34.662109375
 30
0.0
  0
VERTEX
  5
725
330
707
100
AcDbEntity
  8
Ebene 1
370
     0
100
AcDbVertex
100
AcDb2dVertex
 10
668.2646484375
 20
33.8671875
 30
0.0
  0
VERTEX
  5
726
330
707
100
AcDbEntity
  8
Ebene 1
370
     0
100
AcDbVertex
100
AcDb2dVertex
 10
668.7060546875
 20
33.162109375
 30
0.0
  0
VERTEX
  5
727
330
707
100
AcDbEntity
  8
Ebene 1
370
     0
100
AcDbVertex
100
AcDb2dVertex
 10
669.279296875
 20
32.4560546875
 30
0.0
  0
VERTEX
  5
728
330
707
100
AcDbEntity
  8
Ebene 1
370
     0
100
AcDbVertex
100
AcDb2dVertex
 10
669.94140625
 20
31.837890625
 30
0.0
  0
VERTEX
  5
729
330
707
100
AcDbEntity
  8
Ebene 1
370
     0
100
AcDbVertex
100
AcDb2dVertex
 10
670.6474609375
 20
31.3525390625
 30
0.0
  0
VERTEX
  5
72A
330
707
100
AcDbEntity
  8
Ebene 1
370
     0
100
AcDbVertex
100
AcDb2dVertex
 10
671.3974609375
 20
30.912109375
 30
0.0
  0
VERTEX
  5
72B
330
707
100
AcDbEntity
  8
Ebene 1
370
     0
100
AcDbVertex
100
AcDb2dVertex
 10
672.2353515625
 20
30.6025390625
 30
0.0
  0
VERTEX
  5
72C
330
707
100
AcDbEntity
  8
Ebene 1
370
     0
100
AcDbVertex
100
AcDb2dVertex
 10
673.0732421875
 20
30.3828125
 30
0.0
  0
VERTEX
  5
72D
330
707
100
AcDbEntity
  8
Ebene 1
370
     0
100
AcDbVertex
100
AcDb2dVertex
 10
673.9560546875
 20
30.25
 30
0.0
  0
VERTEX
  5
72E
330
707
100
AcDbEntity
  8
Ebene 1
370
     0
100
AcDbVertex
100
AcDb2dVertex
 10
674.837890625
 20
30.25
 30
0.0
  0
VERTEX
  5
72F
330
707
100
AcDbEntity
  8
Ebene 1
370
     0
100
AcDbVertex
100
AcDb2dVertex
 10
675.720703125
 20
30.3828125
 30
0.0
  0
VERTEX
  5
730
330
707
100
AcDbEntity
  8
Ebene 1
370
     0
100
AcDbVertex
100
AcDb2dVertex
 10
676.55859375
 20
30.6025390625
 30
0.0
  0
VERTEX
  5
731
330
707
100
AcDbEntity
  8
Ebene 1
370
     0
100
AcDbVertex
100
AcDb2dVertex
 10
677.3974609375
 20
30.912109375
 30
0.0
  0
VERTEX
  5
732
330
707
100
AcDbEntity
  8
Ebene 1
370
     0
100
AcDbVertex
100
AcDb2dVertex
 10
678.1474609375
 20
31.3525390625
 30
0.0
  0
VERTEX
  5
733
330
707
100
AcDbEntity
  8
Ebene 1
370
     0
100
AcDbVertex
100
AcDb2dVertex
 10
678.8525390625
 20
31.837890625
 30
0.0
  0
VERTEX
  5
734
330
707
100
AcDbEntity
  8
Ebene 1
370
     0
100
AcDbVertex
100
AcDb2dVertex
 10
679.5146484375
 20
32.4560546875
 30
0.0
  0
VERTEX
  5
735
330
707
100
AcDbEntity
  8
Ebene 1
370
     0
100
AcDbVertex
100
AcDb2dVertex
 10
680.087890625
 20
33.162109375
 30
0.0
  0
VERTEX
  5
736
330
707
100
AcDbEntity
  8
Ebene 1
370
     0
100
AcDbVertex
100
AcDb2dVertex
 10
680.529296875
 20
33.8671875
 30
0.0
  0
VERTEX
  5
737
330
707
100
AcDbEntity
  8
Ebene 1
370
     0
100
AcDbVertex
100
AcDb2dVertex
 10
680.9267578125
 20
34.662109375
 30
0.0
  0
VERTEX
  5
738
330
707
100
AcDbEntity
  8
Ebene 1
370
     0
100
AcDbVertex
100
AcDb2dVertex
 10
681.19140625
 20
35.5
 30
0.0
  0
VERTEX
  5
739
330
707
100
AcDbEntity
  8
Ebene 1
370
     0
100
AcDbVertex
100
AcDb2dVertex
 10
681.3671875
 20
36.3828125
 30
0.0
  0
VERTEX
  5
73A
330
707
100
AcDbEntity
  8
Ebene 1
370
     0
100
AcDbVertex
100
AcDb2dVertex
 10
681.412109375
 20
37.2646484375
 30
0.0
  0
VERTEX
  5
73B
330
707
100
AcDbEntity
  8
Ebene 1
370
     0
100
AcDbVertex
100
AcDb2dVertex
 10
681.412109375
 20
37.2646484375
 30
0.0
  0
SEQEND
  5
73C
330
707
100
AcDbEntity
  8
Ebene 1
370
     0
  0
POLYLINE
  5
73D
330
3C
100
AcDbEntity
  8
Ebene 1
370
     0
100
AcDb2dPolyline
 66
     1
 10
0.0
 20
0.0
 30
0.0
  0
VERTEX
  5
73E
330
73D
100
AcDbEntity
  8
Ebene 1
370
     0
100
AcDbVertex
100
AcDb2dVertex
 10
674.3974609375
 20
28.6171875
 30
0.0
  0
VERTEX
  5
73F
330
73D
100
AcDbEntity
  8
Ebene 1
370
     0
100
AcDbVertex
100
AcDb2dVertex
 10
674.3974609375
 20
45.912109375
 30
0.0
  0
SEQEND
  5
740
330
73D
100
AcDbEntity
  8
Ebene 1
370
     0
  0
POLYLINE
  5
741
330
3C
100
AcDbEntity
  8
Ebene 1
370
     0
100
AcDb2dPolyline
 66
     1
 10
0.0
 20
0.0
 30
0.0
  0
VERTEX
  5
742
330
741
100
AcDbEntity
  8
Ebene 1
370
     0
100
AcDbVertex
100
AcDb2dVertex
 10
683.0439453125
 20
37.2646484375
 30
0.0
  0
VERTEX
  5
743
330
741
100
AcDbEntity
  8
Ebene 1
370
     0
100
AcDbVertex
100
AcDb2dVertex
 10
665.75
 20
37.2646484375
 30
0.0
  0
SEQEND
  5
744
330
741
100
AcDbEntity
  8
Ebene 1
370
     0
  0
POLYLINE
  5
745
330
3C
100
AcDbEntity
  8
Ebene 1
370
     0
100
AcDb2dPolyline
 66
     1
 10
0.0
 20
0.0
 30
0.0
  0
VERTEX
  5
746
330
745
100
AcDbEntity
  8
Ebene 1
370
     0
100
AcDbVertex
100
AcDb2dVertex
 10
591.7646484375
 20
167.0146484375
 30
0.0
  0
VERTEX
  5
747
330
745
100
AcDbEntity
  8
Ebene 1
370
     0
100
AcDbVertex
100
AcDb2dVertex
 10
591.7646484375
 20
102.1171875
 30
0.0
  0
SEQEND
  5
748
330
745
100
AcDbEntity
  8
Ebene 1
370
     0
  0
POLYLINE
  5
749
330
3C
100
AcDbEntity
  8
Ebene 1
370
     0
100
AcDb2dPolyline
 66
     1
 10
0.0
 20
0.0
 30
0.0
  0
VERTEX
  5
74A
330
749
100
AcDbEntity
  8
Ebene 1
370
     0
100
AcDbVertex
100
AcDb2dVertex
 10
596.087890625
 20
102.1171875
 30
0.0
  0
VERTEX
  5
74B
330
749
100
AcDbEntity
  8
Ebene 1
370
     0
100
AcDbVertex
100
AcDb2dVertex
 10
574.470703125
 20
102.162109375
 30
0.0
  0
VERTEX
  5
74C
330
749
100
AcDbEntity
  8
Ebene 1
370
     0
100
AcDbVertex
100
AcDb2dVertex
 10
574.470703125
 20
167.0146484375
 30
0.0
  0
VERTEX
  5
74D
330
749
100
AcDbEntity
  8
Ebene 1
370
     0
100
AcDbVertex
100
AcDb2dVertex
 10
591.7646484375
 20
167.0146484375
 30
0.0
  0
SEQEND
  5
74E
330
749
100
AcDbEntity
  8
Ebene 1
370
     0
  0
POLYLINE
  5
74F
330
3C
100
AcDbEntity
  8
Ebene 1
370
     0
100
AcDb2dPolyline
 66
     1
 10
0.0
 20
0.0
 30
0.0
  0
VERTEX
  5
750
330
74F
100
AcDbEntity
  8
Ebene 1
370
     0
100
AcDbVertex
100
AcDb2dVertex
 10
630.9853515625
 20
155.103515625
 30
0.0
  0
VERTEX
  5
751
330
74F
100
AcDbEntity
  8
Ebene 1
370
     0
100
AcDbVertex
100
AcDb2dVertex
 10
630.2353515625
 20
156.470703125
 30
0.0
  0
VERTEX
  5
752
330
74F
100
AcDbEntity
  8
Ebene 1
370
     0
100
AcDbVertex
100
AcDb2dVertex
 10
629.3525390625
 20
157.837890625
 30
0.0
  0
VERTEX
  5
753
330
74F
100
AcDbEntity
  8
Ebene 1
370
     0
100
AcDbVertex
100
AcDb2dVertex
 10
628.3828125
 20
159.07421875
 30
0.0
  0
VERTEX
  5
754
330
74F
100
AcDbEntity
  8
Ebene 1
370
     0
100
AcDbVertex
100
AcDb2dVertex
 10
627.3232421875
 20
160.30859375
 30
0.0
  0
VERTEX
  5
755
330
74F
100
AcDbEntity
  8
Ebene 1
370
     0
100
AcDbVertex
100
AcDb2dVertex
 10
626.220703125
 20
161.412109375
 30
0.0
  0
VERTEX
  5
756
330
74F
100
AcDbEntity
  8
Ebene 1
370
     0
100
AcDbVertex
100
AcDb2dVertex
 10
624.9853515625
 20
162.42578125
 30
0.0
  0
VERTEX
  5
757
330
74F
100
AcDbEntity
  8
Ebene 1
370
     0
100
AcDbVertex
100
AcDb2dVertex
 10
623.7060546875
 20
163.353515625
 30
0.0
  0
VERTEX
  5
758
330
74F
100
AcDbEntity
  8
Ebene 1
370
     0
100
AcDbVertex
100
AcDb2dVertex
 10
622.337890625
 20
164.19140625
 30
0.0
  0
VERTEX
  5
759
330
74F
100
AcDbEntity
  8
Ebene 1
370
     0
100
AcDbVertex
100
AcDb2dVertex
 10
620.9267578125
 20
164.94140625
 30
0.0
  0
VERTEX
  5
75A
330
74F
100
AcDbEntity
  8
Ebene 1
370
     0
100
AcDbVertex
100
AcDb2dVertex
 10
619.470703125
 20
165.55859375
 30
0.0
  0
VERTEX
  5
75B
330
74F
100
AcDbEntity
  8
Ebene 1
370
     0
100
AcDbVertex
100
AcDb2dVertex
 10
617.970703125
 20
166.087890625
 30
0.0
  0
VERTEX
  5
75C
330
74F
100
AcDbEntity
  8
Ebene 1
370
     0
100
AcDbVertex
100
AcDb2dVertex
 10
616.4267578125
 20
166.4853515625
 30
0.0
  0
VERTEX
  5
75D
330
74F
100
AcDbEntity
  8
Ebene 1
370
     0
100
AcDbVertex
100
AcDb2dVertex
 10
614.8828125
 20
166.7939453125
 30
0.0
  0
VERTEX
  5
75E
330
74F
100
AcDbEntity
  8
Ebene 1
370
     0
100
AcDbVertex
100
AcDb2dVertex
 10
613.2939453125
 20
166.970703125
 30
0.0
  0
VERTEX
  5
75F
330
74F
100
AcDbEntity
  8
Ebene 1
370
     0
100
AcDbVertex
100
AcDb2dVertex
 10
611.7060546875
 20
167.0146484375
 30
0.0
  0
SEQEND
  5
760
330
74F
100
AcDbEntity
  8
Ebene 1
370
     0
  0
POLYLINE
  5
761
330
3C
100
AcDbEntity
  8
Ebene 1
370
     0
100
AcDb2dPolyline
 66
     1
 10
0.0
 20
0.0
 30
0.0
  0
VERTEX
  5
762
330
761
100
AcDbEntity
  8
Ebene 1
370
     0
100
AcDbVertex
100
AcDb2dVertex
 10
611.7060546875
 20
167.0146484375
 30
0.0
  0
VERTEX
  5
763
330
761
100
AcDbEntity
  8
Ebene 1
370
     0
100
AcDbVertex
100
AcDb2dVertex
 10
591.7646484375
 20
167.0146484375
 30
0.0
  0
SEQEND
  5
764
330
761
100
AcDbEntity
  8
Ebene 1
370
     0
  0
POLYLINE
  5
765
330
3C
100
AcDbEntity
  8
Ebene 1
370
     0
100
AcDb2dPolyline
 66
     1
 10
0.0
 20
0.0
 30
0.0
  0
VERTEX
  5
766
330
765
100
AcDbEntity
  8
Ebene 1
370
     0
100
AcDbVertex
100
AcDb2dVertex
 10
555.0146484375
 20
118.353515625
 30
0.0
  0
VERTEX
  5
767
330
765
100
AcDbEntity
  8
Ebene 1
370
     0
100
AcDbVertex
100
AcDb2dVertex
 10
562.1171875
 20
118.353515625
 30
0.0
  0
SEQEND
  5
768
330
765
100
AcDbEntity
  8
Ebene 1
370
     0
  0
POLYLINE
  5
769
330
3C
100
AcDbEntity
  8
Ebene 1
370
     0
100
AcDb2dPolyline
 66
     1
 10
0.0
 20
0.0
 30
0.0
  0
VERTEX
  5
76A
330
769
100
AcDbEntity
  8
Ebene 1
370
     0
100
AcDbVertex
100
AcDb2dVertex
 10
564.853515625
 20
118.353515625
 30
0.0
  0
VERTEX
  5
76B
330
769
100
AcDbEntity
  8
Ebene 1
370
     0
100
AcDbVertex
100
AcDb2dVertex
 10
567.587890625
 20
118.353515625
 30
0.0
  0
SEQEND
  5
76C
330
769
100
AcDbEntity
  8
Ebene 1
370
     0
  0
POLYLINE
  5
76D
330
3C
100
AcDbEntity
  8
Ebene 1
370
     0
100
AcDb2dPolyline
 66
     1
 10
0.0
 20
0.0
 30
0.0
  0
VERTEX
  5
76E
330
76D
100
AcDbEntity
  8
Ebene 1
370
     0
100
AcDbVertex
100
AcDb2dVertex
 10
570.32421875
 20
118.353515625
 30
0.0
  0
VERTEX
  5
76F
330
76D
100
AcDbEntity
  8
Ebene 1
370
     0
100
AcDbVertex
100
AcDb2dVertex
 10
573.1025390625
 20
118.353515625
 30
0.0
  0
SEQEND
  5
770
330
76D
100
AcDbEntity
  8
Ebene 1
370
     0
  0
POLYLINE
  5
771
330
3C
100
AcDbEntity
  8
Ebene 1
370
     0
100
AcDb2dPolyline
 66
     1
 10
0.0
 20
0.0
 30
0.0
  0
VERTEX
  5
772
330
771
100
AcDbEntity
  8
Ebene 1
370
     0
100
AcDbVertex
100
AcDb2dVertex
 10
575.837890625
 20
118.353515625
 30
0.0
  0
VERTEX
  5
773
330
771
100
AcDbEntity
  8
Ebene 1
370
     0
100
AcDbVertex
100
AcDb2dVertex
 10
589.55859375
 20
118.353515625
 30
0.0
  0
SEQEND
  5
774
330
771
100
AcDbEntity
  8
Ebene 1
370
     0
  0
POLYLINE
  5
775
330
3C
100
AcDbEntity
  8
Ebene 1
370
     0
100
AcDb2dPolyline
 66
     1
 10
0.0
 20
0.0
 30
0.0
  0
VERTEX
  5
776
330
775
100
AcDbEntity
  8
Ebene 1
370
     0
100
AcDbVertex
100
AcDb2dVertex
 10
592.2939453125
 20
118.353515625
 30
0.0
  0
VERTEX
  5
777
330
775
100
AcDbEntity
  8
Ebene 1
370
     0
100
AcDbVertex
100
AcDb2dVertex
 10
595.029296875
 20
118.353515625
 30
0.0
  0
SEQEND
  5
778
330
775
100
AcDbEntity
  8
Ebene 1
370
     0
  0
POLYLINE
  5
779
330
3C
100
AcDbEntity
  8
Ebene 1
370
     0
100
AcDb2dPolyline
 66
     1
 10
0.0
 20
0.0
 30
0.0
  0
VERTEX
  5
77A
330
779
100
AcDbEntity
  8
Ebene 1
370
     0
100
AcDbVertex
100
AcDb2dVertex
 10
597.80859375
 20
118.353515625
 30
0.0
  0
VERTEX
  5
77B
330
779
100
AcDbEntity
  8
Ebene 1
370
     0
100
AcDbVertex
100
AcDb2dVertex
 10
600.5439453125
 20
118.353515625
 30
0.0
  0
SEQEND
  5
77C
330
779
100
AcDbEntity
  8
Ebene 1
370
     0
  0
POLYLINE
  5
77D
330
3C
100
AcDbEntity
  8
Ebene 1
370
     0
100
AcDb2dPolyline
 66
     1
 10
0.0
 20
0.0
 30
0.0
  0
VERTEX
  5
77E
330
77D
100
AcDbEntity
  8
Ebene 1
370
     0
100
AcDbVertex
100
AcDb2dVertex
 10
603.2353515625
 20
118.353515625
 30
0.0
  0
VERTEX
  5
77F
330
77D
100
AcDbEntity
  8
Ebene 1
370
     0
100
AcDbVertex
100
AcDb2dVertex
 10
610.3828125
 20
118.353515625
 30
0.0
  0
SEQEND
  5
780
330
77D
100
AcDbEntity
  8
Ebene 1
370
     0
  0
POLYLINE
  5
781
330
3C
100
AcDbEntity
  8
Ebene 1
370
     0
100
AcDb2dPolyline
 66
     1
 10
0.0
 20
0.0
 30
0.0
  0
VERTEX
  5
782
330
781
100
AcDbEntity
  8
Ebene 1
370
     0
100
AcDbVertex
100
AcDb2dVertex
 10
556.69140625
 20
150.82421875
 30
0.0
  0
VERTEX
  5
783
330
781
100
AcDbEntity
  8
Ebene 1
370
     0
100
AcDbVertex
100
AcDb2dVertex
 10
563.970703125
 20
150.82421875
 30
0.0
  0
SEQEND
  5
784
330
781
100
AcDbEntity
  8
Ebene 1
370
     0
  0
POLYLINE
  5
785
330
3C
100
AcDbEntity
  8
Ebene 1
370
     0
100
AcDb2dPolyline
 66
     1
 10
0.0
 20
0.0
 30
0.0
  0
VERTEX
  5
786
330
785
100
AcDbEntity
  8
Ebene 1
370
     0
100
AcDbVertex
100
AcDb2dVertex
 10
566.7060546875
 20
150.82421875
 30
0.0
  0
VERTEX
  5
787
330
785
100
AcDbEntity
  8
Ebene 1
370
     0
100
AcDbVertex
100
AcDb2dVertex
 10
569.44140625
 20
150.82421875
 30
0.0
  0
SEQEND
  5
788
330
785
100
AcDbEntity
  8
Ebene 1
370
     0
  0
POLYLINE
  5
789
330
3C
100
AcDbEntity
  8
Ebene 1
370
     0
100
AcDb2dPolyline
 66
     1
 10
0.0
 20
0.0
 30
0.0
  0
VERTEX
  5
78A
330
789
100
AcDbEntity
  8
Ebene 1
370
     0
100
AcDbVertex
100
AcDb2dVertex
 10
572.1767578125
 20
150.82421875
 30
0.0
  0
VERTEX
  5
78B
330
789
100
AcDbEntity
  8
Ebene 1
370
     0
100
AcDbVertex
100
AcDb2dVertex
 10
574.9560546875
 20
150.82421875
 30
0.0
  0
SEQEND
  5
78C
330
789
100
AcDbEntity
  8
Ebene 1
370
     0
  0
POLYLINE
  5
78D
330
3C
100
AcDbEntity
  8
Ebene 1
370
     0
100
AcDb2dPolyline
 66
     1
 10
0.0
 20
0.0
 30
0.0
  0
VERTEX
  5
78E
330
78D
100
AcDbEntity
  8
Ebene 1
370
     0
100
AcDbVertex
100
AcDb2dVertex
 10
577.69140625
 20
150.82421875
 30
0.0
  0
VERTEX
  5
78F
330
78D
100
AcDbEntity
  8
Ebene 1
370
     0
100
AcDbVertex
100
AcDb2dVertex
 10
591.412109375
 20
150.82421875
 30
0.0
  0
SEQEND
  5
790
330
78D
100
AcDbEntity
  8
Ebene 1
370
     0
  0
POLYLINE
  5
791
330
3C
100
AcDbEntity
  8
Ebene 1
370
     0
100
AcDb2dPolyline
 66
     1
 10
0.0
 20
0.0
 30
0.0
  0
VERTEX
  5
792
330
791
100
AcDbEntity
  8
Ebene 1
370
     0
100
AcDbVertex
100
AcDb2dVertex
 10
594.1474609375
 20
150.82421875
 30
0.0
  0
VERTEX
  5
793
330
791
100
AcDbEntity
  8
Ebene 1
370
     0
100
AcDbVertex
100
AcDb2dVertex
 10
596.8828125
 20
150.82421875
 30
0.0
  0
SEQEND
  5
794
330
791
100
AcDbEntity
  8
Ebene 1
370
     0
  0
POLYLINE
  5
795
330
3C
100
AcDbEntity
  8
Ebene 1
370
     0
100
AcDb2dPolyline
 66
     1
 10
0.0
 20
0.0
 30
0.0
  0
VERTEX
  5
796
330
795
100
AcDbEntity
  8
Ebene 1
370
     0
100
AcDbVertex
100
AcDb2dVertex
 10
599.662109375
 20
150.82421875
 30
0.0
  0
VERTEX
  5
797
330
795
100
AcDbEntity
  8
Ebene 1
370
     0
100
AcDbVertex
100
AcDb2dVertex
 10
602.3974609375
 20
150.82421875
 30
0.0
  0
SEQEND
  5
798
330
795
100
AcDbEntity
  8
Ebene 1
370
     0
  0
POLYLINE
  5
799
330
3C
100
AcDbEntity
  8
Ebene 1
370
     0
100
AcDb2dPolyline
 66
     1
 10
0.0
 20
0.0
 30
0.0
  0
VERTEX
  5
79A
330
799
100
AcDbEntity
  8
Ebene 1
370
     0
100
AcDbVertex
100
AcDb2dVertex
 10
605.1328125
 20
150.82421875
 30
0.0
  0
VERTEX
  5
79B
330
799
100
AcDbEntity
  8
Ebene 1
370
     0
100
AcDbVertex
100
AcDb2dVertex
 10
612.4560546875
 20
150.82421875
 30
0.0
  0
SEQEND
  5
79C
330
799
100
AcDbEntity
  8
Ebene 1
370
     0
  0
POLYLINE
  5
79D
330
3C
100
AcDbEntity
  8
Ebene 1
370
     0
100
AcDb2dPolyline
 66
     1
 10
0.0
 20
0.0
 30
0.0
  0
VERTEX
  5
79E
330
79D
100
AcDbEntity
  8
Ebene 1
370
     0
100
AcDbVertex
100
AcDb2dVertex
 10
604.8232421875
 20
97.662109375
 30
0.0
  0
VERTEX
  5
79F
330
79D
100
AcDbEntity
  8
Ebene 1
370
     0
100
AcDbVertex
100
AcDb2dVertex
 10
604.1171875
 20
98.5
 30
0.0
  0
VERTEX
  5
7A0
330
79D
100
AcDbEntity
  8
Ebene 1
370
     0
100
AcDbVertex
100
AcDb2dVertex
 10
603.3232421875
 20
99.2939453125
 30
0.0
  0
VERTEX
  5
7A1
330
79D
100
AcDbEntity
  8
Ebene 1
370
     0
100
AcDbVertex
100
AcDb2dVertex
 10
602.44140625
 20
100.0
 30
0.0
  0
VERTEX
  5
7A2
330
79D
100
AcDbEntity
  8
Ebene 1
370
     0
100
AcDbVertex
100
AcDb2dVertex
 10
601.470703125
 20
100.6171875
 30
0.0
  0
VERTEX
  5
7A3
330
79D
100
AcDbEntity
  8
Ebene 1
370
     0
100
AcDbVertex
100
AcDb2dVertex
 10
600.5
 20
101.146484375
 30
0.0
  0
VERTEX
  5
7A4
330
79D
100
AcDbEntity
  8
Ebene 1
370
     0
100
AcDbVertex
100
AcDb2dVertex
 10
599.44140625
 20
101.5439453125
 30
0.0
  0
VERTEX
  5
7A5
330
79D
100
AcDbEntity
  8
Ebene 1
370
     0
100
AcDbVertex
100
AcDb2dVertex
 10
598.337890625
 20
101.853515625
 30
0.0
  0
VERTEX
  5
7A6
330
79D
100
AcDbEntity
  8
Ebene 1
370
     0
100
AcDbVertex
100
AcDb2dVertex
 10
597.2353515625
 20
102.029296875
 30
0.0
  0
VERTEX
  5
7A7
330
79D
100
AcDbEntity
  8
Ebene 1
370
     0
100
AcDbVertex
100
AcDb2dVertex
 10
596.087890625
 20
102.07421875
 30
0.0
  0
SEQEND
  5
7A8
330
79D
100
AcDbEntity
  8
Ebene 1
370
     0
  0
POLYLINE
  5
7A9
330
3C
100
AcDbEntity
  8
Ebene 1
370
     0
100
AcDb2dPolyline
 66
     1
 10
0.0
 20
0.0
 30
0.0
  0
VERTEX
  5
7AA
330
7A9
100
AcDbEntity
  8
Ebene 1
370
     0
100
AcDbVertex
100
AcDb2dVertex
 10
660.4560546875
 20
27.0732421875
 30
0.0
  0
VERTEX
  5
7AB
330
7A9
100
AcDbEntity
  8
Ebene 1
370
     0
100
AcDbVertex
100
AcDb2dVertex
 10
661.3828125
 20
25.9267578125
 30
0.0
  0
VERTEX
  5
7AC
330
7A9
100
AcDbEntity
  8
Ebene 1
370
     0
100
AcDbVertex
100
AcDb2dVertex
 10
662.3974609375
 20
24.8671875
 30
0.0
  0
VERTEX
  5
7AD
330
7A9
100
AcDbEntity
  8
Ebene 1
370
     0
100
AcDbVertex
100
AcDb2dVertex
 10
663.5
 20
23.8525390625
 30
0.0
  0
VERTEX
  5
7AE
330
7A9
100
AcDbEntity
  8
Ebene 1
370
     0
100
AcDbVertex
100
AcDb2dVertex
 10
664.6474609375
 20
22.970703125
 30
0.0
  0
VERTEX
  5
7AF
330
7A9
100
AcDbEntity
  8
Ebene 1
370
     0
100
AcDbVertex
100
AcDb2dVertex
 10
665.9267578125
 20
22.220703125
 30
0.0
  0
VERTEX
  5
7B0
330
7A9
100
AcDbEntity
  8
Ebene 1
370
     0
100
AcDbVertex
100
AcDb2dVertex
 10
667.25
 20
21.5146484375
 30
0.0
  0
VERTEX
  5
7B1
330
7A9
100
AcDbEntity
  8
Ebene 1
370
     0
100
AcDbVertex
100
AcDb2dVertex
 10
668.6171875
 20
20.9853515625
 30
0.0
  0
VERTEX
  5
7B2
330
7A9
100
AcDbEntity
  8
Ebene 1
370
     0
100
AcDbVertex
100
AcDb2dVertex
 10
670.029296875
 20
20.5439453125
 30
0.0
  0
VERTEX
  5
7B3
330
7A9
100
AcDbEntity
  8
Ebene 1
370
     0
100
AcDbVertex
100
AcDb2dVertex
 10
671.44140625
 20
20.2353515625
 30
0.0
  0
VERTEX
  5
7B4
330
7A9
100
AcDbEntity
  8
Ebene 1
370
     0
100
AcDbVertex
100
AcDb2dVertex
 10
672.94140625
 20
20.0146484375
 30
0.0
  0
VERTEX
  5
7B5
330
7A9
100
AcDbEntity
  8
Ebene 1
370
     0
100
AcDbVertex
100
AcDb2dVertex
 10
674.3974609375
 20
19.970703125
 30
0.0
  0
SEQEND
  5
7B6
330
7A9
100
AcDbEntity
  8
Ebene 1
370
     0
  0
POLYLINE
  5
7B7
330
3C
100
AcDbEntity
  8
Ebene 1
370
     0
100
AcDb2dPolyline
 66
     1
 10
0.0
 20
0.0
 30
0.0
  0
VERTEX
  5
7B8
330
7B7
100
AcDbEntity
  8
Ebene 1
370
     0
100
AcDbVertex
100
AcDb2dVertex
 10
738.720703125
 20
37.2646484375
 30
0.0
  0
VERTEX
  5
7B9
330
7B7
100
AcDbEntity
  8
Ebene 1
370
     0
100
AcDbVertex
100
AcDb2dVertex
 10
738.6767578125
 20
38.1474609375
 30
0.0
  0
VERTEX
  5
7BA
330
7B7
100
AcDbEntity
  8
Ebene 1
370
     0
100
AcDbVertex
100
AcDb2dVertex
 10
738.5
 20
39.029296875
 30
0.0
  0
VERTEX
  5
7BB
330
7B7
100
AcDbEntity
  8
Ebene 1
370
     0
100
AcDbVertex
100
AcDb2dVertex
 10
738.2353515625
 20
39.8671875
 30
0.0
  0
VERTEX
  5
7BC
330
7B7
100
AcDbEntity
  8
Ebene 1
370
     0
100
AcDbVertex
100
AcDb2dVertex
 10
737.837890625
 20
40.662109375
 30
0.0
  0
VERTEX
  5
7BD
330
7B7
100
AcDbEntity
  8
Ebene 1
370
     0
100
AcDbVertex
100
AcDb2dVertex
 10
737.3974609375
 20
41.3671875
 30
0.0
  0
VERTEX
  5
7BE
330
7B7
100
AcDbEntity
  8
Ebene 1
370
     0
100
AcDbVertex
100
AcDb2dVertex
 10
736.8232421875
 20
42.0732421875
 30
0.0
  0
VERTEX
  5
7BF
330
7B7
100
AcDbEntity
  8
Ebene 1
370
     0
100
AcDbVertex
100
AcDb2dVertex
 10
736.162109375
 20
42.69140625
 30
0.0
  0
VERTEX
  5
7C0
330
7B7
100
AcDbEntity
  8
Ebene 1
370
     0
100
AcDbVertex
100
AcDb2dVertex
 10
735.4560546875
 20
43.1767578125
 30
0.0
  0
VERTEX
  5
7C1
330
7B7
100
AcDbEntity
  8
Ebene 1
370
     0
100
AcDbVertex
100
AcDb2dVertex
 10
734.7060546875
 20
43.6171875
 30
0.0
  0
VERTEX
  5
7C2
330
7B7
100
AcDbEntity
  8
Ebene 1
370
     0
100
AcDbVertex
100
AcDb2dVertex
 10
733.8671875
 20
43.9267578125
 30
0.0
  0
VERTEX
  5
7C3
330
7B7
100
AcDbEntity
  8
Ebene 1
370
     0
100
AcDbVertex
100
AcDb2dVertex
 10
733.029296875
 20
44.1474609375
 30
0.0
  0
VERTEX
  5
7C4
330
7B7
100
AcDbEntity
  8
Ebene 1
370
     0
100
AcDbVertex
100
AcDb2dVertex
 10
732.1474609375
 20
44.279296875
 30
0.0
  0
VERTEX
  5
7C5
330
7B7
100
AcDbEntity
  8
Ebene 1
370
     0
100
AcDbVertex
100
AcDb2dVertex
 10
731.2646484375
 20
44.279296875
 30
0.0
  0
VERTEX
  5
7C6
330
7B7
100
AcDbEntity
  8
Ebene 1
370
     0
100
AcDbVertex
100
AcDb2dVertex
 10
730.3828125
 20
44.1474609375
 30
0.0
  0
VERTEX
  5
7C7
330
7B7
100
AcDbEntity
  8
Ebene 1
370
     0
100
AcDbVertex
100
AcDb2dVertex
 10
729.5439453125
 20
43.9267578125
 30
0.0
  0
VERTEX
  5
7C8
330
7B7
100
AcDbEntity
  8
Ebene 1
370
     0
100
AcDbVertex
100
AcDb2dVertex
 10
728.7060546875
 20
43.6171875
 30
0.0
  0
VERTEX
  5
7C9
330
7B7
100
AcDbEntity
  8
Ebene 1
370
     0
100
AcDbVertex
100
AcDb2dVertex
 10
727.9560546875
 20
43.1767578125
 30
0.0
  0
VERTEX
  5
7CA
330
7B7
100
AcDbEntity
  8
Ebene 1
370
     0
100
AcDbVertex
100
AcDb2dVertex
 10
727.25
 20
42.69140625
 30
0.0
  0
VERTEX
  5
7CB
330
7B7
100
AcDbEntity
  8
Ebene 1
370
     0
100
AcDbVertex
100
AcDb2dVertex
 10
726.587890625
 20
42.0732421875
 30
0.0
  0
VERTEX
  5
7CC
330
7B7
100
AcDbEntity
  8
Ebene 1
370
     0
100
AcDbVertex
100
AcDb2dVertex
 10
726.0146484375
 20
41.3671875
 30
0.0
  0
VERTEX
  5
7CD
330
7B7
100
AcDbEntity
  8
Ebene 1
370
     0
100
AcDbVertex
100
AcDb2dVertex
 10
725.5732421875
 20
40.662109375
 30
0.0
  0
VERTEX
  5
7CE
330
7B7
100
AcDbEntity
  8
Ebene 1
370
     0
100
AcDbVertex
100
AcDb2dVertex
 10
725.1767578125
 20
39.8671875
 30
0.0
  0
VERTEX
  5
7CF
330
7B7
100
AcDbEntity
  8
Ebene 1
370
     0
100
AcDbVertex
100
AcDb2dVertex
 10
724.912109375
 20
39.029296875
 30
0.0
  0
VERTEX
  5
7D0
330
7B7
100
AcDbEntity
  8
Ebene 1
370
     0
100
AcDbVertex
100
AcDb2dVertex
 10
724.7353515625
 20
38.1474609375
 30
0.0
  0
VERTEX
  5
7D1
330
7B7
100
AcDbEntity
  8
Ebene 1
370
     0
100
AcDbVertex
100
AcDb2dVertex
 10
724.69140625
 20
37.2646484375
 30
0.0
  0
VERTEX
  5
7D2
330
7B7
100
AcDbEntity
  8
Ebene 1
370
     0
100
AcDbVertex
100
AcDb2dVertex
 10
724.7353515625
 20
36.3828125
 30
0.0
  0
VERTEX
  5
7D3
330
7B7
100
AcDbEntity
  8
Ebene 1
370
     0
100
AcDbVertex
100
AcDb2dVertex
 10
724.912109375
 20
35.5
 30
0.0
  0
VERTEX
  5
7D4
330
7B7
100
AcDbEntity
  8
Ebene 1
370
     0
100
AcDbVertex
100
AcDb2dVertex
 10
725.1767578125
 20
34.662109375
 30
0.0
  0
VERTEX
  5
7D5
330
7B7
100
AcDbEntity
  8
Ebene 1
370
     0
100
AcDbVertex
100
AcDb2dVertex
 10
725.5732421875
 20
33.8671875
 30
0.0
  0
VERTEX
  5
7D6
330
7B7
100
AcDbEntity
  8
Ebene 1
370
     0
100
AcDbVertex
100
AcDb2dVertex
 10
726.0146484375
 20
33.162109375
 30
0.0
  0
VERTEX
  5
7D7
330
7B7
100
AcDbEntity
  8
Ebene 1
370
     0
100
AcDbVertex
100
AcDb2dVertex
 10
726.587890625
 20
32.4560546875
 30
0.0
  0
VERTEX
  5
7D8
330
7B7
100
AcDbEntity
  8
Ebene 1
370
     0
100
AcDbVertex
100
AcDb2dVertex
 10
727.25
 20
31.837890625
 30
0.0
  0
VERTEX
  5
7D9
330
7B7
100
AcDbEntity
  8
Ebene 1
370
     0
100
AcDbVertex
100
AcDb2dVertex
 10
727.9560546875
 20
31.3525390625
 30
0.0
  0
VERTEX
  5
7DA
330
7B7
100
AcDbEntity
  8
Ebene 1
370
     0
100
AcDbVertex
100
AcDb2dVertex
 10
728.7060546875
 20
30.912109375
 30
0.0
  0
VERTEX
  5
7DB
330
7B7
100
AcDbEntity
  8
Ebene 1
370
     0
100
AcDbVertex
100
AcDb2dVertex
 10
729.5439453125
 20
30.6025390625
 30
0.0
  0
VERTEX
  5
7DC
330
7B7
100
AcDbEntity
  8
Ebene 1
370
     0
100
AcDbVertex
100
AcDb2dVertex
 10
730.3828125
 20
30.3828125
 30
0.0
  0
VERTEX
  5
7DD
330
7B7
100
AcDbEntity
  8
Ebene 1
370
     0
100
AcDbVertex
100
AcDb2dVertex
 10
731.2646484375
 20
30.25
 30
0.0
  0
VERTEX
  5
7DE
330
7B7
100
AcDbEntity
  8
Ebene 1
370
     0
100
AcDbVertex
100
AcDb2dVertex
 10
732.1474609375
 20
30.25
 30
0.0
  0
VERTEX
  5
7DF
330
7B7
100
AcDbEntity
  8
Ebene 1
370
     0
100
AcDbVertex
100
AcDb2dVertex
 10
733.029296875
 20
30.3828125
 30
0.0
  0
VERTEX
  5
7E0
330
7B7
100
AcDbEntity
  8
Ebene 1
370
     0
100
AcDbVertex
100
AcDb2dVertex
 10
733.8671875
 20
30.6025390625
 30
0.0
  0
VERTEX
  5
7E1
330
7B7
100
AcDbEntity
  8
Ebene 1
370
     0
100
AcDbVertex
100
AcDb2dVertex
 10
734.7060546875
 20
30.912109375
 30
0.0
  0
VERTEX
  5
7E2
330
7B7
100
AcDbEntity
  8
Ebene 1
370
     0
100
AcDbVertex
100
AcDb2dVertex
 10
735.4560546875
 20
31.3525390625
 30
0.0
  0
VERTEX
  5
7E3
330
7B7
100
AcDbEntity
  8
Ebene 1
370
     0
100
AcDbVertex
100
AcDb2dVertex
 10
736.162109375
 20
31.837890625
 30
0.0
  0
VERTEX
  5
7E4
330
7B7
100
AcDbEntity
  8
Ebene 1
370
     0
100
AcDbVertex
100
AcDb2dVertex
 10
736.8232421875
 20
32.4560546875
 30
0.0
  0
VERTEX
  5
7E5
330
7B7
100
AcDbEntity
  8
Ebene 1
370
     0
100
AcDbVertex
100
AcDb2dVertex
 10
737.3974609375
 20
33.162109375
 30
0.0
  0
VERTEX
  5
7E6
330
7B7
100
AcDbEntity
  8
Ebene 1
370
     0
100
AcDbVertex
100
AcDb2dVertex
 10
737.837890625
 20
33.8671875
 30
0.0
  0
VERTEX
  5
7E7
330
7B7
100
AcDbEntity
  8
Ebene 1
370
     0
100
AcDbVertex
100
AcDb2dVertex
 10
738.2353515625
 20
34.662109375
 30
0.0
  0
VERTEX
  5
7E8
330
7B7
100
AcDbEntity
  8
Ebene 1
370
     0
100
AcDbVertex
100
AcDb2dVertex
 10
738.5
 20
35.5
 30
0.0
  0
VERTEX
  5
7E9
330
7B7
100
AcDbEntity
  8
Ebene 1
370
     0
100
AcDbVertex
100
AcDb2dVertex
 10
738.6767578125
 20
36.3828125
 30
0.0
  0
VERTEX
  5
7EA
330
7B7
100
AcDbEntity
  8
Ebene 1
370
     0
100
AcDbVertex
100
AcDb2dVertex
 10
738.720703125
 20
37.2646484375
 30
0.0
  0
VERTEX
  5
7EB
330
7B7
100
AcDbEntity
  8
Ebene 1
370
     0
100
AcDbVertex
100
AcDb2dVertex
 10
738.720703125
 20
37.2646484375
 30
0.0
  0
SEQEND
  5
7EC
330
7B7
100
AcDbEntity
  8
Ebene 1
370
     0
  0
POLYLINE
  5
7ED
330
3C
100
AcDbEntity
  8
Ebene 1
370
     0
100
AcDb2dPolyline
 66
     1
 10
0.0
 20
0.0
 30
0.0
  0
VERTEX
  5
7EE
330
7ED
100
AcDbEntity
  8
Ebene 1
370
     0
100
AcDbVertex
100
AcDb2dVertex
 10
731.7060546875
 20
28.6171875
 30
0.0
  0
VERTEX
  5
7EF
330
7ED
100
AcDbEntity
  8
Ebene 1
370
     0
100
AcDbVertex
100
AcDb2dVertex
 10
731.7060546875
 20
45.912109375
 30
0.0
  0
SEQEND
  5
7F0
330
7ED
100
AcDbEntity
  8
Ebene 1
370
     0
  0
POLYLINE
  5
7F1
330
3C
100
AcDbEntity
  8
Ebene 1
370
     0
100
AcDb2dPolyline
 66
     1
 10
0.0
 20
0.0
 30
0.0
  0
VERTEX
  5
7F2
330
7F1
100
AcDbEntity
  8
Ebene 1
370
     0
100
AcDbVertex
100
AcDb2dVertex
 10
740.3525390625
 20
37.2646484375
 30
0.0
  0
VERTEX
  5
7F3
330
7F1
100
AcDbEntity
  8
Ebene 1
370
     0
100
AcDbVertex
100
AcDb2dVertex
 10
723.05859375
 20
37.2646484375
 30
0.0
  0
SEQEND
  5
7F4
330
7F1
100
AcDbEntity
  8
Ebene 1
370
     0
  0
POLYLINE
  5
7F5
330
3C
100
AcDbEntity
  8
Ebene 1
370
     0
100
AcDb2dPolyline
 66
     1
 10
0.0
 20
0.0
 30
0.0
  0
VERTEX
  5
7F6
330
7F5
100
AcDbEntity
  8
Ebene 1
370
     0
100
AcDbVertex
100
AcDb2dVertex
 10
731.7060546875
 20
19.970703125
 30
0.0
  0
VERTEX
  5
7F7
330
7F5
100
AcDbEntity
  8
Ebene 1
370
     0
100
AcDbVertex
100
AcDb2dVertex
 10
733.0732421875
 20
20.0146484375
 30
0.0
  0
VERTEX
  5
7F8
330
7F5
100
AcDbEntity
  8
Ebene 1
370
     0
100
AcDbVertex
100
AcDb2dVertex
 10
734.4853515625
 20
20.19140625
 30
0.0
  0
VERTEX
  5
7F9
330
7F5
100
AcDbEntity
  8
Ebene 1
370
     0
100
AcDbVertex
100
AcDb2dVertex
 10
735.8525390625
 20
20.4560546875
 30
0.0
  0
VERTEX
  5
7FA
330
7F5
100
AcDbEntity
  8
Ebene 1
370
     0
100
AcDbVertex
100
AcDb2dVertex
 10
737.1767578125
 20
20.8525390625
 30
0.0
  0
VERTEX
  5
7FB
330
7F5
100
AcDbEntity
  8
Ebene 1
370
     0
100
AcDbVertex
100
AcDb2dVertex
 10
738.4560546875
 20
21.337890625
 30
0.0
  0
VERTEX
  5
7FC
330
7F5
100
AcDbEntity
  8
Ebene 1
370
     0
100
AcDbVertex
100
AcDb2dVertex
 10
739.7353515625
 20
21.9560546875
 30
0.0
  0
VERTEX
  5
7FD
330
7F5
100
AcDbEntity
  8
Ebene 1
370
     0
100
AcDbVertex
100
AcDb2dVertex
 10
740.9267578125
 20
22.662109375
 30
0.0
  0
VERTEX
  5
7FE
330
7F5
100
AcDbEntity
  8
Ebene 1
370
     0
100
AcDbVertex
100
AcDb2dVertex
 10
742.0732421875
 20
23.4560546875
 30
0.0
  0
VERTEX
  5
7FF
330
7F5
100
AcDbEntity
  8
Ebene 1
370
     0
100
AcDbVertex
100
AcDb2dVertex
 10
743.1328125
 20
24.337890625
 30
0.0
  0
VERTEX
  5
800
330
7F5
100
AcDbEntity
  8
Ebene 1
370
     0
100
AcDbVertex
100
AcDb2dVertex
 10
744.1474609375
 20
25.2646484375
 30
0.0
  0
VERTEX
  5
801
330
7F5
100
AcDbEntity
  8
Ebene 1
370
     0
100
AcDbVertex
100
AcDb2dVertex
 10
745.0732421875
 20
26.3232421875
 30
0.0
  0
VERTEX
  5
802
330
7F5
100
AcDbEntity
  8
Ebene 1
370
     0
100
AcDbVertex
100
AcDb2dVertex
 10
745.912109375
 20
27.4267578125
 30
0.0
  0
VERTEX
  5
803
330
7F5
100
AcDbEntity
  8
Ebene 1
370
     0
100
AcDbVertex
100
AcDb2dVertex
 10
746.662109375
 20
28.6171875
 30
0.0
  0
VERTEX
  5
804
330
7F5
100
AcDbEntity
  8
Ebene 1
370
     0
100
AcDbVertex
100
AcDb2dVertex
 10
747.279296875
 20
29.8525390625
 30
0.0
  0
VERTEX
  5
805
330
7F5
100
AcDbEntity
  8
Ebene 1
370
     0
100
AcDbVertex
100
AcDb2dVertex
 10
747.8525390625
 20
31.1328125
 30
0.0
  0
VERTEX
  5
806
330
7F5
100
AcDbEntity
  8
Ebene 1
370
     0
100
AcDbVertex
100
AcDb2dVertex
 10
748.2939453125
 20
32.4560546875
 30
0.0
  0
VERTEX
  5
807
330
7F5
100
AcDbEntity
  8
Ebene 1
370
     0
100
AcDbVertex
100
AcDb2dVertex
 10
748.6025390625
 20
33.8232421875
 30
0.0
  0
VERTEX
  5
808
330
7F5
100
AcDbEntity
  8
Ebene 1
370
     0
100
AcDbVertex
100
AcDb2dVertex
 10
748.8232421875
 20
35.19140625
 30
0.0
  0
VERTEX
  5
809
330
7F5
100
AcDbEntity
  8
Ebene 1
370
     0
100
AcDbVertex
100
AcDb2dVertex
 10
748.9560546875
 20
36.55859375
 30
0.0
  0
VERTEX
  5
80A
330
7F5
100
AcDbEntity
  8
Ebene 1
370
     0
100
AcDbVertex
100
AcDb2dVertex
 10
748.9560546875
 20
37.970703125
 30
0.0
  0
VERTEX
  5
80B
330
7F5
100
AcDbEntity
  8
Ebene 1
370
     0
100
AcDbVertex
100
AcDb2dVertex
 10
748.8232421875
 20
39.337890625
 30
0.0
  0
VERTEX
  5
80C
330
7F5
100
AcDbEntity
  8
Ebene 1
370
     0
100
AcDbVertex
100
AcDb2dVertex
 10
748.6025390625
 20
40.7060546875
 30
0.0
  0
VERTEX
  5
80D
330
7F5
100
AcDbEntity
  8
Ebene 1
370
     0
100
AcDbVertex
100
AcDb2dVertex
 10
748.2939453125
 20
42.0732421875
 30
0.0
  0
VERTEX
  5
80E
330
7F5
100
AcDbEntity
  8
Ebene 1
370
     0
100
AcDbVertex
100
AcDb2dVertex
 10
747.8525390625
 20
43.3974609375
 30
0.0
  0
VERTEX
  5
80F
330
7F5
100
AcDbEntity
  8
Ebene 1
370
     0
100
AcDbVertex
100
AcDb2dVertex
 10
747.279296875
 20
44.6767578125
 30
0.0
  0
VERTEX
  5
810
330
7F5
100
AcDbEntity
  8
Ebene 1
370
     0
100
AcDbVertex
100
AcDb2dVertex
 10
746.662109375
 20
45.912109375
 30
0.0
  0
VERTEX
  5
811
330
7F5
100
AcDbEntity
  8
Ebene 1
370
     0
100
AcDbVertex
100
AcDb2dVertex
 10
745.912109375
 20
47.1025390625
 30
0.0
  0
VERTEX
  5
812
330
7F5
100
AcDbEntity
  8
Ebene 1
370
     0
100
AcDbVertex
100
AcDb2dVertex
 10
745.0732421875
 20
48.2060546875
 30
0.0
  0
VERTEX
  5
813
330
7F5
100
AcDbEntity
  8
Ebene 1
370
     0
100
AcDbVertex
100
AcDb2dVertex
 10
744.1474609375
 20
49.2646484375
 30
0.0
  0
VERTEX
  5
814
330
7F5
100
AcDbEntity
  8
Ebene 1
370
     0
100
AcDbVertex
100
AcDb2dVertex
 10
743.1328125
 20
50.19140625
 30
0.0
  0
VERTEX
  5
815
330
7F5
100
AcDbEntity
  8
Ebene 1
370
     0
100
AcDbVertex
100
AcDb2dVertex
 10
742.0732421875
 20
51.0732421875
 30
0.0
  0
VERTEX
  5
816
330
7F5
100
AcDbEntity
  8
Ebene 1
370
     0
100
AcDbVertex
100
AcDb2dVertex
 10
740.9267578125
 20
51.8671875
 30
0.0
  0
VERTEX
  5
817
330
7F5
100
AcDbEntity
  8
Ebene 1
370
     0
100
AcDbVertex
100
AcDb2dVertex
 10
739.7353515625
 20
52.5732421875
 30
0.0
  0
VERTEX
  5
818
330
7F5
100
AcDbEntity
  8
Ebene 1
370
     0
100
AcDbVertex
100
AcDb2dVertex
 10
738.4560546875
 20
53.19140625
 30
0.0
  0
VERTEX
  5
819
330
7F5
100
AcDbEntity
  8
Ebene 1
370
     0
100
AcDbVertex
100
AcDb2dVertex
 10
737.1767578125
 20
53.6767578125
 30
0.0
  0
VERTEX
  5
81A
330
7F5
100
AcDbEntity
  8
Ebene 1
370
     0
100
AcDbVertex
100
AcDb2dVertex
 10
735.8525390625
 20
54.0732421875
 30
0.0
  0
VERTEX
  5
81B
330
7F5
100
AcDbEntity
  8
Ebene 1
370
     0
100
AcDbVertex
100
AcDb2dVertex
 10
734.4853515625
 20
54.337890625
 30
0.0
  0
VERTEX
  5
81C
330
7F5
100
AcDbEntity
  8
Ebene 1
370
     0
100
AcDbVertex
100
AcDb2dVertex
 10
733.0732421875
 20
54.5146484375
 30
0.0
  0
VERTEX
  5
81D
330
7F5
100
AcDbEntity
  8
Ebene 1
370
     0
100
AcDbVertex
100
AcDb2dVertex
 10
731.7060546875
 20
54.55859375
 30
0.0
  0
SEQEND
  5
81E
330
7F5
100
AcDbEntity
  8
Ebene 1
370
     0
  0
POLYLINE
  5
81F
330
3C
100
AcDbEntity
  8
Ebene 1
370
     0
100
AcDb2dPolyline
 66
     1
 10
0.0
 20
0.0
 30
0.0
  0
VERTEX
  5
820
330
81F
100
AcDbEntity
  8
Ebene 1
370
     0
100
AcDbVertex
100
AcDb2dVertex
 10
731.7060546875
 20
19.970703125
 30
0.0
  0
VERTEX
  5
821
330
81F
100
AcDbEntity
  8
Ebene 1
370
     0
100
AcDbVertex
100
AcDb2dVertex
 10
715.2939453125
 20
19.970703125
 30
0.0
  0
SEQEND
  5
822
330
81F
100
AcDbEntity
  8
Ebene 1
370
     0
  0
POLYLINE
  5
823
330
3C
100
AcDbEntity
  8
Ebene 1
370
     0
100
AcDb2dPolyline
 66
     1
 10
0.0
 20
0.0
 30
0.0
  0
VERTEX
  5
824
330
823
100
AcDbEntity
  8
Ebene 1
370
     0
100
AcDbVertex
100
AcDb2dVertex
 10
690.80859375
 20
19.970703125
 30
0.0
  0
VERTEX
  5
825
330
823
100
AcDbEntity
  8
Ebene 1
370
     0
100
AcDbVertex
100
AcDb2dVertex
 10
674.3974609375
 20
19.970703125
 30
0.0
  0
SEQEND
  5
826
330
823
100
AcDbEntity
  8
Ebene 1
370
     0
  0
POLYLINE
  5
827
330
3C
100
AcDbEntity
  8
Ebene 1
370
     0
100
AcDb2dPolyline
 66
     1
 10
0.0
 20
0.0
 30
0.0
  0
VERTEX
  5
828
330
827
100
AcDbEntity
  8
Ebene 1
370
     0
100
AcDbVertex
100
AcDb2dVertex
 10
731.7060546875
 20
54.55859375
 30
0.0
  0
VERTEX
  5
829
330
827
100
AcDbEntity
  8
Ebene 1
370
     0
100
AcDbVertex
100
AcDb2dVertex
 10
715.2939453125
 20
54.55859375
 30
0.0
  0
SEQEND
  5
82A
330
827
100
AcDbEntity
  8
Ebene 1
370
     0
  0
POLYLINE
  5
82B
330
3C
100
AcDbEntity
  8
Ebene 1
370
     0
100
AcDb2dPolyline
 66
     1
 10
0.0
 20
0.0
 30
0.0
  0
VERTEX
  5
82C
330
82B
100
AcDbEntity
  8
Ebene 1
370
     0
100
AcDbVertex
100
AcDb2dVertex
 10
681.19140625
 20
64.087890625
 30
0.0
  0
VERTEX
  5
82D
330
82B
100
AcDbEntity
  8
Ebene 1
370
     0
100
AcDbVertex
100
AcDb2dVertex
 10
681.8525390625
 20
62.8525390625
 30
0.0
  0
VERTEX
  5
82E
330
82B
100
AcDbEntity
  8
Ebene 1
370
     0
100
AcDbVertex
100
AcDb2dVertex
 10
682.6474609375
 20
61.662109375
 30
0.0
  0
VERTEX
  5
82F
330
82B
100
AcDbEntity
  8
Ebene 1
370
     0
100
AcDbVertex
100
AcDb2dVertex
 10
683.529296875
 20
60.55859375
 30
0.0
  0
VERTEX
  5
830
330
82B
100
AcDbEntity
  8
Ebene 1
370
     0
100
AcDbVertex
100
AcDb2dVertex
 10
684.5
 20
59.5
 30
0.0
  0
VERTEX
  5
831
330
82B
100
AcDbEntity
  8
Ebene 1
370
     0
100
AcDbVertex
100
AcDb2dVertex
 10
685.55859375
 20
58.5732421875
 30
0.0
  0
VERTEX
  5
832
330
82B
100
AcDbEntity
  8
Ebene 1
370
     0
100
AcDbVertex
100
AcDb2dVertex
 10
686.662109375
 20
57.69140625
 30
0.0
  0
VERTEX
  5
833
330
82B
100
AcDbEntity
  8
Ebene 1
370
     0
100
AcDbVertex
100
AcDb2dVertex
 10
687.8525390625
 20
56.94140625
 30
0.0
  0
VERTEX
  5
834
330
82B
100
AcDbEntity
  8
Ebene 1
370
     0
100
AcDbVertex
100
AcDb2dVertex
 10
689.087890625
 20
56.279296875
 30
0.0
  0
VERTEX
  5
835
330
82B
100
AcDbEntity
  8
Ebene 1
370
     0
100
AcDbVertex
100
AcDb2dVertex
 10
690.412109375
 20
55.7060546875
 30
0.0
  0
VERTEX
  5
836
330
82B
100
AcDbEntity
  8
Ebene 1
370
     0
100
AcDbVertex
100
AcDb2dVertex
 10
691.7353515625
 20
55.2646484375
 30
0.0
  0
SEQEND
  5
837
330
82B
100
AcDbEntity
  8
Ebene 1
370
     0
  0
POLYLINE
  5
838
330
3C
100
AcDbEntity
  8
Ebene 1
370
     0
100
AcDb2dPolyline
 66
     1
 10
0.0
 20
0.0
 30
0.0
  0
VERTEX
  5
839
330
838
100
AcDbEntity
  8
Ebene 1
370
     0
100
AcDbVertex
100
AcDb2dVertex
 10
660.412109375
 20
27.0732421875
 30
0.0
  0
VERTEX
  5
83A
330
838
100
AcDbEntity
  8
Ebene 1
370
     0
100
AcDbVertex
100
AcDb2dVertex
 10
604.8232421875
 20
97.662109375
 30
0.0
  0
SEQEND
  5
83B
330
838
100
AcDbEntity
  8
Ebene 1
370
     0
  0
POLYLINE
  5
83C
330
3C
100
AcDbEntity
  8
Ebene 1
370
     0
100
AcDb2dPolyline
 66
     1
 10
0.0
 20
0.0
 30
0.0
  0
VERTEX
  5
83D
330
83C
100
AcDbEntity
  8
Ebene 1
370
     0
100
AcDbVertex
100
AcDb2dVertex
 10
630.9853515625
 20
155.146484375
 30
0.0
  0
VERTEX
  5
83E
330
83C
100
AcDbEntity
  8
Ebene 1
370
     0
100
AcDbVertex
100
AcDb2dVertex
 10
681.1474609375
 20
64.087890625
 30
0.0
  0
SEQEND
  5
83F
330
83C
100
AcDbEntity
  8
Ebene 1
370
     0
  0
POLYLINE
  5
840
330
3C
100
AcDbEntity
  8
Ebene 1
370
     0
100
AcDb2dPolyline
 66
     1
 10
0.0
 20
0.0
 30
0.0
  0
VERTEX
  5
841
330
840
100
AcDbEntity
  8
Ebene 1
370
     0
100
AcDbVertex
100
AcDb2dVertex
 10
694.6474609375
 20
52.3974609375
 30
0.0
  0
VERTEX
  5
842
330
840
100
AcDbEntity
  8
Ebene 1
370
     0
100
AcDbVertex
100
AcDb2dVertex
 10
695.0
 20
51.5146484375
 30
0.0
  0
VERTEX
  5
843
330
840
100
AcDbEntity
  8
Ebene 1
370
     0
100
AcDbVertex
100
AcDb2dVertex
 10
695.4853515625
 20
50.6328125
 30
0.0
  0
VERTEX
  5
844
330
840
100
AcDbEntity
  8
Ebene 1
370
     0
100
AcDbVertex
100
AcDb2dVertex
 10
696.0146484375
 20
49.7939453125
 30
0.0
  0
VERTEX
  5
845
330
840
100
AcDbEntity
  8
Ebene 1
370
     0
100
AcDbVertex
100
AcDb2dVertex
 10
696.6328125
 20
49.0439453125
 30
0.0
  0
VERTEX
  5
846
330
840
100
AcDbEntity
  8
Ebene 1
370
     0
100
AcDbVertex
100
AcDb2dVertex
 10
697.337890625
 20
48.3828125
 30
0.0
  0
VERTEX
  5
847
330
840
100
AcDbEntity
  8
Ebene 1
370
     0
100
AcDbVertex
100
AcDb2dVertex
 10
698.1328125
 20
47.7646484375
 30
0.0
  0
VERTEX
  5
848
330
840
100
AcDbEntity
  8
Ebene 1
370
     0
100
AcDbVertex
100
AcDb2dVertex
 10
698.970703125
 20
47.279296875
 30
0.0
  0
VERTEX
  5
849
330
840
100
AcDbEntity
  8
Ebene 1
370
     0
100
AcDbVertex
100
AcDb2dVertex
 10
699.8974609375
 20
46.8828125
 30
0.0
  0
VERTEX
  5
84A
330
840
100
AcDbEntity
  8
Ebene 1
370
     0
100
AcDbVertex
100
AcDb2dVertex
 10
700.8232421875
 20
46.5732421875
 30
0.0
  0
VERTEX
  5
84B
330
840
100
AcDbEntity
  8
Ebene 1
370
     0
100
AcDbVertex
100
AcDb2dVertex
 10
701.7939453125
 20
46.3525390625
 30
0.0
  0
VERTEX
  5
84C
330
840
100
AcDbEntity
  8
Ebene 1
370
     0
100
AcDbVertex
100
AcDb2dVertex
 10
702.7646484375
 20
46.2646484375
 30
0.0
  0
VERTEX
  5
84D
330
840
100
AcDbEntity
  8
Ebene 1
370
     0
100
AcDbVertex
100
AcDb2dVertex
 10
703.7353515625
 20
46.30859375
 30
0.0
  0
VERTEX
  5
84E
330
840
100
AcDbEntity
  8
Ebene 1
370
     0
100
AcDbVertex
100
AcDb2dVertex
 10
704.7060546875
 20
46.44140625
 30
0.0
  0
VERTEX
  5
84F
330
840
100
AcDbEntity
  8
Ebene 1
370
     0
100
AcDbVertex
100
AcDb2dVertex
 10
705.6767578125
 20
46.662109375
 30
0.0
  0
VERTEX
  5
850
330
840
100
AcDbEntity
  8
Ebene 1
370
     0
100
AcDbVertex
100
AcDb2dVertex
 10
706.6025390625
 20
47.0146484375
 30
0.0
  0
VERTEX
  5
851
330
840
100
AcDbEntity
  8
Ebene 1
370
     0
100
AcDbVertex
100
AcDb2dVertex
 10
707.4853515625
 20
47.4560546875
 30
0.0
  0
VERTEX
  5
852
330
840
100
AcDbEntity
  8
Ebene 1
370
     0
100
AcDbVertex
100
AcDb2dVertex
 10
708.3232421875
 20
47.9853515625
 30
0.0
  0
VERTEX
  5
853
330
840
100
AcDbEntity
  8
Ebene 1
370
     0
100
AcDbVertex
100
AcDb2dVertex
 10
709.0732421875
 20
48.6025390625
 30
0.0
  0
VERTEX
  5
854
330
840
100
AcDbEntity
  8
Ebene 1
370
     0
100
AcDbVertex
100
AcDb2dVertex
 10
709.7353515625
 20
49.30859375
 30
0.0
  0
VERTEX
  5
855
330
840
100
AcDbEntity
  8
Ebene 1
370
     0
100
AcDbVertex
100
AcDb2dVertex
 10
710.3525390625
 20
50.1025390625
 30
0.0
  0
VERTEX
  5
856
330
840
100
AcDbEntity
  8
Ebene 1
370
     0
100
AcDbVertex
100
AcDb2dVertex
 10
710.8828125
 20
50.94140625
 30
0.0
  0
VERTEX
  5
857
330
840
100
AcDbEntity
  8
Ebene 1
370
     0
100
AcDbVertex
100
AcDb2dVertex
 10
711.279296875
 20
51.8232421875
 30
0.0
  0
SEQEND
  5
858
330
840
100
AcDbEntity
  8
Ebene 1
370
     0
  0
POLYLINE
  5
859
330
3C
100
AcDbEntity
  8
Ebene 1
370
     0
100
AcDb2dPolyline
 66
     1
 10
0.0
 20
0.0
 30
0.0
  0
VERTEX
  5
85A
330
859
100
AcDbEntity
  8
Ebene 1
370
     0
100
AcDbVertex
100
AcDb2dVertex
 10
694.55859375
 20
52.44140625
 30
0.0
  0
VERTEX
  5
85B
330
859
100
AcDbEntity
  8
Ebene 1
370
     0
100
AcDbVertex
100
AcDb2dVertex
 10
694.2939453125
 20
53.05859375
 30
0.0
  0
VERTEX
  5
85C
330
859
100
AcDbEntity
  8
Ebene 1
370
     0
100
AcDbVertex
100
AcDb2dVertex
 10
693.94140625
 20
53.6767578125
 30
0.0
  0
VERTEX
  5
85D
330
859
100
AcDbEntity
  8
Ebene 1
370
     0
100
AcDbVertex
100
AcDb2dVertex
 10
693.5
 20
54.2060546875
 30
0.0
  0
VERTEX
  5
85E
330
859
100
AcDbEntity
  8
Ebene 1
370
     0
100
AcDbVertex
100
AcDb2dVertex
 10
692.970703125
 20
54.6474609375
 30
0.0
  0
VERTEX
  5
85F
330
859
100
AcDbEntity
  8
Ebene 1
370
     0
100
AcDbVertex
100
AcDb2dVertex
 10
692.3525390625
 20
55.0
 30
0.0
  0
VERTEX
  5
860
330
859
100
AcDbEntity
  8
Ebene 1
370
     0
100
AcDbVertex
100
AcDb2dVertex
 10
691.69140625
 20
55.2646484375
 30
0.0
  0
SEQEND
  5
861
330
859
100
AcDbEntity
  8
Ebene 1
370
     0
  0
POLYLINE
  5
862
330
3C
100
AcDbEntity
  8
Ebene 1
370
     0
100
AcDb2dPolyline
 66
     1
 10
0.0
 20
0.0
 30
0.0
  0
VERTEX
  5
863
330
862
100
AcDbEntity
  8
Ebene 1
370
     0
100
AcDbVertex
100
AcDb2dVertex
 10
715.2939453125
 20
54.55859375
 30
0.0
  0
VERTEX
  5
864
330
862
100
AcDbEntity
  8
Ebene 1
370
     0
100
AcDbVertex
100
AcDb2dVertex
 10
714.587890625
 20
54.5146484375
 30
0.0
  0
VERTEX
  5
865
330
862
100
AcDbEntity
  8
Ebene 1
370
     0
100
AcDbVertex
100
AcDb2dVertex
 10
713.8828125
 20
54.2939453125
 30
0.0
  0
VERTEX
  5
866
330
862
100
AcDbEntity
  8
Ebene 1
370
     0
100
AcDbVertex
100
AcDb2dVertex
 10
713.220703125
 20
53.9853515625
 30
0.0
  0
VERTEX
  5
867
330
862
100
AcDbEntity
  8
Ebene 1
370
     0
100
AcDbVertex
100
AcDb2dVertex
 10
712.6025390625
 20
53.587890625
 30
0.0
  0
VERTEX
  5
868
330
862
100
AcDbEntity
  8
Ebene 1
370
     0
100
AcDbVertex
100
AcDb2dVertex
 10
712.0732421875
 20
53.1025390625
 30
0.0
  0
VERTEX
  5
869
330
862
100
AcDbEntity
  8
Ebene 1
370
     0
100
AcDbVertex
100
AcDb2dVertex
 10
711.6328125
 20
52.4853515625
 30
0.0
  0
VERTEX
  5
86A
330
862
100
AcDbEntity
  8
Ebene 1
370
     0
100
AcDbVertex
100
AcDb2dVertex
 10
711.3232421875
 20
51.8232421875
 30
0.0
  0
SEQEND
  5
86B
330
862
100
AcDbEntity
  8
Ebene 1
370
     0
  0
POLYLINE
  5
86C
330
3C
100
AcDbEntity
  8
Ebene 1
370
     0
100
AcDb2dPolyline
 66
     1
 10
0.0
 20
0.0
 30
0.0
  0
VERTEX
  5
86D
330
86C
100
AcDbEntity
  8
Ebene 1
370
     0
100
AcDbVertex
100
AcDb2dVertex
 10
711.279296875
 20
22.662109375
 30
0.0
  0
VERTEX
  5
86E
330
86C
100
AcDbEntity
  8
Ebene 1
370
     0
100
AcDbVertex
100
AcDb2dVertex
 10
710.837890625
 20
23.5439453125
 30
0.0
  0
VERTEX
  5
86F
330
86C
100
AcDbEntity
  8
Ebene 1
370
     0
100
AcDbVertex
100
AcDb2dVertex
 10
710.30859375
 20
24.4267578125
 30
0.0
  0
VERTEX
  5
870
330
86C
100
AcDbEntity
  8
Ebene 1
370
     0
100
AcDbVertex
100
AcDb2dVertex
 10
709.7353515625
 20
25.220703125
 30
0.0
  0
VERTEX
  5
871
330
86C
100
AcDbEntity
  8
Ebene 1
370
     0
100
AcDbVertex
100
AcDb2dVertex
 10
709.029296875
 20
25.9267578125
 30
0.0
  0
VERTEX
  5
872
330
86C
100
AcDbEntity
  8
Ebene 1
370
     0
100
AcDbVertex
100
AcDb2dVertex
 10
708.2353515625
 20
26.5439453125
 30
0.0
  0
VERTEX
  5
873
330
86C
100
AcDbEntity
  8
Ebene 1
370
     0
100
AcDbVertex
100
AcDb2dVertex
 10
707.3974609375
 20
27.0732421875
 30
0.0
  0
VERTEX
  5
874
330
86C
100
AcDbEntity
  8
Ebene 1
370
     0
100
AcDbVertex
100
AcDb2dVertex
 10
706.470703125
 20
27.5146484375
 30
0.0
  0
VERTEX
  5
875
330
86C
100
AcDbEntity
  8
Ebene 1
370
     0
100
AcDbVertex
100
AcDb2dVertex
 10
705.5439453125
 20
27.8671875
 30
0.0
  0
VERTEX
  5
876
330
86C
100
AcDbEntity
  8
Ebene 1
370
     0
100
AcDbVertex
100
AcDb2dVertex
 10
704.5732421875
 20
28.087890625
 30
0.0
  0
VERTEX
  5
877
330
86C
100
AcDbEntity
  8
Ebene 1
370
     0
100
AcDbVertex
100
AcDb2dVertex
 10
703.55859375
 20
28.220703125
 30
0.0
  0
VERTEX
  5
878
330
86C
100
AcDbEntity
  8
Ebene 1
370
     0
100
AcDbVertex
100
AcDb2dVertex
 10
702.587890625
 20
28.220703125
 30
0.0
  0
VERTEX
  5
879
330
86C
100
AcDbEntity
  8
Ebene 1
370
     0
100
AcDbVertex
100
AcDb2dVertex
 10
701.5732421875
 20
28.087890625
 30
0.0
  0
VERTEX
  5
87A
330
86C
100
AcDbEntity
  8
Ebene 1
370
     0
100
AcDbVertex
100
AcDb2dVertex
 10
700.6025390625
 20
27.8671875
 30
0.0
  0
VERTEX
  5
87B
330
86C
100
AcDbEntity
  8
Ebene 1
370
     0
100
AcDbVertex
100
AcDb2dVertex
 10
699.6767578125
 20
27.5146484375
 30
0.0
  0
VERTEX
  5
87C
330
86C
100
AcDbEntity
  8
Ebene 1
370
     0
100
AcDbVertex
100
AcDb2dVertex
 10
698.75
 20
27.0732421875
 30
0.0
  0
VERTEX
  5
87D
330
86C
100
AcDbEntity
  8
Ebene 1
370
     0
100
AcDbVertex
100
AcDb2dVertex
 10
697.912109375
 20
26.5439453125
 30
0.0
  0
VERTEX
  5
87E
330
86C
100
AcDbEntity
  8
Ebene 1
370
     0
100
AcDbVertex
100
AcDb2dVertex
 10
697.1171875
 20
25.9267578125
 30
0.0
  0
VERTEX
  5
87F
330
86C
100
AcDbEntity
  8
Ebene 1
370
     0
100
AcDbVertex
100
AcDb2dVertex
 10
696.412109375
 20
25.220703125
 30
0.0
  0
VERTEX
  5
880
330
86C
100
AcDbEntity
  8
Ebene 1
370
     0
100
AcDbVertex
100
AcDb2dVertex
 10
695.837890625
 20
24.4267578125
 30
0.0
  0
VERTEX
  5
881
330
86C
100
AcDbEntity
  8
Ebene 1
370
     0
100
AcDbVertex
100
AcDb2dVertex
 10
695.30859375
 20
23.5439453125
 30
0.0
  0
VERTEX
  5
882
330
86C
100
AcDbEntity
  8
Ebene 1
370
     0
100
AcDbVertex
100
AcDb2dVertex
 10
694.8671875
 20
22.662109375
 30
0.0
  0
SEQEND
  5
883
330
86C
100
AcDbEntity
  8
Ebene 1
370
     0
  0
POLYLINE
  5
884
330
3C
100
AcDbEntity
  8
Ebene 1
370
     0
100
AcDb2dPolyline
 66
     1
 10
0.0
 20
0.0
 30
0.0
  0
VERTEX
  5
885
330
884
100
AcDbEntity
  8
Ebene 1
370
     0
100
AcDbVertex
100
AcDb2dVertex
 10
711.3232421875
 20
22.7060546875
 30
0.0
  0
VERTEX
  5
886
330
884
100
AcDbEntity
  8
Ebene 1
370
     0
100
AcDbVertex
100
AcDb2dVertex
 10
711.6328125
 20
22.0439453125
 30
0.0
  0
VERTEX
  5
887
330
884
100
AcDbEntity
  8
Ebene 1
370
     0
100
AcDbVertex
100
AcDb2dVertex
 10
712.0732421875
 20
21.4267578125
 30
0.0
  0
VERTEX
  5
888
330
884
100
AcDbEntity
  8
Ebene 1
370
     0
100
AcDbVertex
100
AcDb2dVertex
 10
712.6025390625
 20
20.94140625
 30
0.0
  0
VERTEX
  5
889
330
884
100
AcDbEntity
  8
Ebene 1
370
     0
100
AcDbVertex
100
AcDb2dVertex
 10
713.220703125
 20
20.5439453125
 30
0.0
  0
VERTEX
  5
88A
330
884
100
AcDbEntity
  8
Ebene 1
370
     0
100
AcDbVertex
100
AcDb2dVertex
 10
713.8828125
 20
20.2353515625
 30
0.0
  0
VERTEX
  5
88B
330
884
100
AcDbEntity
  8
Ebene 1
370
     0
100
AcDbVertex
100
AcDb2dVertex
 10
714.587890625
 20
20.0146484375
 30
0.0
  0
VERTEX
  5
88C
330
884
100
AcDbEntity
  8
Ebene 1
370
     0
100
AcDbVertex
100
AcDb2dVertex
 10
715.2939453125
 20
19.970703125
 30
0.0
  0
SEQEND
  5
88D
330
884
100
AcDbEntity
  8
Ebene 1
370
     0
  0
POLYLINE
  5
88E
330
3C
100
AcDbEntity
  8
Ebene 1
370
     0
100
AcDb2dPolyline
 66
     1
 10
0.0
 20
0.0
 30
0.0
  0
VERTEX
  5
88F
330
88E
100
AcDbEntity
  8
Ebene 1
370
     0
100
AcDbVertex
100
AcDb2dVertex
 10
690.80859375
 20
19.970703125
 30
0.0
  0
VERTEX
  5
890
330
88E
100
AcDbEntity
  8
Ebene 1
370
     0
100
AcDbVertex
100
AcDb2dVertex
 10
691.5146484375
 20
20.0146484375
 30
0.0
  0
VERTEX
  5
891
330
88E
100
AcDbEntity
  8
Ebene 1
370
     0
100
AcDbVertex
100
AcDb2dVertex
 10
692.220703125
 20
20.2353515625
 30
0.0
  0
VERTEX
  5
892
330
88E
100
AcDbEntity
  8
Ebene 1
370
     0
100
AcDbVertex
100
AcDb2dVertex
 10
692.8828125
 20
20.5439453125
 30
0.0
  0
VERTEX
  5
893
330
88E
100
AcDbEntity
  8
Ebene 1
370
     0
100
AcDbVertex
100
AcDb2dVertex
 10
693.5
 20
20.94140625
 30
0.0
  0
VERTEX
  5
894
330
88E
100
AcDbEntity
  8
Ebene 1
370
     0
100
AcDbVertex
100
AcDb2dVertex
 10
694.029296875
 20
21.4267578125
 30
0.0
  0
VERTEX
  5
895
330
88E
100
AcDbEntity
  8
Ebene 1
370
     0
100
AcDbVertex
100
AcDb2dVertex
 10
694.470703125
 20
22.0439453125
 30
0.0
  0
VERTEX
  5
896
330
88E
100
AcDbEntity
  8
Ebene 1
370
     0
100
AcDbVertex
100
AcDb2dVertex
 10
694.779296875
 20
22.7060546875
 30
0.0
  0
SEQEND
  5
897
330
88E
100
AcDbEntity
  8
Ebene 1
370
     0
  0
POLYLINE
  5
898
330
3C
100
AcDbEntity
  8
Ebene 1
370
     0
100
AcDb2dPolyline
 66
     1
 10
0.0
 20
0.0
 30
0.0
  0
VERTEX
  5
899
330
898
100
AcDbEntity
  8
Ebene 1
370
     0
100
AcDbVertex
100
AcDb2dVertex
 10
731.7060546875
 20
26.4560546875
 30
0.0
  0
VERTEX
  5
89A
330
898
100
AcDbEntity
  8
Ebene 1
370
     0
100
AcDbVertex
100
AcDb2dVertex
 10
732.80859375
 20
26.5
 30
0.0
  0
VERTEX
  5
89B
330
898
100
AcDbEntity
  8
Ebene 1
370
     0
100
AcDbVertex
100
AcDb2dVertex
 10
733.8671875
 20
26.6767578125
 30
0.0
  0
VERTEX
  5
89C
330
898
100
AcDbEntity
  8
Ebene 1
370
     0
100
AcDbVertex
100
AcDb2dVertex
 10
734.9267578125
 20
26.94140625
 30
0.0
  0
VERTEX
  5
89D
330
898
100
AcDbEntity
  8
Ebene 1
370
     0
100
AcDbVertex
100
AcDb2dVertex
 10
735.9853515625
 20
27.337890625
 30
0.0
  0
VERTEX
  5
89E
330
898
100
AcDbEntity
  8
Ebene 1
370
     0
100
AcDbVertex
100
AcDb2dVertex
 10
736.9560546875
 20
27.8232421875
 30
0.0
  0
VERTEX
  5
89F
330
898
100
AcDbEntity
  8
Ebene 1
370
     0
100
AcDbVertex
100
AcDb2dVertex
 10
737.8828125
 20
28.3974609375
 30
0.0
  0
VERTEX
  5
8A0
330
898
100
AcDbEntity
  8
Ebene 1
370
     0
100
AcDbVertex
100
AcDb2dVertex
 10
738.7646484375
 20
29.05859375
 30
0.0
  0
VERTEX
  5
8A1
330
898
100
AcDbEntity
  8
Ebene 1
370
     0
100
AcDbVertex
100
AcDb2dVertex
 10
739.55859375
 20
29.80859375
 30
0.0
  0
VERTEX
  5
8A2
330
898
100
AcDbEntity
  8
Ebene 1
370
     0
100
AcDbVertex
100
AcDb2dVertex
 10
740.2646484375
 20
30.6474609375
 30
0.0
  0
VERTEX
  5
8A3
330
898
100
AcDbEntity
  8
Ebene 1
370
     0
100
AcDbVertex
100
AcDb2dVertex
 10
740.8828125
 20
31.529296875
 30
0.0
  0
VERTEX
  5
8A4
330
898
100
AcDbEntity
  8
Ebene 1
370
     0
100
AcDbVertex
100
AcDb2dVertex
 10
741.412109375
 20
32.5
 30
0.0
  0
VERTEX
  5
8A5
330
898
100
AcDbEntity
  8
Ebene 1
370
     0
100
AcDbVertex
100
AcDb2dVertex
 10
741.8525390625
 20
33.5146484375
 30
0.0
  0
VERTEX
  5
8A6
330
898
100
AcDbEntity
  8
Ebene 1
370
     0
100
AcDbVertex
100
AcDb2dVertex
 10
742.162109375
 20
34.5732421875
 30
0.0
  0
VERTEX
  5
8A7
330
898
100
AcDbEntity
  8
Ebene 1
370
     0
100
AcDbVertex
100
AcDb2dVertex
 10
742.3828125
 20
35.6328125
 30
0.0
  0
VERTEX
  5
8A8
330
898
100
AcDbEntity
  8
Ebene 1
370
     0
100
AcDbVertex
100
AcDb2dVertex
 10
742.5146484375
 20
36.7353515625
 30
0.0
  0
VERTEX
  5
8A9
330
898
100
AcDbEntity
  8
Ebene 1
370
     0
100
AcDbVertex
100
AcDb2dVertex
 10
742.5146484375
 20
37.7939453125
 30
0.0
  0
VERTEX
  5
8AA
330
898
100
AcDbEntity
  8
Ebene 1
370
     0
100
AcDbVertex
100
AcDb2dVertex
 10
742.3828125
 20
38.8974609375
 30
0.0
  0
VERTEX
  5
8AB
330
898
100
AcDbEntity
  8
Ebene 1
370
     0
100
AcDbVertex
100
AcDb2dVertex
 10
742.162109375
 20
39.9560546875
 30
0.0
  0
VERTEX
  5
8AC
330
898
100
AcDbEntity
  8
Ebene 1
370
     0
100
AcDbVertex
100
AcDb2dVertex
 10
741.8525390625
 20
41.0146484375
 30
0.0
  0
VERTEX
  5
8AD
330
898
100
AcDbEntity
  8
Ebene 1
370
     0
100
AcDbVertex
100
AcDb2dVertex
 10
741.412109375
 20
42.029296875
 30
0.0
  0
VERTEX
  5
8AE
330
898
100
AcDbEntity
  8
Ebene 1
370
     0
100
AcDbVertex
100
AcDb2dVertex
 10
740.8828125
 20
43.0
 30
0.0
  0
VERTEX
  5
8AF
330
898
100
AcDbEntity
  8
Ebene 1
370
     0
100
AcDbVertex
100
AcDb2dVertex
 10
740.2646484375
 20
43.8828125
 30
0.0
  0
VERTEX
  5
8B0
330
898
100
AcDbEntity
  8
Ebene 1
370
     0
100
AcDbVertex
100
AcDb2dVertex
 10
739.55859375
 20
44.720703125
 30
0.0
  0
VERTEX
  5
8B1
330
898
100
AcDbEntity
  8
Ebene 1
370
     0
100
AcDbVertex
100
AcDb2dVertex
 10
738.7646484375
 20
45.470703125
 30
0.0
  0
VERTEX
  5
8B2
330
898
100
AcDbEntity
  8
Ebene 1
370
     0
100
AcDbVertex
100
AcDb2dVertex
 10
737.8828125
 20
46.1328125
 30
0.0
  0
VERTEX
  5
8B3
330
898
100
AcDbEntity
  8
Ebene 1
370
     0
100
AcDbVertex
100
AcDb2dVertex
 10
736.9560546875
 20
46.7060546875
 30
0.0
  0
VERTEX
  5
8B4
330
898
100
AcDbEntity
  8
Ebene 1
370
     0
100
AcDbVertex
100
AcDb2dVertex
 10
735.9853515625
 20
47.19140625
 30
0.0
  0
VERTEX
  5
8B5
330
898
100
AcDbEntity
  8
Ebene 1
370
     0
100
AcDbVertex
100
AcDb2dVertex
 10
734.9267578125
 20
47.587890625
 30
0.0
  0
VERTEX
  5
8B6
330
898
100
AcDbEntity
  8
Ebene 1
370
     0
100
AcDbVertex
100
AcDb2dVertex
 10
733.8671875
 20
47.8525390625
 30
0.0
  0
VERTEX
  5
8B7
330
898
100
AcDbEntity
  8
Ebene 1
370
     0
100
AcDbVertex
100
AcDb2dVertex
 10
732.80859375
 20
48.029296875
 30
0.0
  0
VERTEX
  5
8B8
330
898
100
AcDbEntity
  8
Ebene 1
370
     0
100
AcDbVertex
100
AcDb2dVertex
 10
731.7060546875
 20
48.0732421875
 30
0.0
  0
VERTEX
  5
8B9
330
898
100
AcDbEntity
  8
Ebene 1
370
     0
100
AcDbVertex
100
AcDb2dVertex
 10
730.6025390625
 20
48.029296875
 30
0.0
  0
VERTEX
  5
8BA
330
898
100
AcDbEntity
  8
Ebene 1
370
     0
100
AcDbVertex
100
AcDb2dVertex
 10
729.5439453125
 20
47.8525390625
 30
0.0
  0
VERTEX
  5
8BB
330
898
100
AcDbEntity
  8
Ebene 1
370
     0
100
AcDbVertex
100
AcDb2dVertex
 10
728.4853515625
 20
47.587890625
 30
0.0
  0
VERTEX
  5
8BC
330
898
100
AcDbEntity
  8
Ebene 1
370
     0
100
AcDbVertex
100
AcDb2dVertex
 10
727.4267578125
 20
47.19140625
 30
0.0
  0
VERTEX
  5
8BD
330
898
100
AcDbEntity
  8
Ebene 1
370
     0
100
AcDbVertex
100
AcDb2dVertex
 10
726.4560546875
 20
46.7060546875
 30
0.0
  0
VERTEX
  5
8BE
330
898
100
AcDbEntity
  8
Ebene 1
370
     0
100
AcDbVertex
100
AcDb2dVertex
 10
725.529296875
 20
46.1328125
 30
0.0
  0
VERTEX
  5
8BF
330
898
100
AcDbEntity
  8
Ebene 1
370
     0
100
AcDbVertex
100
AcDb2dVertex
 10
724.6474609375
 20
45.470703125
 30
0.0
  0
VERTEX
  5
8C0
330
898
100
AcDbEntity
  8
Ebene 1
370
     0
100
AcDbVertex
100
AcDb2dVertex
 10
723.8525390625
 20
44.720703125
 30
0.0
  0
VERTEX
  5
8C1
330
898
100
AcDbEntity
  8
Ebene 1
370
     0
100
AcDbVertex
100
AcDb2dVertex
 10
723.1474609375
 20
43.8828125
 30
0.0
  0
VERTEX
  5
8C2
330
898
100
AcDbEntity
  8
Ebene 1
370
     0
100
AcDbVertex
100
AcDb2dVertex
 10
722.529296875
 20
43.0
 30
0.0
  0
VERTEX
  5
8C3
330
898
100
AcDbEntity
  8
Ebene 1
370
     0
100
AcDbVertex
100
AcDb2dVertex
 10
722.0
 20
42.029296875
 30
0.0
  0
VERTEX
  5
8C4
330
898
100
AcDbEntity
  8
Ebene 1
370
     0
100
AcDbVertex
100
AcDb2dVertex
 10
721.55859375
 20
41.0146484375
 30
0.0
  0
VERTEX
  5
8C5
330
898
100
AcDbEntity
  8
Ebene 1
370
     0
100
AcDbVertex
100
AcDb2dVertex
 10
721.25
 20
39.9560546875
 30
0.0
  0
VERTEX
  5
8C6
330
898
100
AcDbEntity
  8
Ebene 1
370
     0
100
AcDbVertex
100
AcDb2dVertex
 10
721.029296875
 20
38.8974609375
 30
0.0
  0
VERTEX
  5
8C7
330
898
100
AcDbEntity
  8
Ebene 1
370
     0
100
AcDbVertex
100
AcDb2dVertex
 10
720.8974609375
 20
37.7939453125
 30
0.0
  0
VERTEX
  5
8C8
330
898
100
AcDbEntity
  8
Ebene 1
370
     0
100
AcDbVertex
100
AcDb2dVertex
 10
720.8974609375
 20
36.7353515625
 30
0.0
  0
VERTEX
  5
8C9
330
898
100
AcDbEntity
  8
Ebene 1
370
     0
100
AcDbVertex
100
AcDb2dVertex
 10
721.029296875
 20
35.6328125
 30
0.0
  0
VERTEX
  5
8CA
330
898
100
AcDbEntity
  8
Ebene 1
370
     0
100
AcDbVertex
100
AcDb2dVertex
 10
721.25
 20
34.5732421875
 30
0.0
  0
VERTEX
  5
8CB
330
898
100
AcDbEntity
  8
Ebene 1
370
     0
100
AcDbVertex
100
AcDb2dVertex
 10
721.55859375
 20
33.5146484375
 30
0.0
  0
VERTEX
  5
8CC
330
898
100
AcDbEntity
  8
Ebene 1
370
     0
100
AcDbVertex
100
AcDb2dVertex
 10
722.0
 20
32.5
 30
0.0
  0
VERTEX
  5
8CD
330
898
100
AcDbEntity
  8
Ebene 1
370
     0
100
AcDbVertex
100
AcDb2dVertex
 10
722.529296875
 20
31.529296875
 30
0.0
  0
VERTEX
  5
8CE
330
898
100
AcDbEntity
  8
Ebene 1
370
     0
100
AcDbVertex
100
AcDb2dVertex
 10
723.1474609375
 20
30.6474609375
 30
0.0
  0
VERTEX
  5
8CF
330
898
100
AcDbEntity
  8
Ebene 1
370
     0
100
AcDbVertex
100
AcDb2dVertex
 10
723.8525390625
 20
29.80859375
 30
0.0
  0
VERTEX
  5
8D0
330
898
100
AcDbEntity
  8
Ebene 1
370
     0
100
AcDbVertex
100
AcDb2dVertex
 10
724.6474609375
 20
29.05859375
 30
0.0
  0
VERTEX
  5
8D1
330
898
100
AcDbEntity
  8
Ebene 1
370
     0
100
AcDbVertex
100
AcDb2dVertex
 10
725.529296875
 20
28.3974609375
 30
0.0
  0
VERTEX
  5
8D2
330
898
100
AcDbEntity
  8
Ebene 1
370
     0
100
AcDbVertex
100
AcDb2dVertex
 10
726.4560546875
 20
27.8232421875
 30
0.0
  0
VERTEX
  5
8D3
330
898
100
AcDbEntity
  8
Ebene 1
370
     0
100
AcDbVertex
100
AcDb2dVertex
 10
727.4267578125
 20
27.337890625
 30
0.0
  0
VERTEX
  5
8D4
330
898
100
AcDbEntity
  8
Ebene 1
370
     0
100
AcDbVertex
100
AcDb2dVertex
 10
728.4853515625
 20
26.94140625
 30
0.0
  0
VERTEX
  5
8D5
330
898
100
AcDbEntity
  8
Ebene 1
370
     0
100
AcDbVertex
100
AcDb2dVertex
 10
729.5439453125
 20
26.6767578125
 30
0.0
  0
VERTEX
  5
8D6
330
898
100
AcDbEntity
  8
Ebene 1
370
     0
100
AcDbVertex
100
AcDb2dVertex
 10
730.6025390625
 20
26.5
 30
0.0
  0
VERTEX
  5
8D7
330
898
100
AcDbEntity
  8
Ebene 1
370
     0
100
AcDbVertex
100
AcDb2dVertex
 10
731.7060546875
 20
26.4560546875
 30
0.0
  0
VERTEX
  5
8D8
330
898
100
AcDbEntity
  8
Ebene 1
370
     0
100
AcDbVertex
100
AcDb2dVertex
 10
731.7060546875
 20
26.4560546875
 30
0.0
  0
SEQEND
  5
8D9
330
898
100
AcDbEntity
  8
Ebene 1
370
     0
  0
POLYLINE
  5
8DA
330
3C
100
AcDbEntity
  8
Ebene 1
370
     0
100
AcDb2dPolyline
 66
     1
 10
0.0
 20
0.0
 30
0.0
  0
VERTEX
  5
8DB
330
8DA
100
AcDbEntity
  8
Ebene 1
370
     0
100
AcDbVertex
100
AcDb2dVertex
 10
726.3232421875
 20
37.2646484375
 30
0.0
  0
VERTEX
  5
8DC
330
8DA
100
AcDbEntity
  8
Ebene 1
370
     0
100
AcDbVertex
100
AcDb2dVertex
 10
726.3671875
 20
36.5146484375
 30
0.0
  0
VERTEX
  5
8DD
330
8DA
100
AcDbEntity
  8
Ebene 1
370
     0
100
AcDbVertex
100
AcDb2dVertex
 10
726.5439453125
 20
35.7646484375
 30
0.0
  0
VERTEX
  5
8DE
330
8DA
100
AcDbEntity
  8
Ebene 1
370
     0
100
AcDbVertex
100
AcDb2dVertex
 10
726.80859375
 20
35.0146484375
 30
0.0
  0
VERTEX
  5
8DF
330
8DA
100
AcDbEntity
  8
Ebene 1
370
     0
100
AcDbVertex
100
AcDb2dVertex
 10
727.162109375
 20
34.3525390625
 30
0.0
  0
VERTEX
  5
8E0
330
8DA
100
AcDbEntity
  8
Ebene 1
370
     0
100
AcDbVertex
100
AcDb2dVertex
 10
727.6474609375
 20
33.7353515625
 30
0.0
  0
VERTEX
  5
8E1
330
8DA
100
AcDbEntity
  8
Ebene 1
370
     0
100
AcDbVertex
100
AcDb2dVertex
 10
728.1767578125
 20
33.2060546875
 30
0.0
  0
VERTEX
  5
8E2
330
8DA
100
AcDbEntity
  8
Ebene 1
370
     0
100
AcDbVertex
100
AcDb2dVertex
 10
728.7939453125
 20
32.720703125
 30
0.0
  0
VERTEX
  5
8E3
330
8DA
100
AcDbEntity
  8
Ebene 1
370
     0
100
AcDbVertex
100
AcDb2dVertex
 10
729.4560546875
 20
32.3671875
 30
0.0
  0
VERTEX
  5
8E4
330
8DA
100
AcDbEntity
  8
Ebene 1
370
     0
100
AcDbVertex
100
AcDb2dVertex
 10
730.2060546875
 20
32.1025390625
 30
0.0
  0
VERTEX
  5
8E5
330
8DA
100
AcDbEntity
  8
Ebene 1
370
     0
100
AcDbVertex
100
AcDb2dVertex
 10
730.9560546875
 20
31.9267578125
 30
0.0
  0
VERTEX
  5
8E6
330
8DA
100
AcDbEntity
  8
Ebene 1
370
     0
100
AcDbVertex
100
AcDb2dVertex
 10
731.7060546875
 20
31.8828125
 30
0.0
  0
VERTEX
  5
8E7
330
8DA
100
AcDbEntity
  8
Ebene 1
370
     0
100
AcDbVertex
100
AcDb2dVertex
 10
732.4560546875
 20
31.9267578125
 30
0.0
  0
VERTEX
  5
8E8
330
8DA
100
AcDbEntity
  8
Ebene 1
370
     0
100
AcDbVertex
100
AcDb2dVertex
 10
733.2060546875
 20
32.1025390625
 30
0.0
  0
VERTEX
  5
8E9
330
8DA
100
AcDbEntity
  8
Ebene 1
370
     0
100
AcDbVertex
100
AcDb2dVertex
 10
733.9560546875
 20
32.3671875
 30
0.0
  0
VERTEX
  5
8EA
330
8DA
100
AcDbEntity
  8
Ebene 1
370
     0
100
AcDbVertex
100
AcDb2dVertex
 10
734.6171875
 20
32.720703125
 30
0.0
  0
VERTEX
  5
8EB
330
8DA
100
AcDbEntity
  8
Ebene 1
370
     0
100
AcDbVertex
100
AcDb2dVertex
 10
735.2353515625
 20
33.2060546875
 30
0.0
  0
VERTEX
  5
8EC
330
8DA
100
AcDbEntity
  8
Ebene 1
370
     0
100
AcDbVertex
100
AcDb2dVertex
 10
735.7646484375
 20
33.7353515625
 30
0.0
  0
VERTEX
  5
8ED
330
8DA
100
AcDbEntity
  8
Ebene 1
370
     0
100
AcDbVertex
100
AcDb2dVertex
 10
736.25
 20
34.3525390625
 30
0.0
  0
VERTEX
  5
8EE
330
8DA
100
AcDbEntity
  8
Ebene 1
370
     0
100
AcDbVertex
100
AcDb2dVertex
 10
736.6025390625
 20
35.0146484375
 30
0.0
  0
VERTEX
  5
8EF
330
8DA
100
AcDbEntity
  8
Ebene 1
370
     0
100
AcDbVertex
100
AcDb2dVertex
 10
736.8671875
 20
35.7646484375
 30
0.0
  0
VERTEX
  5
8F0
330
8DA
100
AcDbEntity
  8
Ebene 1
370
     0
100
AcDbVertex
100
AcDb2dVertex
 10
737.0439453125
 20
36.5146484375
 30
0.0
  0
VERTEX
  5
8F1
330
8DA
100
AcDbEntity
  8
Ebene 1
370
     0
100
AcDbVertex
100
AcDb2dVertex
 10
737.087890625
 20
37.2646484375
 30
0.0
  0
VERTEX
  5
8F2
330
8DA
100
AcDbEntity
  8
Ebene 1
370
     0
100
AcDbVertex
100
AcDb2dVertex
 10
737.0439453125
 20
38.0146484375
 30
0.0
  0
VERTEX
  5
8F3
330
8DA
100
AcDbEntity
  8
Ebene 1
370
     0
100
AcDbVertex
100
AcDb2dVertex
 10
736.8671875
 20
38.7646484375
 30
0.0
  0
VERTEX
  5
8F4
330
8DA
100
AcDbEntity
  8
Ebene 1
370
     0
100
AcDbVertex
100
AcDb2dVertex
 10
736.6025390625
 20
39.5146484375
 30
0.0
  0
VERTEX
  5
8F5
330
8DA
100
AcDbEntity
  8
Ebene 1
370
     0
100
AcDbVertex
100
AcDb2dVertex
 10
736.25
 20
40.1767578125
 30
0.0
  0
VERTEX
  5
8F6
330
8DA
100
AcDbEntity
  8
Ebene 1
370
     0
100
AcDbVertex
100
AcDb2dVertex
 10
735.7646484375
 20
40.7939453125
 30
0.0
  0
VERTEX
  5
8F7
330
8DA
100
AcDbEntity
  8
Ebene 1
370
     0
100
AcDbVertex
100
AcDb2dVertex
 10
735.2353515625
 20
41.3232421875
 30
0.0
  0
VERTEX
  5
8F8
330
8DA
100
AcDbEntity
  8
Ebene 1
370
     0
100
AcDbVertex
100
AcDb2dVertex
 10
734.6171875
 20
41.80859375
 30
0.0
  0
VERTEX
  5
8F9
330
8DA
100
AcDbEntity
  8
Ebene 1
370
     0
100
AcDbVertex
100
AcDb2dVertex
 10
733.9560546875
 20
42.162109375
 30
0.0
  0
VERTEX
  5
8FA
330
8DA
100
AcDbEntity
  8
Ebene 1
370
     0
100
AcDbVertex
100
AcDb2dVertex
 10
733.2060546875
 20
42.4267578125
 30
0.0
  0
VERTEX
  5
8FB
330
8DA
100
AcDbEntity
  8
Ebene 1
370
     0
100
AcDbVertex
100
AcDb2dVertex
 10
732.4560546875
 20
42.6025390625
 30
0.0
  0
VERTEX
  5
8FC
330
8DA
100
AcDbEntity
  8
Ebene 1
370
     0
100
AcDbVertex
100
AcDb2dVertex
 10
731.7060546875
 20
42.6474609375
 30
0.0
  0
VERTEX
  5
8FD
330
8DA
100
AcDbEntity
  8
Ebene 1
370
     0
100
AcDbVertex
100
AcDb2dVertex
 10
730.9560546875
 20
42.6025390625
 30
0.0
  0
VERTEX
  5
8FE
330
8DA
100
AcDbEntity
  8
Ebene 1
370
     0
100
AcDbVertex
100
AcDb2dVertex
 10
730.2060546875
 20
42.4267578125
 30
0.0
  0
VERTEX
  5
8FF
330
8DA
100
AcDbEntity
  8
Ebene 1
370
     0
100
AcDbVertex
100
AcDb2dVertex
 10
729.4560546875
 20
42.162109375
 30
0.0
  0
VERTEX
  5
900
330
8DA
100
AcDbEntity
  8
Ebene 1
370
     0
100
AcDbVertex
100
AcDb2dVertex
 10
728.7939453125
 20
41.80859375
 30
0.0
  0
VERTEX
  5
901
330
8DA
100
AcDbEntity
  8
Ebene 1
370
     0
100
AcDbVertex
100
AcDb2dVertex
 10
728.1767578125
 20
41.3232421875
 30
0.0
  0
VERTEX
  5
902
330
8DA
100
AcDbEntity
  8
Ebene 1
370
     0
100
AcDbVertex
100
AcDb2dVertex
 10
727.6474609375
 20
40.7939453125
 30
0.0
  0
VERTEX
  5
903
330
8DA
100
AcDbEntity
  8
Ebene 1
370
     0
100
AcDbVertex
100
AcDb2dVertex
 10
727.162109375
 20
40.1767578125
 30
0.0
  0
VERTEX
  5
904
330
8DA
100
AcDbEntity
  8
Ebene 1
370
     0
100
AcDbVertex
100
AcDb2dVertex
 10
726.80859375
 20
39.5146484375
 30
0.0
  0
VERTEX
  5
905
330
8DA
100
AcDbEntity
  8
Ebene 1
370
     0
100
AcDbVertex
100
AcDb2dVertex
 10
726.5439453125
 20
38.7646484375
 30
0.0
  0
VERTEX
  5
906
330
8DA
100
AcDbEntity
  8
Ebene 1
370
     0
100
AcDbVertex
100
AcDb2dVertex
 10
726.3671875
 20
38.0146484375
 30
0.0
  0
VERTEX
  5
907
330
8DA
100
AcDbEntity
  8
Ebene 1
370
     0
100
AcDbVertex
100
AcDb2dVertex
 10
726.3232421875
 20
37.2646484375
 30
0.0
  0
VERTEX
  5
908
330
8DA
100
AcDbEntity
  8
Ebene 1
370
     0
100
AcDbVertex
100
AcDb2dVertex
 10
726.3232421875
 20
37.2646484375
 30
0.0
  0
SEQEND
  5
909
330
8DA
100
AcDbEntity
  8
Ebene 1
370
     0
  0
POLYLINE
  5
90A
330
3C
100
AcDbEntity
  8
Ebene 1
370
     0
100
AcDb2dPolyline
 66
     1
 10
0.0
 20
0.0
 30
0.0
  0
VERTEX
  5
90B
330
90A
100
AcDbEntity
  8
Ebene 1
370
     0
100
AcDbVertex
100
AcDb2dVertex
 10
731.7060546875
 20
31.837890625
 30
0.0
  0
VERTEX
  5
90C
330
90A
100
AcDbEntity
  8
Ebene 1
370
     0
100
AcDbVertex
100
AcDb2dVertex
 10
736.3828125
 20
34.5732421875
 30
0.0
  0
VERTEX
  5
90D
330
90A
100
AcDbEntity
  8
Ebene 1
370
     0
100
AcDbVertex
100
AcDb2dVertex
 10
736.3828125
 20
39.9560546875
 30
0.0
  0
VERTEX
  5
90E
330
90A
100
AcDbEntity
  8
Ebene 1
370
     0
100
AcDbVertex
100
AcDb2dVertex
 10
731.7060546875
 20
42.6474609375
 30
0.0
  0
VERTEX
  5
90F
330
90A
100
AcDbEntity
  8
Ebene 1
370
     0
100
AcDbVertex
100
AcDb2dVertex
 10
727.029296875
 20
39.9560546875
 30
0.0
  0
VERTEX
  5
910
330
90A
100
AcDbEntity
  8
Ebene 1
370
     0
100
AcDbVertex
100
AcDb2dVertex
 10
727.029296875
 20
34.5732421875
 30
0.0
  0
VERTEX
  5
911
330
90A
100
AcDbEntity
  8
Ebene 1
370
     0
100
AcDbVertex
100
AcDb2dVertex
 10
731.7060546875
 20
31.837890625
 30
0.0
  0
VERTEX
  5
912
330
90A
100
AcDbEntity
  8
Ebene 1
370
     0
100
AcDbVertex
100
AcDb2dVertex
 10
731.7060546875
 20
31.837890625
 30
0.0
  0
SEQEND
  5
913
330
90A
100
AcDbEntity
  8
Ebene 1
370
     0
  0
POLYLINE
  5
914
330
3C
100
AcDbEntity
  8
Ebene 1
370
     0
100
AcDb2dPolyline
 66
     1
 10
0.0
 20
0.0
 30
0.0
  0
VERTEX
  5
915
330
914
100
AcDbEntity
  8
Ebene 1
370
     0
100
AcDbVertex
100
AcDb2dVertex
 10
674.3974609375
 20
26.4560546875
 30
0.0
  0
VERTEX
  5
916
330
914
100
AcDbEntity
  8
Ebene 1
370
     0
100
AcDbVertex
100
AcDb2dVertex
 10
675.5
 20
26.5
 30
0.0
  0
VERTEX
  5
917
330
914
100
AcDbEntity
  8
Ebene 1
370
     0
100
AcDbVertex
100
AcDb2dVertex
 10
676.55859375
 20
26.6767578125
 30
0.0
  0
VERTEX
  5
918
330
914
100
AcDbEntity
  8
Ebene 1
370
     0
100
AcDbVertex
100
AcDb2dVertex
 10
677.6171875
 20
26.94140625
 30
0.0
  0
VERTEX
  5
919
330
914
100
AcDbEntity
  8
Ebene 1
370
     0
100
AcDbVertex
100
AcDb2dVertex
 10
678.6767578125
 20
27.337890625
 30
0.0
  0
VERTEX
  5
91A
330
914
100
AcDbEntity
  8
Ebene 1
370
     0
100
AcDbVertex
100
AcDb2dVertex
 10
679.6474609375
 20
27.8232421875
 30
0.0
  0
VERTEX
  5
91B
330
914
100
AcDbEntity
  8
Ebene 1
370
     0
100
AcDbVertex
100
AcDb2dVertex
 10
680.5732421875
 20
28.3974609375
 30
0.0
  0
VERTEX
  5
91C
330
914
100
AcDbEntity
  8
Ebene 1
370
     0
100
AcDbVertex
100
AcDb2dVertex
 10
681.4560546875
 20
29.05859375
 30
0.0
  0
VERTEX
  5
91D
330
914
100
AcDbEntity
  8
Ebene 1
370
     0
100
AcDbVertex
100
AcDb2dVertex
 10
682.25
 20
29.80859375
 30
0.0
  0
VERTEX
  5
91E
330
914
100
AcDbEntity
  8
Ebene 1
370
     0
100
AcDbVertex
100
AcDb2dVertex
 10
682.9560546875
 20
30.6474609375
 30
0.0
  0
VERTEX
  5
91F
330
914
100
AcDbEntity
  8
Ebene 1
370
     0
100
AcDbVertex
100
AcDb2dVertex
 10
683.5732421875
 20
31.529296875
 30
0.0
  0
VERTEX
  5
920
330
914
100
AcDbEntity
  8
Ebene 1
370
     0
100
AcDbVertex
100
AcDb2dVertex
 10
684.1025390625
 20
32.5
 30
0.0
  0
VERTEX
  5
921
330
914
100
AcDbEntity
  8
Ebene 1
370
     0
100
AcDbVertex
100
AcDb2dVertex
 10
684.5439453125
 20
33.5146484375
 30
0.0
  0
VERTEX
  5
922
330
914
100
AcDbEntity
  8
Ebene 1
370
     0
100
AcDbVertex
100
AcDb2dVertex
 10
684.8525390625
 20
34.5732421875
 30
0.0
  0
VERTEX
  5
923
330
914
100
AcDbEntity
  8
Ebene 1
370
     0
100
AcDbVertex
100
AcDb2dVertex
 10
685.0732421875
 20
35.6328125
 30
0.0
  0
VERTEX
  5
924
330
914
100
AcDbEntity
  8
Ebene 1
370
     0
100
AcDbVertex
100
AcDb2dVertex
 10
685.2060546875
 20
36.7353515625
 30
0.0
  0
VERTEX
  5
925
330
914
100
AcDbEntity
  8
Ebene 1
370
     0
100
AcDbVertex
100
AcDb2dVertex
 10
685.2060546875
 20
37.7939453125
 30
0.0
  0
VERTEX
  5
926
330
914
100
AcDbEntity
  8
Ebene 1
370
     0
100
AcDbVertex
100
AcDb2dVertex
 10
685.0732421875
 20
38.8974609375
 30
0.0
  0
VERTEX
  5
927
330
914
100
AcDbEntity
  8
Ebene 1
370
     0
100
AcDbVertex
100
AcDb2dVertex
 10
684.8525390625
 20
39.9560546875
 30
0.0
  0
VERTEX
  5
928
330
914
100
AcDbEntity
  8
Ebene 1
370
     0
100
AcDbVertex
100
AcDb2dVertex
 10
684.5439453125
 20
41.0146484375
 30
0.0
  0
VERTEX
  5
929
330
914
100
AcDbEntity
  8
Ebene 1
370
     0
100
AcDbVertex
100
AcDb2dVertex
 10
684.1025390625
 20
42.029296875
 30
0.0
  0
VERTEX
  5
92A
330
914
100
AcDbEntity
  8
Ebene 1
370
     0
100
AcDbVertex
100
AcDb2dVertex
 10
683.5732421875
 20
43.0
 30
0.0
  0
VERTEX
  5
92B
330
914
100
AcDbEntity
  8
Ebene 1
370
     0
100
AcDbVertex
100
AcDb2dVertex
 10
682.9560546875
 20
43.8828125
 30
0.0
  0
VERTEX
  5
92C
330
914
100
AcDbEntity
  8
Ebene 1
370
     0
100
AcDbVertex
100
AcDb2dVertex
 10
682.25
 20
44.720703125
 30
0.0
  0
VERTEX
  5
92D
330
914
100
AcDbEntity
  8
Ebene 1
370
     0
100
AcDbVertex
100
AcDb2dVertex
 10
681.4560546875
 20
45.470703125
 30
0.0
  0
VERTEX
  5
92E
330
914
100
AcDbEntity
  8
Ebene 1
370
     0
100
AcDbVertex
100
AcDb2dVertex
 10
680.5732421875
 20
46.1328125
 30
0.0
  0
VERTEX
  5
92F
330
914
100
AcDbEntity
  8
Ebene 1
370
     0
100
AcDbVertex
100
AcDb2dVertex
 10
679.6474609375
 20
46.7060546875
 30
0.0
  0
VERTEX
  5
930
330
914
100
AcDbEntity
  8
Ebene 1
370
     0
100
AcDbVertex
100
AcDb2dVertex
 10
678.6767578125
 20
47.19140625
 30
0.0
  0
VERTEX
  5
931
330
914
100
AcDbEntity
  8
Ebene 1
370
     0
100
AcDbVertex
100
AcDb2dVertex
 10
677.6171875
 20
47.587890625
 30
0.0
  0
VERTEX
  5
932
330
914
100
AcDbEntity
  8
Ebene 1
370
     0
100
AcDbVertex
100
AcDb2dVertex
 10
676.55859375
 20
47.8525390625
 30
0.0
  0
VERTEX
  5
933
330
914
100
AcDbEntity
  8
Ebene 1
370
     0
100
AcDbVertex
100
AcDb2dVertex
 10
675.5
 20
48.029296875
 30
0.0
  0
VERTEX
  5
934
330
914
100
AcDbEntity
  8
Ebene 1
370
     0
100
AcDbVertex
100
AcDb2dVertex
 10
674.3974609375
 20
48.0732421875
 30
0.0
  0
VERTEX
  5
935
330
914
100
AcDbEntity
  8
Ebene 1
370
     0
100
AcDbVertex
100
AcDb2dVertex
 10
673.2939453125
 20
48.029296875
 30
0.0
  0
VERTEX
  5
936
330
914
100
AcDbEntity
  8
Ebene 1
370
     0
100
AcDbVertex
100
AcDb2dVertex
 10
672.2353515625
 20
47.8525390625
 30
0.0
  0
VERTEX
  5
937
330
914
100
AcDbEntity
  8
Ebene 1
370
     0
100
AcDbVertex
100
AcDb2dVertex
 10
671.1767578125
 20
47.587890625
 30
0.0
  0
VERTEX
  5
938
330
914
100
AcDbEntity
  8
Ebene 1
370
     0
100
AcDbVertex
100
AcDb2dVertex
 10
670.1171875
 20
47.19140625
 30
0.0
  0
VERTEX
  5
939
330
914
100
AcDbEntity
  8
Ebene 1
370
     0
100
AcDbVertex
100
AcDb2dVertex
 10
669.1474609375
 20
46.7060546875
 30
0.0
  0
VERTEX
  5
93A
330
914
100
AcDbEntity
  8
Ebene 1
370
     0
100
AcDbVertex
100
AcDb2dVertex
 10
668.220703125
 20
46.1328125
 30
0.0
  0
VERTEX
  5
93B
330
914
100
AcDbEntity
  8
Ebene 1
370
     0
100
AcDbVertex
100
AcDb2dVertex
 10
667.337890625
 20
45.470703125
 30
0.0
  0
VERTEX
  5
93C
330
914
100
AcDbEntity
  8
Ebene 1
370
     0
100
AcDbVertex
100
AcDb2dVertex
 10
666.5439453125
 20
44.720703125
 30
0.0
  0
VERTEX
  5
93D
330
914
100
AcDbEntity
  8
Ebene 1
370
     0
100
AcDbVertex
100
AcDb2dVertex
 10
665.837890625
 20
43.8828125
 30
0.0
  0
VERTEX
  5
93E
330
914
100
AcDbEntity
  8
Ebene 1
370
     0
100
AcDbVertex
100
AcDb2dVertex
 10
665.220703125
 20
43.0
 30
0.0
  0
VERTEX
  5
93F
330
914
100
AcDbEntity
  8
Ebene 1
370
     0
100
AcDbVertex
100
AcDb2dVertex
 10
664.69140625
 20
42.029296875
 30
0.0
  0
VERTEX
  5
940
330
914
100
AcDbEntity
  8
Ebene 1
370
     0
100
AcDbVertex
100
AcDb2dVertex
 10
664.25
 20
41.0146484375
 30
0.0
  0
VERTEX
  5
941
330
914
100
AcDbEntity
  8
Ebene 1
370
     0
100
AcDbVertex
100
AcDb2dVertex
 10
663.94140625
 20
39.9560546875
 30
0.0
  0
VERTEX
  5
942
330
914
100
AcDbEntity
  8
Ebene 1
370
     0
100
AcDbVertex
100
AcDb2dVertex
 10
663.720703125
 20
38.8974609375
 30
0.0
  0
VERTEX
  5
943
330
914
100
AcDbEntity
  8
Ebene 1
370
     0
100
AcDbVertex
100
AcDb2dVertex
 10
663.587890625
 20
37.7939453125
 30
0.0
  0
VERTEX
  5
944
330
914
100
AcDbEntity
  8
Ebene 1
370
     0
100
AcDbVertex
100
AcDb2dVertex
 10
663.587890625
 20
36.7353515625
 30
0.0
  0
VERTEX
  5
945
330
914
100
AcDbEntity
  8
Ebene 1
370
     0
100
AcDbVertex
100
AcDb2dVertex
 10
663.720703125
 20
35.6328125
 30
0.0
  0
VERTEX
  5
946
330
914
100
AcDbEntity
  8
Ebene 1
370
     0
100
AcDbVertex
100
AcDb2dVertex
 10
663.94140625
 20
34.5732421875
 30
0.0
  0
VERTEX
  5
947
330
914
100
AcDbEntity
  8
Ebene 1
370
     0
100
AcDbVertex
100
AcDb2dVertex
 10
664.25
 20
33.5146484375
 30
0.0
  0
VERTEX
  5
948
330
914
100
AcDbEntity
  8
Ebene 1
370
     0
100
AcDbVertex
100
AcDb2dVertex
 10
664.69140625
 20
32.5
 30
0.0
  0
VERTEX
  5
949
330
914
100
AcDbEntity
  8
Ebene 1
370
     0
100
AcDbVertex
100
AcDb2dVertex
 10
665.220703125
 20
31.529296875
 30
0.0
  0
VERTEX
  5
94A
330
914
100
AcDbEntity
  8
Ebene 1
370
     0
100
AcDbVertex
100
AcDb2dVertex
 10
665.837890625
 20
30.6474609375
 30
0.0
  0
VERTEX
  5
94B
330
914
100
AcDbEntity
  8
Ebene 1
370
     0
100
AcDbVertex
100
AcDb2dVertex
 10
666.5439453125
 20
29.80859375
 30
0.0
  0
VERTEX
  5
94C
330
914
100
AcDbEntity
  8
Ebene 1
370
     0
100
AcDbVertex
100
AcDb2dVertex
 10
667.337890625
 20
29.05859375
 30
0.0
  0
VERTEX
  5
94D
330
914
100
AcDbEntity
  8
Ebene 1
370
     0
100
AcDbVertex
100
AcDb2dVertex
 10
668.220703125
 20
28.3974609375
 30
0.0
  0
VERTEX
  5
94E
330
914
100
AcDbEntity
  8
Ebene 1
370
     0
100
AcDbVertex
100
AcDb2dVertex
 10
669.1474609375
 20
27.8232421875
 30
0.0
  0
VERTEX
  5
94F
330
914
100
AcDbEntity
  8
Ebene 1
370
     0
100
AcDbVertex
100
AcDb2dVertex
 10
670.1171875
 20
27.337890625
 30
0.0
  0
VERTEX
  5
950
330
914
100
AcDbEntity
  8
Ebene 1
370
     0
100
AcDbVertex
100
AcDb2dVertex
 10
671.1767578125
 20
26.94140625
 30
0.0
  0
VERTEX
  5
951
330
914
100
AcDbEntity
  8
Ebene 1
370
     0
100
AcDbVertex
100
AcDb2dVertex
 10
672.2353515625
 20
26.6767578125
 30
0.0
  0
VERTEX
  5
952
330
914
100
AcDbEntity
  8
Ebene 1
370
     0
100
AcDbVertex
100
AcDb2dVertex
 10
673.2939453125
 20
26.5
 30
0.0
  0
VERTEX
  5
953
330
914
100
AcDbEntity
  8
Ebene 1
370
     0
100
AcDbVertex
100
AcDb2dVertex
 10
674.3974609375
 20
26.4560546875
 30
0.0
  0
VERTEX
  5
954
330
914
100
AcDbEntity
  8
Ebene 1
370
     0
100
AcDbVertex
100
AcDb2dVertex
 10
674.3974609375
 20
26.4560546875
 30
0.0
  0
SEQEND
  5
955
330
914
100
AcDbEntity
  8
Ebene 1
370
     0
  0
POLYLINE
  5
956
330
3C
100
AcDbEntity
  8
Ebene 1
370
     0
100
AcDb2dPolyline
 66
     1
 10
0.0
 20
0.0
 30
0.0
  0
VERTEX
  5
957
330
956
100
AcDbEntity
  8
Ebene 1
370
     0
100
AcDbVertex
100
AcDb2dVertex
 10
669.0146484375
 20
37.2646484375
 30
0.0
  0
VERTEX
  5
958
330
956
100
AcDbEntity
  8
Ebene 1
370
     0
100
AcDbVertex
100
AcDb2dVertex
 10
669.05859375
 20
36.5146484375
 30
0.0
  0
VERTEX
  5
959
330
956
100
AcDbEntity
  8
Ebene 1
370
     0
100
AcDbVertex
100
AcDb2dVertex
 10
669.2353515625
 20
35.7646484375
 30
0.0
  0
VERTEX
  5
95A
330
956
100
AcDbEntity
  8
Ebene 1
370
     0
100
AcDbVertex
100
AcDb2dVertex
 10
669.5
 20
35.0146484375
 30
0.0
  0
VERTEX
  5
95B
330
956
100
AcDbEntity
  8
Ebene 1
370
     0
100
AcDbVertex
100
AcDb2dVertex
 10
669.8525390625
 20
34.3525390625
 30
0.0
  0
VERTEX
  5
95C
330
956
100
AcDbEntity
  8
Ebene 1
370
     0
100
AcDbVertex
100
AcDb2dVertex
 10
670.337890625
 20
33.7353515625
 30
0.0
  0
VERTEX
  5
95D
330
956
100
AcDbEntity
  8
Ebene 1
370
     0
100
AcDbVertex
100
AcDb2dVertex
 10
670.8671875
 20
33.2060546875
 30
0.0
  0
VERTEX
  5
95E
330
956
100
AcDbEntity
  8
Ebene 1
370
     0
100
AcDbVertex
100
AcDb2dVertex
 10
671.4853515625
 20
32.720703125
 30
0.0
  0
VERTEX
  5
95F
330
956
100
AcDbEntity
  8
Ebene 1
370
     0
100
AcDbVertex
100
AcDb2dVertex
 10
672.1474609375
 20
32.3671875
 30
0.0
  0
VERTEX
  5
960
330
956
100
AcDbEntity
  8
Ebene 1
370
     0
100
AcDbVertex
100
AcDb2dVertex
 10
672.8974609375
 20
32.1025390625
 30
0.0
  0
VERTEX
  5
961
330
956
100
AcDbEntity
  8
Ebene 1
370
     0
100
AcDbVertex
100
AcDb2dVertex
 10
673.6474609375
 20
31.9267578125
 30
0.0
  0
VERTEX
  5
962
330
956
100
AcDbEntity
  8
Ebene 1
370
     0
100
AcDbVertex
100
AcDb2dVertex
 10
674.3974609375
 20
31.8828125
 30
0.0
  0
VERTEX
  5
963
330
956
100
AcDbEntity
  8
Ebene 1
370
     0
100
AcDbVertex
100
AcDb2dVertex
 10
675.1474609375
 20
31.9267578125
 30
0.0
  0
VERTEX
  5
964
330
956
100
AcDbEntity
  8
Ebene 1
370
     0
100
AcDbVertex
100
AcDb2dVertex
 10
675.8974609375
 20
32.1025390625
 30
0.0
  0
VERTEX
  5
965
330
956
100
AcDbEntity
  8
Ebene 1
370
     0
100
AcDbVertex
100
AcDb2dVertex
 10
676.6474609375
 20
32.3671875
 30
0.0
  0
VERTEX
  5
966
330
956
100
AcDbEntity
  8
Ebene 1
370
     0
100
AcDbVertex
100
AcDb2dVertex
 10
677.30859375
 20
32.720703125
 30
0.0
  0
VERTEX
  5
967
330
956
100
AcDbEntity
  8
Ebene 1
370
     0
100
AcDbVertex
100
AcDb2dVertex
 10
677.9267578125
 20
33.2060546875
 30
0.0
  0
VERTEX
  5
968
330
956
100
AcDbEntity
  8
Ebene 1
370
     0
100
AcDbVertex
100
AcDb2dVertex
 10
678.4560546875
 20
33.7353515625
 30
0.0
  0
VERTEX
  5
969
330
956
100
AcDbEntity
  8
Ebene 1
370
     0
100
AcDbVertex
100
AcDb2dVertex
 10
678.94140625
 20
34.3525390625
 30
0.0
  0
VERTEX
  5
96A
330
956
100
AcDbEntity
  8
Ebene 1
370
     0
100
AcDbVertex
100
AcDb2dVertex
 10
679.2939453125
 20
35.0146484375
 30
0.0
  0
VERTEX
  5
96B
330
956
100
AcDbEntity
  8
Ebene 1
370
     0
100
AcDbVertex
100
AcDb2dVertex
 10
679.55859375
 20
35.7646484375
 30
0.0
  0
VERTEX
  5
96C
330
956
100
AcDbEntity
  8
Ebene 1
370
     0
100
AcDbVertex
100
AcDb2dVertex
 10
679.7353515625
 20
36.5146484375
 30
0.0
  0
VERTEX
  5
96D
330
956
100
AcDbEntity
  8
Ebene 1
370
     0
100
AcDbVertex
100
AcDb2dVertex
 10
679.779296875
 20
37.2646484375
 30
0.0
  0
VERTEX
  5
96E
330
956
100
AcDbEntity
  8
Ebene 1
370
     0
100
AcDbVertex
100
AcDb2dVertex
 10
679.7353515625
 20
38.0146484375
 30
0.0
  0
VERTEX
  5
96F
330
956
100
AcDbEntity
  8
Ebene 1
370
     0
100
AcDbVertex
100
AcDb2dVertex
 10
679.55859375
 20
38.7646484375
 30
0.0
  0
VERTEX
  5
970
330
956
100
AcDbEntity
  8
Ebene 1
370
     0
100
AcDbVertex
100
AcDb2dVertex
 10
679.2939453125
 20
39.5146484375
 30
0.0
  0
VERTEX
  5
971
330
956
100
AcDbEntity
  8
Ebene 1
370
     0
100
AcDbVertex
100
AcDb2dVertex
 10
678.94140625
 20
40.1767578125
 30
0.0
  0
VERTEX
  5
972
330
956
100
AcDbEntity
  8
Ebene 1
370
     0
100
AcDbVertex
100
AcDb2dVertex
 10
678.4560546875
 20
40.7939453125
 30
0.0
  0
VERTEX
  5
973
330
956
100
AcDbEntity
  8
Ebene 1
370
     0
100
AcDbVertex
100
AcDb2dVertex
 10
677.9267578125
 20
41.3232421875
 30
0.0
  0
VERTEX
  5
974
330
956
100
AcDbEntity
  8
Ebene 1
370
     0
100
AcDbVertex
100
AcDb2dVertex
 10
677.30859375
 20
41.80859375
 30
0.0
  0
VERTEX
  5
975
330
956
100
AcDbEntity
  8
Ebene 1
370
     0
100
AcDbVertex
100
AcDb2dVertex
 10
676.6474609375
 20
42.162109375
 30
0.0
  0
VERTEX
  5
976
330
956
100
AcDbEntity
  8
Ebene 1
370
     0
100
AcDbVertex
100
AcDb2dVertex
 10
675.8974609375
 20
42.4267578125
 30
0.0
  0
VERTEX
  5
977
330
956
100
AcDbEntity
  8
Ebene 1
370
     0
100
AcDbVertex
100
AcDb2dVertex
 10
675.1474609375
 20
42.6025390625
 30
0.0
  0
VERTEX
  5
978
330
956
100
AcDbEntity
  8
Ebene 1
370
     0
100
AcDbVertex
100
AcDb2dVertex
 10
674.3974609375
 20
42.6474609375
 30
0.0
  0
VERTEX
  5
979
330
956
100
AcDbEntity
  8
Ebene 1
370
     0
100
AcDbVertex
100
AcDb2dVertex
 10
673.6474609375
 20
42.6025390625
 30
0.0
  0
VERTEX
  5
97A
330
956
100
AcDbEntity
  8
Ebene 1
370
     0
100
AcDbVertex
100
AcDb2dVertex
 10
672.8974609375
 20
42.4267578125
 30
0.0
  0
VERTEX
  5
97B
330
956
100
AcDbEntity
  8
Ebene 1
370
     0
100
AcDbVertex
100
AcDb2dVertex
 10
672.1474609375
 20
42.162109375
 30
0.0
  0
VERTEX
  5
97C
330
956
100
AcDbEntity
  8
Ebene 1
370
     0
100
AcDbVertex
100
AcDb2dVertex
 10
671.4853515625
 20
41.80859375
 30
0.0
  0
VERTEX
  5
97D
330
956
100
AcDbEntity
  8
Ebene 1
370
     0
100
AcDbVertex
100
AcDb2dVertex
 10
670.8671875
 20
41.3232421875
 30
0.0
  0
VERTEX
  5
97E
330
956
100
AcDbEntity
  8
Ebene 1
370
     0
100
AcDbVertex
100
AcDb2dVertex
 10
670.337890625
 20
40.7939453125
 30
0.0
  0
VERTEX
  5
97F
330
956
100
AcDbEntity
  8
Ebene 1
370
     0
100
AcDbVertex
100
AcDb2dVertex
 10
669.8525390625
 20
40.1767578125
 30
0.0
  0
VERTEX
  5
980
330
956
100
AcDbEntity
  8
Ebene 1
370
     0
100
AcDbVertex
100
AcDb2dVertex
 10
669.5
 20
39.5146484375
 30
0.0
  0
VERTEX
  5
981
330
956
100
AcDbEntity
  8
Ebene 1
370
     0
100
AcDbVertex
100
AcDb2dVertex
 10
669.2353515625
 20
38.7646484375
 30
0.0
  0
VERTEX
  5
982
330
956
100
AcDbEntity
  8
Ebene 1
370
     0
100
AcDbVertex
100
AcDb2dVertex
 10
669.05859375
 20
38.0146484375
 30
0.0
  0
VERTEX
  5
983
330
956
100
AcDbEntity
  8
Ebene 1
370
     0
100
AcDbVertex
100
AcDb2dVertex
 10
669.0146484375
 20
37.2646484375
 30
0.0
  0
VERTEX
  5
984
330
956
100
AcDbEntity
  8
Ebene 1
370
     0
100
AcDbVertex
100
AcDb2dVertex
 10
669.0146484375
 20
37.2646484375
 30
0.0
  0
SEQEND
  5
985
330
956
100
AcDbEntity
  8
Ebene 1
370
     0
  0
POLYLINE
  5
986
330
3C
100
AcDbEntity
  8
Ebene 1
370
     0
100
AcDb2dPolyline
 66
     1
 10
0.0
 20
0.0
 30
0.0
  0
VERTEX
  5
987
330
986
100
AcDbEntity
  8
Ebene 1
370
     0
100
AcDbVertex
100
AcDb2dVertex
 10
674.3974609375
 20
31.837890625
 30
0.0
  0
VERTEX
  5
988
330
986
100
AcDbEntity
  8
Ebene 1
370
     0
100
AcDbVertex
100
AcDb2dVertex
 10
679.0732421875
 20
34.5732421875
 30
0.0
  0
VERTEX
  5
989
330
986
100
AcDbEntity
  8
Ebene 1
370
     0
100
AcDbVertex
100
AcDb2dVertex
 10
679.0732421875
 20
39.9560546875
 30
0.0
  0
VERTEX
  5
98A
330
986
100
AcDbEntity
  8
Ebene 1
370
     0
100
AcDbVertex
100
AcDb2dVertex
 10
674.3974609375
 20
42.6474609375
 30
0.0
  0
VERTEX
  5
98B
330
986
100
AcDbEntity
  8
Ebene 1
370
     0
100
AcDbVertex
100
AcDb2dVertex
 10
669.720703125
 20
39.9560546875
 30
0.0
  0
VERTEX
  5
98C
330
986
100
AcDbEntity
  8
Ebene 1
370
     0
100
AcDbVertex
100
AcDb2dVertex
 10
669.720703125
 20
34.5732421875
 30
0.0
  0
VERTEX
  5
98D
330
986
100
AcDbEntity
  8
Ebene 1
370
     0
100
AcDbVertex
100
AcDb2dVertex
 10
674.3974609375
 20
31.837890625
 30
0.0
  0
VERTEX
  5
98E
330
986
100
AcDbEntity
  8
Ebene 1
370
     0
100
AcDbVertex
100
AcDb2dVertex
 10
674.3974609375
 20
31.837890625
 30
0.0
  0
SEQEND
  5
98F
330
986
100
AcDbEntity
  8
Ebene 1
370
     0
  0
ENDBLK
  5
3F
330
3C
100
AcDbEntity
  8
0
100
AcDbBlockEnd
  0
ENDSEC
  0
SECTION
  2
ENTITIES
  0
INSERT
  5
3D
330
1F
100
AcDbEntity
  8
Ebene 1
100
AcDbBlockReference
  2
block 2
 10
0.0
 20
0.0
 30
0.0
  0
ENDSEC
  0
SECTION
  2
OBJECTS
  0
DICTIONARY
  5
C
330
0
100
AcDbDictionary
281
     1
  3
ACAD_GROUP
350
D
  3
ACAD_LAYOUT
350
1A
  3
ACAD_MLINESTYLE
350
17
  3
ACAD_PLOTSETTINGS
350
19
  3
ACAD_PLOTSTYLENAME
350
E
  3
ACAD_TABLESTYLE
350
990
  3
ACAD_VISUALSTYLE
350
2A
  0
DICTIONARY
  5
D
102
{ACAD_REACTORS
330
C
102
}
330
C
100
AcDbDictionary
281
     1
  0
DICTIONARY
  5
1A
102
{ACAD_REACTORS
330
C
102
}
330
C
100
AcDbDictionary
281
     1
  3
Layout1
350
1E
  3
Layout2
350
26
  3
Model
350
22
  0
DICTIONARY
  5
17
102
{ACAD_REACTORS
330
C
102
}
330
C
100
AcDbDictionary
281
     1
  3
Standard
350
18
  0
DICTIONARY
  5
19
102
{ACAD_REACTORS
330
C
102
}
330
C
100
AcDbDictionary
281
     1
  0
ACDBDICTIONARYWDFLT
  5
E
102
{ACAD_REACTORS
330
C
102
}
330
C
100
AcDbDictionary
281
     1
  3
Normal
350
F
100
AcDbDictionaryWithDefault
340
F
  0
DICTIONARY
  5
990
102
{ACAD_REACTORS
330
C
102
}
330
C
100
AcDbDictionary
281
     1
  0
DICTIONARY
  5
2A
102
{ACAD_REACTORS
330
C
102
}
330
C
100
AcDbDictionary
281
     1
  3
2dWireframe
350
2F
  3
3D Hidden
350
31
  3
3dWireframe
350
30
  3
Basic
350
32
  3
Brighten
350
36
  3
ColorChange
350
3A
  3
Conceptual
350
34
  3
Dim
350
35
  3
Facepattern
350
39
  3
Flat
350
2B
  3
FlatWithEdges
350
2C
  3
Gouraud
350
2D
  3
GouraudWithEdges
350
2E
  3
Linepattern
350
38
  3
Realistic
350
33
  3
Thicken
350
37
  0
LAYOUT
  5
1E
102
{ACAD_REACTORS
330
1A
102
}
330
1A
100
AcDbPlotSettings
  1

  2
none_device
  4

  6

 40
0.0
 41
0.0
 42
0.0
 43
0.0
 44
0.0
 45
0.0
 46
0.0
 47
0.0
 48
0.0
 49
0.0
140
0.0
141
0.0
142
1.0
143
1.0
 70
   688
 72
     0
 73
     0
 74
     5
  7

 75
    16
 76
     0
 77
     2
 78
   300
147
1.0
148
0.0
149
0.0
100
AcDbLayout
  1
Layout1
 70
     1
 71
     1
 10
0.0
 20
0.0
 11
12.0
 21
9.0
 12
0.0
 22
0.0
 32
0.0
 14
1.000000000000000E+20
 24
1.000000000000000E+20
 34
1.000000000000000E+20
 15
-1.000000000000000E+20
 25
-1.000000000000000E+20
 35
-1.000000000000000E+20
146
0.0
 13
0.0
 23
0.0
 33
0.0
 16
1.0
 26
0.0
 36
0.0
 17
0.0
 27
1.0
 37
0.0
 76
     0
330
1B
  0
LAYOUT
  5
26
102
{ACAD_REACTORS
330
1A
102
}
330
1A
100
AcDbPlotSettings
  1

  2
none_device
  4

  6

 40
0.0
 41
0.0
 42
0.0
 43
0.0
 44
0.0
 45
0.0
 46
0.0
 47
0.0
 48
0.0
 49
0.0
140
0.0
141
0.0
142
1.0
143
1.0
 70
   688
 72
     0
 73
     0
 74
     5
  7

 75
    16
 76
     0
 77
     2
 78
   300
147
1.0
148
0.0
149
0.0
100
AcDbLayout
  1
Layout2
 70
     1
 71
     2
 10
0.0
 20
0.0
 11
0.0
 21
0.0
 12
0.0
 22
0.0
 32
0.0
 14
0.0
 24
0.0
 34
0.0
 15
0.0
 25
0.0
 35
0.0
146
0.0
 13
0.0
 23
0.0
 33
0.0
 16
1.0
 26
0.0
 36
0.0
 17
0.0
 27
1.0
 37
0.0
 76
     0
330
23
  0
LAYOUT
  5
22
102
{ACAD_REACTORS
330
1A
102
}
330
1A
100
AcDbPlotSettings
  1

  2
none_device
  4

  6

 40
0.0
 41
0.0
 42
0.0
 43
0.0
 44
0.0
 45
0.0
 46
0.0
 47
0.0
 48
0.0
 49
0.0
140
0.0
141
0.0
142
1.0
143
1.0
 70
  1712
 72
     0
 73
     0
 74
     0
  7

 75
     0
 76
     0
 77
     2
 78
   300
147
1.0
148
0.0
149
0.0
100
AcDbLayout
  1
Model
 70
     1
 71
     0
 10
0.0
 20
0.0
 11
12.0
 21
9.0
 12
0.0
 22
0.0
 32
0.0
 14
1.000000000000000E+20
 24
1.000000000000000E+20
 34
1.000000000000000E+20
 15
-1.000000000000000E+20
 25
-1.000000000000000E+20
 35
-1.000000000000000E+20
146
0.0
 13
0.0
 23
0.0
 33
0.0
 16
1.0
 26
0.0
 36
0.0
 17
0.0
 27
1.0
 37
0.0
 76
     0
330
1F
331
29
  0
MLINESTYLE
  5
18
102
{ACAD_REACTORS
330
17
102
}
330
17
100
AcDbMlineStyle
  2
Standard
 70
     0
  3

 62
   256
 51
90.0
 52
90.0
 71
     2
 49
0.5
 62
   256
  6
BYLAYER
 49
-0.5
 62
   256
  6
BYLAYER
  0
ACDBPLACEHOLDER
  5
F
102
{ACAD_REACTORS
330
E
102
}
330
E
  0
VISUALSTYLE
  5
2F
102
{ACAD_REACTORS
330
2A
102
}
330
2A
100
AcDbVisualStyle
  2
2dWireframe
 70
     4
 71
     0
 72
     2
 73
     0
 90
        0
 40
-0.6
 41
-30.0
 62
     5
 63
     7
421
 16777215
 74
     1
 91
        4
 64
     7
 65
   257
 75
     1
175
     1
 42
1.0
 92
        0
 66
   257
 43
1.0
 76
     1
 77
     6
 78
     2
 67
     7
 79
     5
170
     0
171
     0
290
     0
174
     0
 93
        1
 44
0.0
173
     0
291
     0
 45
0.0
1001
ACAD
1000
AcDbSavedByObjectVersion
1070
     0
  0
VISUALSTYLE
  5
31
102
{ACAD_REACTORS
330
2A
102
}
330
2A
100
AcDbVisualStyle
  2
3D Hidden
 70
     6
 71
     1
 72
     2
 73
     2
 90
        0
 40
-0.6
 41
-30.0
 62
     5
 63
     7
421
 16777215
 74
     2
 91
        2
 64
     7
 65
   257
 75
     2
175
     1
 42
40.0
 92
        0
 66
   257
 43
1.0
 76
     1
 77
     6
 78
     2
 67
     7
 79
     3
170
     0
171
     0
290
     0
174
     0
 93
        1
 44
0.0
173
     0
291
     0
 45
0.0
1001
ACAD
1000
AcDbSavedByObjectVersion
1070
     0
  0
VISUALSTYLE
  5
30
102
{ACAD_REACTORS
330
2A
102
}
330
2A
100
AcDbVisualStyle
  2
3dWireframe
 70
     5
 71
     0
 72
     2
 73
     0
 90
        0
 40
-0.6
 41
-30.0
 62
     5
 63
     7
421
 16777215
 74
     1
 91
        4
 64
     7
 65
   257
 75
     1
175
     1
 42
1.0
 92
        0
 66
   257
 43
1.0
 76
     1
 77
     6
 78
     2
 67
     7
 79
     5
170
     0
171
     0
290
     0
174
     0
 93
        1
 44
0.0
173
     0
291
     0
 45
0.0
1001
ACAD
1000
AcDbSavedByObjectVersion
1070
     0
  0
VISUALSTYLE
  5
32
102
{ACAD_REACTORS
330
2A
102
}
330
2A
100
AcDbVisualStyle
  2
Basic
 70
     7
 71
     1
 72
     0
 73
     1
 90
        0
 40
-0.6
 41
-30.0
 62
     5
 63
     7
421
 16777215
 74
     0
 91
        4
 64
     7
 65
   257
 75
     1
175
     1
 42
1.0
 92
        8
 66
     7
 43
1.0
 76
     1
 77
     6
 78
     2
 67
     7
 79
     5
170
     0
171
     0
290
     0
174
     0
 93
        1
 44
0.0
173
     0
291
     1
 45
0.0
1001
ACAD
1000
AcDbSavedByObjectVersion
1070
     0
  0
VISUALSTYLE
  5
36
102
{ACAD_REACTORS
330
2A
102
}
330
2A
100
AcDbVisualStyle
  2
Brighten
 70
    12
 71
     2
 72
     2
 73
     0
 90
        0
 40
-0.6
 41
-30.0
 62
     5
 63
     7
421
 16777215
 74
     1
 91
        4
 64
     7
 65
   257
 75
     1
175
     1
 42
1.0
 92
        8
 66
     7
 43
1.0
 76
     1
 77
     6
 78
     2
 67
     7
 79
     5
170
     0
171
     0
290
     0
174
     0
 93
        1
 44
50.0
173
     0
291
     1
 45
0.0
1001
ACAD
1000
AcDbSavedByObjectVersion
1070
     0
  0
VISUALSTYLE
  5
3A
102
{ACAD_REACTORS
330
2A
102
}
330
2A
100
AcDbVisualStyle
  2
ColorChange
 70
    16
 71
     2
 72
     2
 73
     3
 90
        0
 40
-0.6
 41
-30.0
 62
     5
 63
     8
421
  8421504
 74
     1
 91
        4
 64
     7
 65
   257
 75
     1
175
     1
 42
1.0
 92
        8
 66
     8
424
  8421504
 43
1.0
 76
     1
 77
     6
 78
     2
 67
     7
 79
     5
170
     0
171
     0
290
     0
174
     0
 93
        1
 44
0.0
173
     0
291
     1
 45
0.0
1001
ACAD
1000
AcDbSavedByObjectVersion
1070
     0
  0
VISUALSTYLE
  5
34
102
{ACAD_REACTORS
330
2A
102
}
330
2A
100
AcDbVisualStyle
  2
Conceptual
 70
     9
 71
     3
 72
     2
 73
     0
 90
        0
 40
-0.6
 41
-30.0
 62
     5
 63
     7
421
 16777215
 74
     2
 91
        2
 64
     7
 65
   257
 75
     1
175
     1
 42
40.0
 92
        8
 66
     7
 43
1.0
 76
     1
 77
     6
 78
     2
 67
     7
 79
     3
170
     0
171
     0
290
     0
174
     0
 93
        1
 44
0.0
173
     0
291
     0
 45
0.0
1001
ACAD
1000
AcDbSavedByObjectVersion
1070
     0
  0
VISUALSTYLE
  5
35
102
{ACAD_REACTORS
330
2A
102
}
330
2A
100
AcDbVisualStyle
  2
Dim
 70
    11
 71
     2
 72
     2
 73
     0
 90
        0
 40
-0.6
 41
-30.0
 62
     5
 63
     7
421
 16777215
 74
     1
 91
        4
 64
     7
 65
   257
 75
     1
175
     1
 42
1.0
 92
        8
 66
     7
 43
1.0
 76
     1
 77
     6
 78
     2
 67
     7
 79
     5
170
     0
171
     0
290
     0
174
     0
 93
        1
 44
-50.0
173
     0
291
     1
 45
0.0
1001
ACAD
1000
AcDbSavedByObjectVersion
1070
     0
  0
VISUALSTYLE
  5
39
102
{ACAD_REACTORS
330
2A
102
}
330
2A
100
AcDbVisualStyle
  2
Facepattern
 70
    15
 71
     2
 72
     2
 73
     0
 90
        0
 40
-0.6
 41
-30.0
 62
     5
 63
     7
421
 16777215
 74
     1
 91
        4
 64
     7
 65
   257
 75
     1
175
     1
 42
1.0
 92
        8
 66
     7
 43
1.0
 76
     1
 77
     6
 78
     2
 67
     7
 79
     5
170
     0
171
     0
290
     0
174
     0
 93
        1
 44
0.0
173
     0
291
     1
 45
0.0
1001
ACAD
1000
AcDbSavedByObjectVersion
1070
     0
  0
VISUALSTYLE
  5
2B
102
{ACAD_REACTORS
330
2A
102
}
330
2A
100
AcDbVisualStyle
  2
Flat
 70
     0
 71
     2
 72
     1
 73
     1
 90
        2
 40
-0.6
 41
30.0
 62
     5
 63
     7
421
 16777215
 74
     0
 91
        4
 64
     7
 65
   257
 75
     1
175
     1
 42
1.0
 92
        8
 66
     7
 43
1.0
 76
     1
 77
     6
 78
     2
 67
     7
 79
     5
170
     0
171
     0
290
     0
174
     0
 93
       13
 44
0.0
173
     0
291
     1
 45
0.0
1001
ACAD
1000
AcDbSavedByObjectVersion
1070
     0
  0
VISUALSTYLE
  5
2C
102
{ACAD_REACTORS
330
2A
102
}
330
2A
100
AcDbVisualStyle
  2
FlatWithEdges
 70
     1
 71
     2
 72
     1
 73
     1
 90
        2
 40
-0.6
 41
30.0
 62
     5
 63
     7
421
 16777215
 74
     1
 91
        4
 64
     7
 65
   257
 75
     1
175
     1
 42
1.0
 92
        0
 66
   257
 43
1.0
 76
     1
 77
     6
 78
     2
 67
     7
 79
     5
170
     0
171
     0
290
     0
174
     0
 93
       13
 44
0.0
173
     0
291
     1
 45
0.0
1001
ACAD
1000
AcDbSavedByObjectVersion
1070
     0
  0
VISUALSTYLE
  5
2D
102
{ACAD_REACTORS
330
2A
102
}
330
2A
100
AcDbVisualStyle
  2
Gouraud
 70
     2
 71
     2
 72
     2
 73
     1
 90
        2
 40
-0.6
 41
30.0
 62
     5
 63
     7
421
 16777215
 74
     0
 91
        4
 64
     7
 65
   257
 75
     1
175
     1
 42
1.0
 92
        0
 66
     7
 43
1.0
 76
     1
 77
     6
 78
     2
 67
     7
 79
     5
170
     0
171
     0
290
     0
174
     0
 93
       13
 44
0.0
173
     0
291
     1
 45
0.0
1001
ACAD
1000
AcDbSavedByObjectVersion
1070
     0
  0
VISUALSTYLE
  5
2E
102
{ACAD_REACTORS
330
2A
102
}
330
2A
100
AcDbVisualStyle
  2
GouraudWithEdges
 70
     3
 71
     2
 72
     2
 73
     1
 90
        2
 40
-0.6
 41
30.0
 62
     5
 63
     7
421
 16777215
 74
     1
 91
        4
 64
     7
 65
   257
 75
     1
175
     1
 42
1.0
 92
        0
 66
   257
 43
1.0
 76
     1
 77
     6
 78
     2
 67
     7
 79
     5
170
     0
171
     0
290
     0
174
     0
 93
       13
 44
0.0
173
     0
291
     1
 45
0.0
1001
ACAD
1000
AcDbSavedByObjectVersion
1070
     0
  0
VISUALSTYLE
  5
38
102
{ACAD_REACTORS
330
2A
102
}
330
2A
100
AcDbVisualStyle
  2
Linepattern
 70
    14
 71
     2
 72
     2
 73
     0
 90
        0
 40
-0.6
 41
-30.0
 62
     5
 63
     7
421
 16777215
 74
     1
 91
        4
 64
     7
 65
   257
 75
     7
175
     7
 42
1.0
 92
        8
 66
     7
 43
1.0
 76
     1
 77
     6
 78
     2
 67
     7
 79
     5
170
     0
171
     0
290
     0
174
     0
 93
        1
 44
0.0
173
     0
291
     1
 45
0.0
1001
ACAD
1000
AcDbSavedByObjectVersion
1070
     0
  0
VISUALSTYLE
  5
33
102
{ACAD_REACTORS
330
2A
102
}
330
2A
100
AcDbVisualStyle
  2
Realistic
 70
     8
 71
     2
 72
     2
 73
     0
 90
        0
 40
-0.6
 41
-30.0
 62
     5
 63
     7
421
 16777215
 74
     1
 91
        0
 64
     7
 65
   257
 75
     1
175
     1
 42
1.0
 92
        8
 66
     8
424
  7895160
 43
1.0
 76
     1
 77
     6
 78
     2
 67
     7
 79
     5
170
     0
171
     0
290
     0
174
     0
 93
       13
 44
0.0
173
     0
291
     0
 45
0.0
1001
ACAD
1000
AcDbSavedByObjectVersion
1070
     0
  0
VISUALSTYLE
  5
37
102
{ACAD_REACTORS
330
2A
102
}
330
2A
100
AcDbVisualStyle
  2
Thicken
 70
    13
 71
     2
 72
     2
 73
     0
 90
        0
 40
-0.6
 41
-30.0
 62
     5
 63
     7
421
 16777215
 74
     1
 91
        4
 64
     7
 65
   257
 75
     1
175
     1
 42
1.0
 92
       12
 66
     7
 43
1.0
 76
     1
 77
     6
 78
     2
 67
     7
 79
     5
170
     0
171
     0
290
     0
174
     0
 93
        1
 44
0.0
173
     0
291
     1
 45
0.0
1001
ACAD
1000
AcDbSavedByObjectVersion
1070
     0
  0
ENDSEC
  0
EOF
