  0
SECTION
  2
HEADER
  9
$ACADVER
  1
AC1018
  9
$ACADMAINTVER
 70
     0
  9
$DWGCODEPAGE
  3
ANSI_1252
  9
$INSBASE
 10
0.0
 20
0.0
 30
0.0
  9
$EXTMIN
 10
1.000000000000000E+20
 20
1.000000000000000E+20
 30
1.000000000000000E+20
  9
$EXTMAX
 10
-1.000000000000000E+20
 20
-1.000000000000000E+20
 30
-1.000000000000000E+20
  9
$LIMMIN
 10
0.0
 20
0.0
  9
$LIMMAX
 10
12.0
 20
9.0
  9
$ORTHOMODE
 70
     0
  9
$REGENMODE
 70
     1
  9
$FILLMODE
 70
     1
  9
$QTEXTMODE
 70
     0
  9
$MIRRTEXT
 70
     1
  9
$LTSCALE
 40
1.0
  9
$ATTMODE
 70
     1
  9
$TEXTSIZE
 40
0.2
  9
$TRACEWID
 40
0.05
  9
$TEXTSTYLE
  7
Standard
  9
$CLAYER
  8
0
  9
$CELTYPE
  6
ByLayer
  9
$CECOLOR
 62
   256
  9
$CELTSCALE
 40
1.0
  9
$DISPSILH
 70
     0
  9
$DIMSCALE
 40
1.0
  9
$DIMASZ
 40
0.18
  9
$DIMEXO
 40
0.0625
  9
$DIMDLI
 40
0.38
  9
$DIMRND
 40
0.0
  9
$DIMDLE
 40
0.0
  9
$DIMEXE
 40
0.18
  9
$DIMTP
 40
0.0
  9
$DIMTM
 40
0.0
  9
$DIMTXT
 40
0.18
  9
$DIMCEN
 40
0.09
  9
$DIMTSZ
 40
0.0
  9
$DIMTOL
 70
     0
  9
$DIMLIM
 70
     0
  9
$DIMTIH
 70
     1
  9
$DIMTOH
 70
     1
  9
$DIMSE1
 70
     0
  9
$DIMSE2
 70
     0
  9
$DIMTAD
 70
     0
  9
$DIMZIN
 70
     0
  9
$DIMBLK
  1

  9
$DIMASO
 70
     1
  9
$DIMSHO
 70
     1
  9
$DIMPOST
  1

  9
$DIMAPOST
  1

  9
$DIMALT
 70
     0
  9
$DIMALTD
 70
     2
  9
$DIMALTF
 40
25.4
  9
$DIMLFAC
 40
1.0
  9
$DIMTOFL
 70
     0
  9
$DIMTVP
 40
0.0
  9
$DIMTIX
 70
     0
  9
$DIMSOXD
 70
     0
  9
$DIMSAH
 70
     0
  9
$DIMBLK1
  1

  9
$DIMBLK2
  1

  9
$DIMSTYLE
  2
Standard
  9
$DIMCLRD
 70
     0
  9
$DIMCLRE
 70
     0
  9
$DIMCLRT
 70
     0
  9
$DIMTFAC
 40
1.0
  9
$DIMGAP
 40
0.09
  9
$DIMJUST
 70
     0
  9
$DIMSD1
 70
     0
  9
$DIMSD2
 70
     0
  9
$DIMTOLJ
 70
     1
  9
$DIMTZIN
 70
     0
  9
$DIMALTZ
 70
     0
  9
$DIMALTTZ
 70
     0
  9
$DIMUPT
 70
     0
  9
$DIMDEC
 70
     4
  9
$DIMTDEC
 70
     4
  9
$DIMALTU
 70
     2
  9
$DIMALTTD
 70
     2
  9
$DIMTXSTY
  7
Standard
  9
$DIMAUNIT
 70
     0
  9
$DIMADEC
 70
     0
  9
$DIMALTRND
 40
0.0
  9
$DIMAZIN
 70
     0
  9
$DIMDSEP
 70
    46
  9
$DIMATFIT
 70
     3
  9
$DIMFRAC
 70
     0
  9
$DIMLDRBLK
  1

  9
$DIMLUNIT
 70
     2
  9
$DIMLWD
 70
    -2
  9
$DIMLWE
 70
    -2
  9
$DIMTMOVE
 70
     0
  9
$LUNITS
 70
     2
  9
$LUPREC
 70
     4
  9
$SKETCHINC
 40
0.1
  9
$FILLETRAD
 40
0.5
  9
$AUNITS
 70
     0
  9
$AUPREC
 70
     0
  9
$MENU
  1
.
  9
$ELEVATION
 40
0.0
  9
$PELEVATION
 40
0.0
  9
$THICKNESS
 40
0.0
  9
$LIMCHECK
 70
     0
  9
$CHAMFERA
 40
0.5
  9
$CHAMFERB
 40
0.5
  9
$CHAMFERC
 40
1.0
  9
$CHAMFERD
 40
0.0
  9
$SKPOLY
 70
     0
  9
$TDCREATE
 40
2458374.418812153
  9
$TDUCREATE
 40
2458374.335478819
  9
$TDUPDATE
 40
2458374.418812165
  9
$TDUUPDATE
 40
2458374.335478831
  9
$TDINDWG
 40
0.0000000116
  9
$TDUSRTIMER
 40
0.0000000116
  9
$USRTIMER
 70
     1
  9
$ANGBASE
 50
0.0
  9
$ANGDIR
 70
     0
  9
$PDMODE
 70
     0
  9
$PDSIZE
 40
0.0
  9
$PLINEWID
 40
0.0
  9
$SPLFRAME
 70
     0
  9
$SPLINETYPE
 70
     6
  9
$SPLINESEGS
 70
     8
  9
$HANDSEED
  5
A22
  9
$SURFTAB1
 70
     6
  9
$SURFTAB2
 70
     6
  9
$SURFTYPE
 70
     6
  9
$SURFU
 70
     6
  9
$SURFV
 70
     6
  9
$UCSBASE
  2

  9
$UCSNAME
  2

  9
$UCSORG
 10
0.0
 20
0.0
 30
0.0
  9
$UCSXDIR
 10
1.0
 20
0.0
 30
0.0
  9
$UCSYDIR
 10
0.0
 20
1.0
 30
0.0
  9
$UCSORTHOREF
  2

  9
$UCSORTHOVIEW
 70
     0
  9
$UCSORGTOP
 10
0.0
 20
0.0
 30
0.0
  9
$UCSORGBOTTOM
 10
0.0
 20
0.0
 30
0.0
  9
$UCSORGLEFT
 10
0.0
 20
0.0
 30
0.0
  9
$UCSORGRIGHT
 10
0.0
 20
0.0
 30
0.0
  9
$UCSORGFRONT
 10
0.0
 20
0.0
 30
0.0
  9
$UCSORGBACK
 10
0.0
 20
0.0
 30
0.0
  9
$PUCSBASE
  2

  9
$PUCSNAME
  2

  9
$PUCSORG
 10
0.0
 20
0.0
 30
0.0
  9
$PUCSXDIR
 10
1.0
 20
0.0
 30
0.0
  9
$PUCSYDIR
 10
0.0
 20
1.0
 30
0.0
  9
$PUCSORTHOREF
  2

  9
$PUCSORTHOVIEW
 70
     0
  9
$PUCSORGTOP
 10
0.0
 20
0.0
 30
0.0
  9
$PUCSORGBOTTOM
 10
0.0
 20
0.0
 30
0.0
  9
$PUCSORGLEFT
 10
0.0
 20
0.0
 30
0.0
  9
$PUCSORGRIGHT
 10
0.0
 20
0.0
 30
0.0
  9
$PUCSORGFRONT
 10
0.0
 20
0.0
 30
0.0
  9
$PUCSORGBACK
 10
0.0
 20
0.0
 30
0.0
  9
$USERI1
 70
     0
  9
$USERI2
 70
     0
  9
$USERI3
 70
     0
  9
$USERI4
 70
     0
  9
$USERI5
 70
     0
  9
$USERR1
 40
0.0
  9
$USERR2
 40
0.0
  9
$USERR3
 40
0.0
  9
$USERR4
 40
0.0
  9
$USERR5
 40
0.0
  9
$WORLDVIEW
 70
     1
  9
$SHADEDGE
 70
     3
  9
$SHADEDIF
 70
    70
  9
$TILEMODE
 70
     1
  9
$MAXACTVP
 70
    64
  9
$PINSBASE
 10
0.0
 20
0.0
 30
0.0
  9
$PLIMCHECK
 70
     0
  9
$PEXTMIN
 10
1.000000000000000E+20
 20
1.000000000000000E+20
 30
1.000000000000000E+20
  9
$PEXTMAX
 10
-1.000000000000000E+20
 20
-1.000000000000000E+20
 30
-1.000000000000000E+20
  9
$PLIMMIN
 10
0.0
 20
0.0
  9
$PLIMMAX
 10
12.0
 20
9.0
  9
$UNITMODE
 70
     0
  9
$VISRETAIN
 70
     1
  9
$PLINEGEN
 70
     0
  9
$PSLTSCALE
 70
     1
  9
$TREEDEPTH
 70
  3020
  9
$CMLSTYLE
  2
Standard
  9
$CMLJUST
 70
     0
  9
$CMLSCALE
 40
1.0
  9
$PROXYGRAPHICS
 70
     1
  9
$MEASUREMENT
 70
     0
  9
$CELWEIGHT
370
    -1
  9
$ENDCAPS
280
     0
  9
$JOINSTYLE
280
     0
  9
$LWDISPLAY
290
     1
  9
$INSUNITS
 70
     1
  9
$HYPERLINKBASE
  1

  9
$STYLESHEET
  1

  9
$XEDIT
290
     1
  9
$CEPSNTYPE
380
     0
  9
$PSTYLEMODE
290
     1
  9
$FINGERPRINTGUID
  2
{5AED9163-357D-4C7F-B2FA-8E7779AFFEE6}
  9
$VERSIONGUID
  2
{FAEB1C32-E019-11D5-929B-00C0DF256EC4}
  9
$EXTNAMES
290
     1
  9
$PSVPSCALE
 40
0.0
  9
$OLESTARTUP
290
     0
  9
$SORTENTS
280
   127
  9
$INDEXCTL
280
     0
  9
$HIDETEXT
280
     1
  9
$XCLIPFRAME
290
     0
  9
$HALOGAP
280
     0
  9
$OBSCOLOR
 70
   257
  9
$OBSLTYPE
280
     0
  9
$INTERSECTIONDISPLAY
280
     0
  9
$INTERSECTIONCOLOR
 70
   257
  9
$DIMASSOC
280
     2
  9
$PROJECTNAME
  1

  0
ENDSEC
  0
SECTION
  2
CLASSES
  0
CLASS
  1
ACDBDICTIONARYWDFLT
  2
AcDbDictionaryWithDefault
  3
ObjectDBX Classes
 90
        0
 91
        3
280
     0
281
     0
  0
CLASS
  1
VISUALSTYLE
  2
AcDbVisualStyle
  3
ObjectDBX Classes
 90
     4095
 91
        3
280
     0
281
     0
  0
ENDSEC
  0
SECTION
  2
TABLES
  0
TABLE
  2
VPORT
  5
8
330
0
100
AcDbSymbolTable
 70
     1
  0
VPORT
  5
29
330
8
100
AcDbSymbolTableRecord
100
AcDbViewportTableRecord
  2
*Active
 70
     0
 10
0.0
 20
0.0
 11
1.0
 21
1.0
 12
0.0
 22
0.0
 13
0.0
 23
0.0
 14
0.5
 24
0.5
 15
0.5
 25
0.5
 16
0.0
 26
0.0
 36
1.0
 17
306.0
 27
396.0
 37
0.0
 40
792.0
 41
0.7727272727272727
 42
50.0
 43
0.0
 44
0.0
 50
0.0
 51
0.0
 71
     0
 72
   100
 73
     1
 74
     3
 75
     0
 76
     0
 77
     0
 78
     0
281
     0
 65
     1
110
0.0
120
0.0
130
0.0
111
1.0
121
0.0
131
0.0
112
0.0
122
1.0
132
0.0
 79
     0
146
0.0
  0
ENDTAB
  0
TABLE
  2
LTYPE
  5
5
330
0
100
AcDbSymbolTable
 70
     1
  0
LTYPE
  5
14
330
5
100
AcDbSymbolTableRecord
100
AcDbLinetypeTableRecord
  2
ByBlock
 70
     0
  3

 72
    65
 73
     0
 40
0.0
  0
LTYPE
  5
15
330
5
100
AcDbSymbolTableRecord
100
AcDbLinetypeTableRecord
  2
ByLayer
 70
     0
  3

 72
    65
 73
     0
 40
0.0
  0
LTYPE
  5
16
330
5
100
AcDbSymbolTableRecord
100
AcDbLinetypeTableRecord
  2
Continuous
 70
     0
  3
Solid line
 72
    65
 73
     0
 40
0.0
  0
ENDTAB
  0
TABLE
  2
LAYER
  5
2
330
0
100
AcDbSymbolTable
 70
     2
  0
LAYER
  5
10
330
2
100
AcDbSymbolTableRecord
100
AcDbLayerTableRecord
  2
0
 70
     0
 62
     7
  6
Continuous
370
    -3
390
F
  0
LAYER
  5
3B
330
2
100
AcDbSymbolTableRecord
100
AcDbLayerTableRecord
  2
Ebene 1
 70
     0
 62
     7
  6
Continuous
370
    -3
390
F
  0
ENDTAB
  0
TABLE
  2
STYLE
  5
3
330
0
100
AcDbSymbolTable
 70
     1
  0
STYLE
  5
11
330
3
100
AcDbSymbolTableRecord
100
AcDbTextStyleTableRecord
  2
Standard
 70
     0
 40
0.0
 41
1.0
 50
0.0
 71
     0
 42
0.2
  3
txt
  4

  0
ENDTAB
  0
TABLE
  2
VIEW
  5
6
330
0
100
AcDbSymbolTable
 70
     0
  0
ENDTAB
  0
TABLE
  2
UCS
  5
7
330
0
100
AcDbSymbolTable
 70
     0
  0
ENDTAB
  0
TABLE
  2
APPID
  5
9
330
0
100
AcDbSymbolTable
 70
     1
  0
APPID
  5
12
330
9
100
AcDbSymbolTableRecord
100
AcDbRegAppTableRecord
  2
ACAD
 70
     0
  0
ENDTAB
  0
TABLE
  2
DIMSTYLE
  5
A
330
0
100
AcDbSymbolTable
 70
     1
100
AcDbDimStyleTable
  0
DIMSTYLE
105
27
330
A
100
AcDbSymbolTableRecord
100
AcDbDimStyleTableRecord
  2
Standard
 70
     0
340
11
  0
ENDTAB
  0
TABLE
  2
BLOCK_RECORD
  5
1
330
0
100
AcDbSymbolTable
 70
     2
  0
BLOCK_RECORD
  5
1F
330
1
100
AcDbSymbolTableRecord
100
AcDbBlockTableRecord
  2
*Model_Space
340
22
  0
BLOCK_RECORD
  5
1B
330
1
100
AcDbSymbolTableRecord
100
AcDbBlockTableRecord
  2
*Paper_Space
340
1E
  0
BLOCK_RECORD
  5
23
330
1
100
AcDbSymbolTableRecord
100
AcDbBlockTableRecord
  2
*Paper_Space0
340
26
  0
BLOCK_RECORD
  5
3C
330
1
100
AcDbSymbolTableRecord
100
AcDbBlockTableRecord
  2
block 2
340
0
102
{BLKREFS
331
3D
102
}
  0
ENDTAB
  0
ENDSEC
  0
SECTION
  2
BLOCKS
  0
BLOCK
  5
20
330
1F
100
AcDbEntity
  8
0
100
AcDbBlockBegin
  2
*Model_Space
 70
     0
 71
     0
 10
0.0
 20
0.0
 30
0.0
  3
*Model_Space
  1

  0
ENDBLK
  5
21
330
1F
100
AcDbEntity
  8
0
100
AcDbBlockEnd
  0
BLOCK
  5
1C
330
1B
100
AcDbEntity
 67
     1
  8
0
100
AcDbBlockBegin
  2
*Paper_Space
 70
     0
 71
     0
 10
0.0
 20
0.0
 30
0.0
  3
*Paper_Space
  1

  0
ENDBLK
  5
1D
330
1B
100
AcDbEntity
 67
     1
  8
0
100
AcDbBlockEnd
  0
BLOCK
  5
24
330
23
100
AcDbEntity
  8
0
100
AcDbBlockBegin
  2
*Paper_Space0
 70
     0
 71
     0
 10
0.0
 20
0.0
 30
0.0
  3
*Paper_Space0
  1

  0
ENDBLK
  5
25
330
23
100
AcDbEntity
  8
0
100
AcDbBlockEnd
  0
BLOCK
  5
3E
330
3C
100
AcDbEntity
  8
0
100
AcDbBlockBegin
  2
block 2
 70
     0
 71
     0
 10
0.0
 20
0.0
 30
0.0
  3
block 2
  1

  0
POLYLINE
  5
40
330
3C
100
AcDbEntity
  8
Ebene 1
370
     0
100
AcDb2dPolyline
 66
     1
 10
0.0
 20
0.0
 30
0.0
  0
VERTEX
  5
41
330
40
100
AcDbEntity
  8
Ebene 1
370
     0
100
AcDbVertex
100
AcDb2dVertex
 10
281.80859375
 20
869.337890625
 30
0.0
  0
VERTEX
  5
42
330
40
100
AcDbEntity
  8
Ebene 1
370
     0
100
AcDbVertex
100
AcDb2dVertex
 10
281.80859375
 20
754.5
 30
0.0
  0
SEQEND
  5
43
330
40
100
AcDbEntity
  8
Ebene 1
370
     0
  0
POLYLINE
  5
44
330
3C
100
AcDbEntity
  8
Ebene 1
370
     0
100
AcDb2dPolyline
 66
     1
 10
0.0
 20
0.0
 30
0.0
  0
VERTEX
  5
45
330
44
100
AcDbEntity
  8
Ebene 1
370
     0
100
AcDbVertex
100
AcDb2dVertex
 10
281.80859375
 20
869.337890625
 30
0.0
  0
VERTEX
  5
46
330
44
100
AcDbEntity
  8
Ebene 1
370
     0
100
AcDbVertex
100
AcDb2dVertex
 10
287.36767578125
 20
869.337890625
 30
0.0
  0
SEQEND
  5
47
330
44
100
AcDbEntity
  8
Ebene 1
370
     0
  0
POLYLINE
  5
48
330
3C
100
AcDbEntity
  8
Ebene 1
370
     0
100
AcDb2dPolyline
 66
     1
 10
0.0
 20
0.0
 30
0.0
  0
VERTEX
  5
49
330
48
100
AcDbEntity
  8
Ebene 1
370
     0
100
AcDbVertex
100
AcDb2dVertex
 10
287.36767578125
 20
869.337890625
 30
0.0
  0
VERTEX
  5
4A
330
48
100
AcDbEntity
  8
Ebene 1
370
     0
100
AcDbVertex
100
AcDb2dVertex
 10
294.55859375
 20
869.337890625
 30
0.0
  0
SEQEND
  5
4B
330
48
100
AcDbEntity
  8
Ebene 1
370
     0
  0
POLYLINE
  5
4C
330
3C
100
AcDbEntity
  8
Ebene 1
370
     0
100
AcDb2dPolyline
 66
     1
 10
0.0
 20
0.0
 30
0.0
  0
VERTEX
  5
4D
330
4C
100
AcDbEntity
  8
Ebene 1
370
     0
100
AcDbVertex
100
AcDb2dVertex
 10
294.55859375
 20
869.337890625
 30
0.0
  0
VERTEX
  5
4E
330
4C
100
AcDbEntity
  8
Ebene 1
370
     0
100
AcDbVertex
100
AcDb2dVertex
 10
402.162109375
 20
869.337890625
 30
0.0
  0
SEQEND
  5
4F
330
4C
100
AcDbEntity
  8
Ebene 1
370
     0
  0
POLYLINE
  5
50
330
3C
100
AcDbEntity
  8
Ebene 1
370
     0
100
AcDb2dPolyline
 66
     1
 10
0.0
 20
0.0
 30
0.0
  0
VERTEX
  5
51
330
50
100
AcDbEntity
  8
Ebene 1
370
     0
100
AcDbVertex
100
AcDb2dVertex
 10
281.80859375
 20
754.5
 30
0.0
  0
VERTEX
  5
52
330
50
100
AcDbEntity
  8
Ebene 1
370
     0
100
AcDbVertex
100
AcDb2dVertex
 10
402.162109375
 20
754.5
 30
0.0
  0
SEQEND
  5
53
330
50
100
AcDbEntity
  8
Ebene 1
370
     0
  0
POLYLINE
  5
54
330
3C
100
AcDbEntity
  8
Ebene 1
370
     0
100
AcDb2dPolyline
 66
     1
 10
0.0
 20
0.0
 30
0.0
  0
VERTEX
  5
55
330
54
100
AcDbEntity
  8
Ebene 1
370
     0
100
AcDbVertex
100
AcDb2dVertex
 10
391.087890625
 20
869.337890625
 30
0.0
  0
VERTEX
  5
56
330
54
100
AcDbEntity
  8
Ebene 1
370
     0
100
AcDbVertex
100
AcDb2dVertex
 10
391.087890625
 20
754.5
 30
0.0
  0
SEQEND
  5
57
330
54
100
AcDbEntity
  8
Ebene 1
370
     0
  0
POLYLINE
  5
58
330
3C
100
AcDbEntity
  8
Ebene 1
370
     0
100
AcDb2dPolyline
 66
     1
 10
0.0
 20
0.0
 30
0.0
  0
VERTEX
  5
59
330
58
100
AcDbEntity
  8
Ebene 1
370
     0
100
AcDbVertex
100
AcDb2dVertex
 10
402.162109375
 20
869.337890625
 30
0.0
  0
VERTEX
  5
5A
330
58
100
AcDbEntity
  8
Ebene 1
370
     0
100
AcDbVertex
100
AcDb2dVertex
 10
402.162109375
 20
754.5
 30
0.0
  0
SEQEND
  5
5B
330
58
100
AcDbEntity
  8
Ebene 1
370
     0
  0
POLYLINE
  5
5C
330
3C
100
AcDbEntity
  8
Ebene 1
370
     0
100
AcDb2dPolyline
 66
     1
 10
0.0
 20
0.0
 30
0.0
  0
VERTEX
  5
5D
330
5C
100
AcDbEntity
  8
Ebene 1
370
     0
100
AcDbVertex
100
AcDb2dVertex
 10
292.88232421875
 20
869.337890625
 30
0.0
  0
VERTEX
  5
5E
330
5C
100
AcDbEntity
  8
Ebene 1
370
     0
100
AcDbVertex
100
AcDb2dVertex
 10
292.88232421875
 20
754.5
 30
0.0
  0
SEQEND
  5
5F
330
5C
100
AcDbEntity
  8
Ebene 1
370
     0
  0
POLYLINE
  5
60
330
3C
100
AcDbEntity
  8
Ebene 1
370
     0
100
AcDb2dPolyline
 66
     1
 10
0.0
 20
0.0
 30
0.0
  0
VERTEX
  5
61
330
60
100
AcDbEntity
  8
Ebene 1
370
     0
100
AcDbVertex
100
AcDb2dVertex
 10
303.9560546875
 20
783.529296875
 30
0.0
  0
VERTEX
  5
62
330
60
100
AcDbEntity
  8
Ebene 1
370
     0
100
AcDbVertex
100
AcDb2dVertex
 10
303.9560546875
 20
869.337890625
 30
0.0
  0
SEQEND
  5
63
330
60
100
AcDbEntity
  8
Ebene 1
370
     0
  0
POLYLINE
  5
64
330
3C
100
AcDbEntity
  8
Ebene 1
370
     0
100
AcDb2dPolyline
 66
     1
 10
0.0
 20
0.0
 30
0.0
  0
VERTEX
  5
65
330
64
100
AcDbEntity
  8
Ebene 1
370
     0
100
AcDbVertex
100
AcDb2dVertex
 10
303.9560546875
 20
783.529296875
 30
0.0
  0
VERTEX
  5
66
330
64
100
AcDbEntity
  8
Ebene 1
370
     0
100
AcDbVertex
100
AcDb2dVertex
 10
304.0
 20
782.5146484375
 30
0.0
  0
VERTEX
  5
67
330
64
100
AcDbEntity
  8
Ebene 1
370
     0
100
AcDbVertex
100
AcDb2dVertex
 10
304.17626953125
 20
781.5439453125
 30
0.0
  0
VERTEX
  5
68
330
64
100
AcDbEntity
  8
Ebene 1
370
     0
100
AcDbVertex
100
AcDb2dVertex
 10
304.4853515625
 20
780.5732421875
 30
0.0
  0
VERTEX
  5
69
330
64
100
AcDbEntity
  8
Ebene 1
370
     0
100
AcDbVertex
100
AcDb2dVertex
 10
304.92626953125
 20
779.69140625
 30
0.0
  0
VERTEX
  5
6A
330
64
100
AcDbEntity
  8
Ebene 1
370
     0
100
AcDbVertex
100
AcDb2dVertex
 10
305.41162109375
 20
778.80859375
 30
0.0
  0
VERTEX
  5
6B
330
64
100
AcDbEntity
  8
Ebene 1
370
     0
100
AcDbVertex
100
AcDb2dVertex
 10
306.029296875
 20
778.0146484375
 30
0.0
  0
VERTEX
  5
6C
330
64
100
AcDbEntity
  8
Ebene 1
370
     0
100
AcDbVertex
100
AcDb2dVertex
 10
306.7353515625
 20
777.30859375
 30
0.0
  0
VERTEX
  5
6D
330
64
100
AcDbEntity
  8
Ebene 1
370
     0
100
AcDbVertex
100
AcDb2dVertex
 10
307.529296875
 20
776.69140625
 30
0.0
  0
VERTEX
  5
6E
330
64
100
AcDbEntity
  8
Ebene 1
370
     0
100
AcDbVertex
100
AcDb2dVertex
 10
308.412109375
 20
776.2060546875
 30
0.0
  0
VERTEX
  5
6F
330
64
100
AcDbEntity
  8
Ebene 1
370
     0
100
AcDbVertex
100
AcDb2dVertex
 10
309.2939453125
 20
775.7646484375
 30
0.0
  0
VERTEX
  5
70
330
64
100
AcDbEntity
  8
Ebene 1
370
     0
100
AcDbVertex
100
AcDb2dVertex
 10
310.2646484375
 20
775.4560546875
 30
0.0
  0
VERTEX
  5
71
330
64
100
AcDbEntity
  8
Ebene 1
370
     0
100
AcDbVertex
100
AcDb2dVertex
 10
311.2353515625
 20
775.279296875
 30
0.0
  0
VERTEX
  5
72
330
64
100
AcDbEntity
  8
Ebene 1
370
     0
100
AcDbVertex
100
AcDb2dVertex
 10
312.25
 20
775.2353515625
 30
0.0
  0
SEQEND
  5
73
330
64
100
AcDbEntity
  8
Ebene 1
370
     0
  0
POLYLINE
  5
74
330
3C
100
AcDbEntity
  8
Ebene 1
370
     0
100
AcDb2dPolyline
 66
     1
 10
0.0
 20
0.0
 30
0.0
  0
VERTEX
  5
75
330
74
100
AcDbEntity
  8
Ebene 1
370
     0
100
AcDbVertex
100
AcDb2dVertex
 10
-161.0
 20
-199.1025390625
 30
0.0
  0
VERTEX
  5
76
330
74
100
AcDbEntity
  8
Ebene 1
370
     0
100
AcDbVertex
100
AcDb2dVertex
 10
-161.0
 20
-199.1025390625
 30
0.0
  0
SEQEND
  5
77
330
74
100
AcDbEntity
  8
Ebene 1
370
     0
  0
POLYLINE
  5
78
330
3C
100
AcDbEntity
  8
Ebene 1
370
     0
100
AcDb2dPolyline
 66
     1
 10
0.0
 20
0.0
 30
0.0
  0
VERTEX
  5
79
330
78
100
AcDbEntity
  8
Ebene 1
370
     0
100
AcDbVertex
100
AcDb2dVertex
 10
-161.0
 20
-199.1025390625
 30
0.0
  0
VERTEX
  5
7A
330
78
100
AcDbEntity
  8
Ebene 1
370
     0
100
AcDbVertex
100
AcDb2dVertex
 10
-161.0
 20
-199.1025390625
 30
0.0
  0
SEQEND
  5
7B
330
78
100
AcDbEntity
  8
Ebene 1
370
     0
  0
POLYLINE
  5
7C
330
3C
100
AcDbEntity
  8
Ebene 1
370
     0
100
AcDb2dPolyline
 66
     1
 10
0.0
 20
0.0
 30
0.0
  0
VERTEX
  5
7D
330
7C
100
AcDbEntity
  8
Ebene 1
370
     0
100
AcDbVertex
100
AcDb2dVertex
 10
320.5439453125
 20
783.529296875
 30
0.0
  0
VERTEX
  5
7E
330
7C
100
AcDbEntity
  8
Ebene 1
370
     0
100
AcDbVertex
100
AcDb2dVertex
 10
320.5439453125
 20
869.337890625
 30
0.0
  0
SEQEND
  5
7F
330
7C
100
AcDbEntity
  8
Ebene 1
370
     0
  0
POLYLINE
  5
80
330
3C
100
AcDbEntity
  8
Ebene 1
370
     0
100
AcDb2dPolyline
 66
     1
 10
0.0
 20
0.0
 30
0.0
  0
VERTEX
  5
81
330
80
100
AcDbEntity
  8
Ebene 1
370
     0
100
AcDbVertex
100
AcDb2dVertex
 10
341.279296875
 20
754.5
 30
0.0
  0
VERTEX
  5
82
330
80
100
AcDbEntity
  8
Ebene 1
370
     0
100
AcDbVertex
100
AcDb2dVertex
 10
341.279296875
 20
869.337890625
 30
0.0
  0
SEQEND
  5
83
330
80
100
AcDbEntity
  8
Ebene 1
370
     0
  0
POLYLINE
  5
84
330
3C
100
AcDbEntity
  8
Ebene 1
370
     0
100
AcDb2dPolyline
 66
     1
 10
0.0
 20
0.0
 30
0.0
  0
VERTEX
  5
85
330
84
100
AcDbEntity
  8
Ebene 1
370
     0
100
AcDbVertex
100
AcDb2dVertex
 10
312.25
 20
775.2353515625
 30
0.0
  0
VERTEX
  5
86
330
84
100
AcDbEntity
  8
Ebene 1
370
     0
100
AcDbVertex
100
AcDb2dVertex
 10
313.2646484375
 20
775.279296875
 30
0.0
  0
VERTEX
  5
87
330
84
100
AcDbEntity
  8
Ebene 1
370
     0
100
AcDbVertex
100
AcDb2dVertex
 10
314.2353515625
 20
775.4560546875
 30
0.0
  0
VERTEX
  5
88
330
84
100
AcDbEntity
  8
Ebene 1
370
     0
100
AcDbVertex
100
AcDb2dVertex
 10
315.2060546875
 20
775.7646484375
 30
0.0
  0
VERTEX
  5
89
330
84
100
AcDbEntity
  8
Ebene 1
370
     0
100
AcDbVertex
100
AcDb2dVertex
 10
316.087890625
 20
776.2060546875
 30
0.0
  0
VERTEX
  5
8A
330
84
100
AcDbEntity
  8
Ebene 1
370
     0
100
AcDbVertex
100
AcDb2dVertex
 10
316.970703125
 20
776.69140625
 30
0.0
  0
VERTEX
  5
8B
330
84
100
AcDbEntity
  8
Ebene 1
370
     0
100
AcDbVertex
100
AcDb2dVertex
 10
317.7646484375
 20
777.30859375
 30
0.0
  0
VERTEX
  5
8C
330
84
100
AcDbEntity
  8
Ebene 1
370
     0
100
AcDbVertex
100
AcDb2dVertex
 10
318.470703125
 20
778.0146484375
 30
0.0
  0
VERTEX
  5
8D
330
84
100
AcDbEntity
  8
Ebene 1
370
     0
100
AcDbVertex
100
AcDb2dVertex
 10
319.087890625
 20
778.80859375
 30
0.0
  0
VERTEX
  5
8E
330
84
100
AcDbEntity
  8
Ebene 1
370
     0
100
AcDbVertex
100
AcDb2dVertex
 10
319.57421875
 20
779.69140625
 30
0.0
  0
VERTEX
  5
8F
330
84
100
AcDbEntity
  8
Ebene 1
370
     0
100
AcDbVertex
100
AcDb2dVertex
 10
320.0146484375
 20
780.5732421875
 30
0.0
  0
VERTEX
  5
90
330
84
100
AcDbEntity
  8
Ebene 1
370
     0
100
AcDbVertex
100
AcDb2dVertex
 10
320.32421875
 20
781.5439453125
 30
0.0
  0
VERTEX
  5
91
330
84
100
AcDbEntity
  8
Ebene 1
370
     0
100
AcDbVertex
100
AcDb2dVertex
 10
320.5
 20
782.5146484375
 30
0.0
  0
VERTEX
  5
92
330
84
100
AcDbEntity
  8
Ebene 1
370
     0
100
AcDbVertex
100
AcDb2dVertex
 10
320.5439453125
 20
783.529296875
 30
0.0
  0
SEQEND
  5
93
330
84
100
AcDbEntity
  8
Ebene 1
370
     0
  0
POLYLINE
  5
94
330
3C
100
AcDbEntity
  8
Ebene 1
370
     0
100
AcDb2dPolyline
 66
     1
 10
0.0
 20
0.0
 30
0.0
  0
VERTEX
  5
95
330
94
100
AcDbEntity
  8
Ebene 1
370
     0
100
AcDbVertex
100
AcDb2dVertex
 10
469.92578125
 20
881.4267578125
 30
0.0
  0
VERTEX
  5
96
330
94
100
AcDbEntity
  8
Ebene 1
370
     0
100
AcDbVertex
100
AcDb2dVertex
 10
584.720703125
 20
881.4267578125
 30
0.0
  0
SEQEND
  5
97
330
94
100
AcDbEntity
  8
Ebene 1
370
     0
  0
POLYLINE
  5
98
330
3C
100
AcDbEntity
  8
Ebene 1
370
     0
100
AcDb2dPolyline
 66
     1
 10
0.0
 20
0.0
 30
0.0
  0
VERTEX
  5
99
330
98
100
AcDbEntity
  8
Ebene 1
370
     0
100
AcDbVertex
100
AcDb2dVertex
 10
469.92578125
 20
925.720703125
 30
0.0
  0
VERTEX
  5
9A
330
98
100
AcDbEntity
  8
Ebene 1
370
     0
100
AcDbVertex
100
AcDb2dVertex
 10
584.720703125
 20
925.720703125
 30
0.0
  0
SEQEND
  5
9B
330
98
100
AcDbEntity
  8
Ebene 1
370
     0
  0
POLYLINE
  5
9C
330
3C
100
AcDbEntity
  8
Ebene 1
370
     0
100
AcDb2dPolyline
 66
     1
 10
0.0
 20
0.0
 30
0.0
  0
VERTEX
  5
9D
330
9C
100
AcDbEntity
  8
Ebene 1
370
     0
100
AcDbVertex
100
AcDb2dVertex
 10
469.92578125
 20
931.2353515625
 30
0.0
  0
VERTEX
  5
9E
330
9C
100
AcDbEntity
  8
Ebene 1
370
     0
100
AcDbVertex
100
AcDb2dVertex
 10
584.720703125
 20
931.2353515625
 30
0.0
  0
SEQEND
  5
9F
330
9C
100
AcDbEntity
  8
Ebene 1
370
     0
  0
POLYLINE
  5
A0
330
3C
100
AcDbEntity
  8
Ebene 1
370
     0
100
AcDb2dPolyline
 66
     1
 10
0.0
 20
0.0
 30
0.0
  0
VERTEX
  5
A1
330
A0
100
AcDbEntity
  8
Ebene 1
370
     0
100
AcDbVertex
100
AcDb2dVertex
 10
469.92578125
 20
942.30859375
 30
0.0
  0
VERTEX
  5
A2
330
A0
100
AcDbEntity
  8
Ebene 1
370
     0
100
AcDbVertex
100
AcDb2dVertex
 10
584.720703125
 20
942.30859375
 30
0.0
  0
SEQEND
  5
A3
330
A0
100
AcDbEntity
  8
Ebene 1
370
     0
  0
POLYLINE
  5
A4
330
3C
100
AcDbEntity
  8
Ebene 1
370
     0
100
AcDb2dPolyline
 66
     1
 10
0.0
 20
0.0
 30
0.0
  0
VERTEX
  5
A5
330
A4
100
AcDbEntity
  8
Ebene 1
370
     0
100
AcDbVertex
100
AcDb2dVertex
 10
469.92578125
 20
961.0146484375
 30
0.0
  0
VERTEX
  5
A6
330
A4
100
AcDbEntity
  8
Ebene 1
370
     0
100
AcDbVertex
100
AcDb2dVertex
 10
584.720703125
 20
961.0146484375
 30
0.0
  0
SEQEND
  5
A7
330
A4
100
AcDbEntity
  8
Ebene 1
370
     0
  0
POLYLINE
  5
A8
330
3C
100
AcDbEntity
  8
Ebene 1
370
     0
100
AcDb2dPolyline
 66
     1
 10
0.0
 20
0.0
 30
0.0
  0
VERTEX
  5
A9
330
A8
100
AcDbEntity
  8
Ebene 1
370
     0
100
AcDbVertex
100
AcDb2dVertex
 10
469.92578125
 20
972.0439453125
 30
0.0
  0
VERTEX
  5
AA
330
A8
100
AcDbEntity
  8
Ebene 1
370
     0
100
AcDbVertex
100
AcDb2dVertex
 10
584.720703125
 20
972.0439453125
 30
0.0
  0
SEQEND
  5
AB
330
A8
100
AcDbEntity
  8
Ebene 1
370
     0
  0
POLYLINE
  5
AC
330
3C
100
AcDbEntity
  8
Ebene 1
370
     0
100
AcDb2dPolyline
 66
     1
 10
0.0
 20
0.0
 30
0.0
  0
VERTEX
  5
AD
330
AC
100
AcDbEntity
  8
Ebene 1
370
     0
100
AcDbVertex
100
AcDb2dVertex
 10
494.146484375
 20
895.279296875
 30
0.0
  0
VERTEX
  5
AE
330
AC
100
AcDbEntity
  8
Ebene 1
370
     0
100
AcDbVertex
100
AcDb2dVertex
 10
493.529296875
 20
895.279296875
 30
0.0
  0
SEQEND
  5
AF
330
AC
100
AcDbEntity
  8
Ebene 1
370
     0
  0
POLYLINE
  5
B0
330
3C
100
AcDbEntity
  8
Ebene 1
370
     0
100
AcDb2dPolyline
 66
     1
 10
0.0
 20
0.0
 30
0.0
  0
VERTEX
  5
B1
330
B0
100
AcDbEntity
  8
Ebene 1
370
     0
100
AcDbVertex
100
AcDb2dVertex
 10
493.353515625
 20
895.279296875
 30
0.0
  0
VERTEX
  5
B2
330
B0
100
AcDbEntity
  8
Ebene 1
370
     0
100
AcDbVertex
100
AcDb2dVertex
 10
493.17578125
 20
895.279296875
 30
0.0
  0
SEQEND
  5
B3
330
B0
100
AcDbEntity
  8
Ebene 1
370
     0
  0
POLYLINE
  5
B4
330
3C
100
AcDbEntity
  8
Ebene 1
370
     0
100
AcDb2dPolyline
 66
     1
 10
0.0
 20
0.0
 30
0.0
  0
VERTEX
  5
B5
330
B4
100
AcDbEntity
  8
Ebene 1
370
     0
100
AcDbVertex
100
AcDb2dVertex
 10
493.0
 20
895.279296875
 30
0.0
  0
VERTEX
  5
B6
330
B4
100
AcDbEntity
  8
Ebene 1
370
     0
100
AcDbVertex
100
AcDb2dVertex
 10
491.9853515625
 20
895.279296875
 30
0.0
  0
SEQEND
  5
B7
330
B4
100
AcDbEntity
  8
Ebene 1
370
     0
  0
POLYLINE
  5
B8
330
3C
100
AcDbEntity
  8
Ebene 1
370
     0
100
AcDb2dPolyline
 66
     1
 10
0.0
 20
0.0
 30
0.0
  0
VERTEX
  5
B9
330
B8
100
AcDbEntity
  8
Ebene 1
370
     0
100
AcDbVertex
100
AcDb2dVertex
 10
491.80859375
 20
895.279296875
 30
0.0
  0
VERTEX
  5
BA
330
B8
100
AcDbEntity
  8
Ebene 1
370
     0
100
AcDbVertex
100
AcDb2dVertex
 10
491.6328125
 20
895.279296875
 30
0.0
  0
SEQEND
  5
BB
330
B8
100
AcDbEntity
  8
Ebene 1
370
     0
  0
POLYLINE
  5
BC
330
3C
100
AcDbEntity
  8
Ebene 1
370
     0
100
AcDb2dPolyline
 66
     1
 10
0.0
 20
0.0
 30
0.0
  0
VERTEX
  5
BD
330
BC
100
AcDbEntity
  8
Ebene 1
370
     0
100
AcDbVertex
100
AcDb2dVertex
 10
491.4560546875
 20
895.279296875
 30
0.0
  0
VERTEX
  5
BE
330
BC
100
AcDbEntity
  8
Ebene 1
370
     0
100
AcDbVertex
100
AcDb2dVertex
 10
490.396484375
 20
895.279296875
 30
0.0
  0
SEQEND
  5
BF
330
BC
100
AcDbEntity
  8
Ebene 1
370
     0
  0
POLYLINE
  5
C0
330
3C
100
AcDbEntity
  8
Ebene 1
370
     0
100
AcDb2dPolyline
 66
     1
 10
0.0
 20
0.0
 30
0.0
  0
VERTEX
  5
C1
330
C0
100
AcDbEntity
  8
Ebene 1
370
     0
100
AcDbVertex
100
AcDb2dVertex
 10
490.220703125
 20
895.279296875
 30
0.0
  0
VERTEX
  5
C2
330
C0
100
AcDbEntity
  8
Ebene 1
370
     0
100
AcDbVertex
100
AcDb2dVertex
 10
490.0439453125
 20
895.279296875
 30
0.0
  0
SEQEND
  5
C3
330
C0
100
AcDbEntity
  8
Ebene 1
370
     0
  0
POLYLINE
  5
C4
330
3C
100
AcDbEntity
  8
Ebene 1
370
     0
100
AcDb2dPolyline
 66
     1
 10
0.0
 20
0.0
 30
0.0
  0
VERTEX
  5
C5
330
C4
100
AcDbEntity
  8
Ebene 1
370
     0
100
AcDbVertex
100
AcDb2dVertex
 10
489.8671875
 20
895.279296875
 30
0.0
  0
VERTEX
  5
C6
330
C4
100
AcDbEntity
  8
Ebene 1
370
     0
100
AcDbVertex
100
AcDb2dVertex
 10
488.853515625
 20
895.279296875
 30
0.0
  0
SEQEND
  5
C7
330
C4
100
AcDbEntity
  8
Ebene 1
370
     0
  0
POLYLINE
  5
C8
330
3C
100
AcDbEntity
  8
Ebene 1
370
     0
100
AcDb2dPolyline
 66
     1
 10
0.0
 20
0.0
 30
0.0
  0
VERTEX
  5
C9
330
C8
100
AcDbEntity
  8
Ebene 1
370
     0
100
AcDbVertex
100
AcDb2dVertex
 10
488.67578125
 20
895.279296875
 30
0.0
  0
VERTEX
  5
CA
330
C8
100
AcDbEntity
  8
Ebene 1
370
     0
100
AcDbVertex
100
AcDb2dVertex
 10
488.5
 20
895.279296875
 30
0.0
  0
SEQEND
  5
CB
330
C8
100
AcDbEntity
  8
Ebene 1
370
     0
  0
POLYLINE
  5
CC
330
3C
100
AcDbEntity
  8
Ebene 1
370
     0
100
AcDb2dPolyline
 66
     1
 10
0.0
 20
0.0
 30
0.0
  0
VERTEX
  5
CD
330
CC
100
AcDbEntity
  8
Ebene 1
370
     0
100
AcDbVertex
100
AcDb2dVertex
 10
488.32421875
 20
895.279296875
 30
0.0
  0
VERTEX
  5
CE
330
CC
100
AcDbEntity
  8
Ebene 1
370
     0
100
AcDbVertex
100
AcDb2dVertex
 10
487.30859375
 20
895.279296875
 30
0.0
  0
SEQEND
  5
CF
330
CC
100
AcDbEntity
  8
Ebene 1
370
     0
  0
POLYLINE
  5
D0
330
3C
100
AcDbEntity
  8
Ebene 1
370
     0
100
AcDb2dPolyline
 66
     1
 10
0.0
 20
0.0
 30
0.0
  0
VERTEX
  5
D1
330
D0
100
AcDbEntity
  8
Ebene 1
370
     0
100
AcDbVertex
100
AcDb2dVertex
 10
487.1328125
 20
895.279296875
 30
0.0
  0
VERTEX
  5
D2
330
D0
100
AcDbEntity
  8
Ebene 1
370
     0
100
AcDbVertex
100
AcDb2dVertex
 10
486.9560546875
 20
895.279296875
 30
0.0
  0
SEQEND
  5
D3
330
D0
100
AcDbEntity
  8
Ebene 1
370
     0
  0
POLYLINE
  5
D4
330
3C
100
AcDbEntity
  8
Ebene 1
370
     0
100
AcDb2dPolyline
 66
     1
 10
0.0
 20
0.0
 30
0.0
  0
VERTEX
  5
D5
330
D4
100
AcDbEntity
  8
Ebene 1
370
     0
100
AcDbVertex
100
AcDb2dVertex
 10
486.779296875
 20
895.279296875
 30
0.0
  0
VERTEX
  5
D6
330
D4
100
AcDbEntity
  8
Ebene 1
370
     0
100
AcDbVertex
100
AcDb2dVertex
 10
485.720703125
 20
895.279296875
 30
0.0
  0
SEQEND
  5
D7
330
D4
100
AcDbEntity
  8
Ebene 1
370
     0
  0
POLYLINE
  5
D8
330
3C
100
AcDbEntity
  8
Ebene 1
370
     0
100
AcDb2dPolyline
 66
     1
 10
0.0
 20
0.0
 30
0.0
  0
VERTEX
  5
D9
330
D8
100
AcDbEntity
  8
Ebene 1
370
     0
100
AcDbVertex
100
AcDb2dVertex
 10
485.587890625
 20
895.279296875
 30
0.0
  0
VERTEX
  5
DA
330
D8
100
AcDbEntity
  8
Ebene 1
370
     0
100
AcDbVertex
100
AcDb2dVertex
 10
485.412109375
 20
895.279296875
 30
0.0
  0
SEQEND
  5
DB
330
D8
100
AcDbEntity
  8
Ebene 1
370
     0
  0
POLYLINE
  5
DC
330
3C
100
AcDbEntity
  8
Ebene 1
370
     0
100
AcDb2dPolyline
 66
     1
 10
0.0
 20
0.0
 30
0.0
  0
VERTEX
  5
DD
330
DC
100
AcDbEntity
  8
Ebene 1
370
     0
100
AcDbVertex
100
AcDb2dVertex
 10
485.2353515625
 20
895.279296875
 30
0.0
  0
VERTEX
  5
DE
330
DC
100
AcDbEntity
  8
Ebene 1
370
     0
100
AcDbVertex
100
AcDb2dVertex
 10
484.17578125
 20
895.279296875
 30
0.0
  0
SEQEND
  5
DF
330
DC
100
AcDbEntity
  8
Ebene 1
370
     0
  0
POLYLINE
  5
E0
330
3C
100
AcDbEntity
  8
Ebene 1
370
     0
100
AcDb2dPolyline
 66
     1
 10
0.0
 20
0.0
 30
0.0
  0
VERTEX
  5
E1
330
E0
100
AcDbEntity
  8
Ebene 1
370
     0
100
AcDbVertex
100
AcDb2dVertex
 10
484.0
 20
895.279296875
 30
0.0
  0
VERTEX
  5
E2
330
E0
100
AcDbEntity
  8
Ebene 1
370
     0
100
AcDbVertex
100
AcDb2dVertex
 10
483.82421875
 20
895.279296875
 30
0.0
  0
SEQEND
  5
E3
330
E0
100
AcDbEntity
  8
Ebene 1
370
     0
  0
POLYLINE
  5
E4
330
3C
100
AcDbEntity
  8
Ebene 1
370
     0
100
AcDb2dPolyline
 66
     1
 10
0.0
 20
0.0
 30
0.0
  0
VERTEX
  5
E5
330
E4
100
AcDbEntity
  8
Ebene 1
370
     0
100
AcDbVertex
100
AcDb2dVertex
 10
483.646484375
 20
895.279296875
 30
0.0
  0
VERTEX
  5
E6
330
E4
100
AcDbEntity
  8
Ebene 1
370
     0
100
AcDbVertex
100
AcDb2dVertex
 10
483.07421875
 20
895.279296875
 30
0.0
  0
SEQEND
  5
E7
330
E4
100
AcDbEntity
  8
Ebene 1
370
     0
  0
POLYLINE
  5
E8
330
3C
100
AcDbEntity
  8
Ebene 1
370
     0
100
AcDb2dPolyline
 66
     1
 10
0.0
 20
0.0
 30
0.0
  0
VERTEX
  5
E9
330
E8
100
AcDbEntity
  8
Ebene 1
370
     0
100
AcDbVertex
100
AcDb2dVertex
 10
488.6328125
 20
900.7939453125
 30
0.0
  0
VERTEX
  5
EA
330
E8
100
AcDbEntity
  8
Ebene 1
370
     0
100
AcDbVertex
100
AcDb2dVertex
 10
488.6328125
 20
900.1767578125
 30
0.0
  0
SEQEND
  5
EB
330
E8
100
AcDbEntity
  8
Ebene 1
370
     0
  0
POLYLINE
  5
EC
330
3C
100
AcDbEntity
  8
Ebene 1
370
     0
100
AcDb2dPolyline
 66
     1
 10
0.0
 20
0.0
 30
0.0
  0
VERTEX
  5
ED
330
EC
100
AcDbEntity
  8
Ebene 1
370
     0
100
AcDbVertex
100
AcDb2dVertex
 10
488.6328125
 20
900.0
 30
0.0
  0
VERTEX
  5
EE
330
EC
100
AcDbEntity
  8
Ebene 1
370
     0
100
AcDbVertex
100
AcDb2dVertex
 10
488.6328125
 20
899.8232421875
 30
0.0
  0
SEQEND
  5
EF
330
EC
100
AcDbEntity
  8
Ebene 1
370
     0
  0
POLYLINE
  5
F0
330
3C
100
AcDbEntity
  8
Ebene 1
370
     0
100
AcDb2dPolyline
 66
     1
 10
0.0
 20
0.0
 30
0.0
  0
VERTEX
  5
F1
330
F0
100
AcDbEntity
  8
Ebene 1
370
     0
100
AcDbVertex
100
AcDb2dVertex
 10
488.6328125
 20
899.6474609375
 30
0.0
  0
VERTEX
  5
F2
330
F0
100
AcDbEntity
  8
Ebene 1
370
     0
100
AcDbVertex
100
AcDb2dVertex
 10
488.6328125
 20
898.6328125
 30
0.0
  0
SEQEND
  5
F3
330
F0
100
AcDbEntity
  8
Ebene 1
370
     0
  0
POLYLINE
  5
F4
330
3C
100
AcDbEntity
  8
Ebene 1
370
     0
100
AcDb2dPolyline
 66
     1
 10
0.0
 20
0.0
 30
0.0
  0
VERTEX
  5
F5
330
F4
100
AcDbEntity
  8
Ebene 1
370
     0
100
AcDbVertex
100
AcDb2dVertex
 10
488.6328125
 20
898.4560546875
 30
0.0
  0
VERTEX
  5
F6
330
F4
100
AcDbEntity
  8
Ebene 1
370
     0
100
AcDbVertex
100
AcDb2dVertex
 10
488.6328125
 20
898.279296875
 30
0.0
  0
SEQEND
  5
F7
330
F4
100
AcDbEntity
  8
Ebene 1
370
     0
  0
POLYLINE
  5
F8
330
3C
100
AcDbEntity
  8
Ebene 1
370
     0
100
AcDb2dPolyline
 66
     1
 10
0.0
 20
0.0
 30
0.0
  0
VERTEX
  5
F9
330
F8
100
AcDbEntity
  8
Ebene 1
370
     0
100
AcDbVertex
100
AcDb2dVertex
 10
488.6328125
 20
898.1025390625
 30
0.0
  0
VERTEX
  5
FA
330
F8
100
AcDbEntity
  8
Ebene 1
370
     0
100
AcDbVertex
100
AcDb2dVertex
 10
488.6328125
 20
897.0439453125
 30
0.0
  0
SEQEND
  5
FB
330
F8
100
AcDbEntity
  8
Ebene 1
370
     0
  0
POLYLINE
  5
FC
330
3C
100
AcDbEntity
  8
Ebene 1
370
     0
100
AcDb2dPolyline
 66
     1
 10
0.0
 20
0.0
 30
0.0
  0
VERTEX
  5
FD
330
FC
100
AcDbEntity
  8
Ebene 1
370
     0
100
AcDbVertex
100
AcDb2dVertex
 10
488.6328125
 20
896.8671875
 30
0.0
  0
VERTEX
  5
FE
330
FC
100
AcDbEntity
  8
Ebene 1
370
     0
100
AcDbVertex
100
AcDb2dVertex
 10
488.6328125
 20
896.69140625
 30
0.0
  0
SEQEND
  5
FF
330
FC
100
AcDbEntity
  8
Ebene 1
370
     0
  0
POLYLINE
  5
100
330
3C
100
AcDbEntity
  8
Ebene 1
370
     0
100
AcDb2dPolyline
 66
     1
 10
0.0
 20
0.0
 30
0.0
  0
VERTEX
  5
101
330
100
100
AcDbEntity
  8
Ebene 1
370
     0
100
AcDbVertex
100
AcDb2dVertex
 10
488.6328125
 20
896.5146484375
 30
0.0
  0
VERTEX
  5
102
330
100
100
AcDbEntity
  8
Ebene 1
370
     0
100
AcDbVertex
100
AcDb2dVertex
 10
488.6328125
 20
895.5
 30
0.0
  0
SEQEND
  5
103
330
100
100
AcDbEntity
  8
Ebene 1
370
     0
  0
POLYLINE
  5
104
330
3C
100
AcDbEntity
  8
Ebene 1
370
     0
100
AcDb2dPolyline
 66
     1
 10
0.0
 20
0.0
 30
0.0
  0
VERTEX
  5
105
330
104
100
AcDbEntity
  8
Ebene 1
370
     0
100
AcDbVertex
100
AcDb2dVertex
 10
488.6328125
 20
895.3232421875
 30
0.0
  0
VERTEX
  5
106
330
104
100
AcDbEntity
  8
Ebene 1
370
     0
100
AcDbVertex
100
AcDb2dVertex
 10
488.6328125
 20
895.1474609375
 30
0.0
  0
SEQEND
  5
107
330
104
100
AcDbEntity
  8
Ebene 1
370
     0
  0
POLYLINE
  5
108
330
3C
100
AcDbEntity
  8
Ebene 1
370
     0
100
AcDb2dPolyline
 66
     1
 10
0.0
 20
0.0
 30
0.0
  0
VERTEX
  5
109
330
108
100
AcDbEntity
  8
Ebene 1
370
     0
100
AcDbVertex
100
AcDb2dVertex
 10
488.6328125
 20
894.970703125
 30
0.0
  0
VERTEX
  5
10A
330
108
100
AcDbEntity
  8
Ebene 1
370
     0
100
AcDbVertex
100
AcDb2dVertex
 10
488.6328125
 20
893.9560546875
 30
0.0
  0
SEQEND
  5
10B
330
108
100
AcDbEntity
  8
Ebene 1
370
     0
  0
POLYLINE
  5
10C
330
3C
100
AcDbEntity
  8
Ebene 1
370
     0
100
AcDb2dPolyline
 66
     1
 10
0.0
 20
0.0
 30
0.0
  0
VERTEX
  5
10D
330
10C
100
AcDbEntity
  8
Ebene 1
370
     0
100
AcDbVertex
100
AcDb2dVertex
 10
488.6328125
 20
893.779296875
 30
0.0
  0
VERTEX
  5
10E
330
10C
100
AcDbEntity
  8
Ebene 1
370
     0
100
AcDbVertex
100
AcDb2dVertex
 10
488.6328125
 20
893.6025390625
 30
0.0
  0
SEQEND
  5
10F
330
10C
100
AcDbEntity
  8
Ebene 1
370
     0
  0
POLYLINE
  5
110
330
3C
100
AcDbEntity
  8
Ebene 1
370
     0
100
AcDb2dPolyline
 66
     1
 10
0.0
 20
0.0
 30
0.0
  0
VERTEX
  5
111
330
110
100
AcDbEntity
  8
Ebene 1
370
     0
100
AcDbVertex
100
AcDb2dVertex
 10
488.6328125
 20
893.4267578125
 30
0.0
  0
VERTEX
  5
112
330
110
100
AcDbEntity
  8
Ebene 1
370
     0
100
AcDbVertex
100
AcDb2dVertex
 10
488.6328125
 20
892.3671875
 30
0.0
  0
SEQEND
  5
113
330
110
100
AcDbEntity
  8
Ebene 1
370
     0
  0
POLYLINE
  5
114
330
3C
100
AcDbEntity
  8
Ebene 1
370
     0
100
AcDb2dPolyline
 66
     1
 10
0.0
 20
0.0
 30
0.0
  0
VERTEX
  5
115
330
114
100
AcDbEntity
  8
Ebene 1
370
     0
100
AcDbVertex
100
AcDb2dVertex
 10
488.6328125
 20
892.2353515625
 30
0.0
  0
VERTEX
  5
116
330
114
100
AcDbEntity
  8
Ebene 1
370
     0
100
AcDbVertex
100
AcDb2dVertex
 10
488.6328125
 20
892.05859375
 30
0.0
  0
SEQEND
  5
117
330
114
100
AcDbEntity
  8
Ebene 1
370
     0
  0
POLYLINE
  5
118
330
3C
100
AcDbEntity
  8
Ebene 1
370
     0
100
AcDb2dPolyline
 66
     1
 10
0.0
 20
0.0
 30
0.0
  0
VERTEX
  5
119
330
118
100
AcDbEntity
  8
Ebene 1
370
     0
100
AcDbVertex
100
AcDb2dVertex
 10
488.6328125
 20
891.8828125
 30
0.0
  0
VERTEX
  5
11A
330
118
100
AcDbEntity
  8
Ebene 1
370
     0
100
AcDbVertex
100
AcDb2dVertex
 10
488.6328125
 20
890.8232421875
 30
0.0
  0
SEQEND
  5
11B
330
118
100
AcDbEntity
  8
Ebene 1
370
     0
  0
POLYLINE
  5
11C
330
3C
100
AcDbEntity
  8
Ebene 1
370
     0
100
AcDb2dPolyline
 66
     1
 10
0.0
 20
0.0
 30
0.0
  0
VERTEX
  5
11D
330
11C
100
AcDbEntity
  8
Ebene 1
370
     0
100
AcDbVertex
100
AcDb2dVertex
 10
488.6328125
 20
890.6474609375
 30
0.0
  0
VERTEX
  5
11E
330
11C
100
AcDbEntity
  8
Ebene 1
370
     0
100
AcDbVertex
100
AcDb2dVertex
 10
488.6328125
 20
890.470703125
 30
0.0
  0
SEQEND
  5
11F
330
11C
100
AcDbEntity
  8
Ebene 1
370
     0
  0
POLYLINE
  5
120
330
3C
100
AcDbEntity
  8
Ebene 1
370
     0
100
AcDb2dPolyline
 66
     1
 10
0.0
 20
0.0
 30
0.0
  0
VERTEX
  5
121
330
120
100
AcDbEntity
  8
Ebene 1
370
     0
100
AcDbVertex
100
AcDb2dVertex
 10
488.6328125
 20
890.2939453125
 30
0.0
  0
VERTEX
  5
122
330
120
100
AcDbEntity
  8
Ebene 1
370
     0
100
AcDbVertex
100
AcDb2dVertex
 10
488.6328125
 20
889.6767578125
 30
0.0
  0
SEQEND
  5
123
330
120
100
AcDbEntity
  8
Ebene 1
370
     0
  0
POLYLINE
  5
124
330
3C
100
AcDbEntity
  8
Ebene 1
370
     0
100
AcDb2dPolyline
 66
     1
 10
0.0
 20
0.0
 30
0.0
  0
VERTEX
  5
125
330
124
100
AcDbEntity
  8
Ebene 1
370
     0
100
AcDbVertex
100
AcDb2dVertex
 10
492.42578125
 20
895.279296875
 30
0.0
  0
VERTEX
  5
126
330
124
100
AcDbEntity
  8
Ebene 1
370
     0
100
AcDbVertex
100
AcDb2dVertex
 10
492.3828125
 20
895.94140625
 30
0.0
  0
VERTEX
  5
127
330
124
100
AcDbEntity
  8
Ebene 1
370
     0
100
AcDbVertex
100
AcDb2dVertex
 10
492.2060546875
 20
896.55859375
 30
0.0
  0
VERTEX
  5
128
330
124
100
AcDbEntity
  8
Ebene 1
370
     0
100
AcDbVertex
100
AcDb2dVertex
 10
491.94140625
 20
897.1328125
 30
0.0
  0
VERTEX
  5
129
330
124
100
AcDbEntity
  8
Ebene 1
370
     0
100
AcDbVertex
100
AcDb2dVertex
 10
491.587890625
 20
897.662109375
 30
0.0
  0
VERTEX
  5
12A
330
124
100
AcDbEntity
  8
Ebene 1
370
     0
100
AcDbVertex
100
AcDb2dVertex
 10
491.146484375
 20
898.1474609375
 30
0.0
  0
VERTEX
  5
12B
330
124
100
AcDbEntity
  8
Ebene 1
370
     0
100
AcDbVertex
100
AcDb2dVertex
 10
490.6171875
 20
898.5
 30
0.0
  0
VERTEX
  5
12C
330
124
100
AcDbEntity
  8
Ebene 1
370
     0
100
AcDbVertex
100
AcDb2dVertex
 10
490.0439453125
 20
898.80859375
 30
0.0
  0
VERTEX
  5
12D
330
124
100
AcDbEntity
  8
Ebene 1
370
     0
100
AcDbVertex
100
AcDb2dVertex
 10
489.42578125
 20
898.9853515625
 30
0.0
  0
VERTEX
  5
12E
330
124
100
AcDbEntity
  8
Ebene 1
370
     0
100
AcDbVertex
100
AcDb2dVertex
 10
488.80859375
 20
899.0732421875
 30
0.0
  0
VERTEX
  5
12F
330
124
100
AcDbEntity
  8
Ebene 1
370
     0
100
AcDbVertex
100
AcDb2dVertex
 10
488.146484375
 20
899.029296875
 30
0.0
  0
VERTEX
  5
130
330
124
100
AcDbEntity
  8
Ebene 1
370
     0
100
AcDbVertex
100
AcDb2dVertex
 10
487.529296875
 20
898.8974609375
 30
0.0
  0
VERTEX
  5
131
330
124
100
AcDbEntity
  8
Ebene 1
370
     0
100
AcDbVertex
100
AcDb2dVertex
 10
486.912109375
 20
898.6767578125
 30
0.0
  0
VERTEX
  5
132
330
124
100
AcDbEntity
  8
Ebene 1
370
     0
100
AcDbVertex
100
AcDb2dVertex
 10
486.3828125
 20
898.3232421875
 30
0.0
  0
VERTEX
  5
133
330
124
100
AcDbEntity
  8
Ebene 1
370
     0
100
AcDbVertex
100
AcDb2dVertex
 10
485.896484375
 20
897.9267578125
 30
0.0
  0
VERTEX
  5
134
330
124
100
AcDbEntity
  8
Ebene 1
370
     0
100
AcDbVertex
100
AcDb2dVertex
 10
485.5
 20
897.3974609375
 30
0.0
  0
VERTEX
  5
135
330
124
100
AcDbEntity
  8
Ebene 1
370
     0
100
AcDbVertex
100
AcDb2dVertex
 10
485.19140625
 20
896.8232421875
 30
0.0
  0
VERTEX
  5
136
330
124
100
AcDbEntity
  8
Ebene 1
370
     0
100
AcDbVertex
100
AcDb2dVertex
 10
484.970703125
 20
896.25
 30
0.0
  0
VERTEX
  5
137
330
124
100
AcDbEntity
  8
Ebene 1
370
     0
100
AcDbVertex
100
AcDb2dVertex
 10
484.837890625
 20
895.587890625
 30
0.0
  0
VERTEX
  5
138
330
124
100
AcDbEntity
  8
Ebene 1
370
     0
100
AcDbVertex
100
AcDb2dVertex
 10
484.837890625
 20
894.970703125
 30
0.0
  0
VERTEX
  5
139
330
124
100
AcDbEntity
  8
Ebene 1
370
     0
100
AcDbVertex
100
AcDb2dVertex
 10
484.970703125
 20
894.30859375
 30
0.0
  0
VERTEX
  5
13A
330
124
100
AcDbEntity
  8
Ebene 1
370
     0
100
AcDbVertex
100
AcDb2dVertex
 10
485.19140625
 20
893.7353515625
 30
0.0
  0
VERTEX
  5
13B
330
124
100
AcDbEntity
  8
Ebene 1
370
     0
100
AcDbVertex
100
AcDb2dVertex
 10
485.5
 20
893.162109375
 30
0.0
  0
VERTEX
  5
13C
330
124
100
AcDbEntity
  8
Ebene 1
370
     0
100
AcDbVertex
100
AcDb2dVertex
 10
485.896484375
 20
892.6328125
 30
0.0
  0
VERTEX
  5
13D
330
124
100
AcDbEntity
  8
Ebene 1
370
     0
100
AcDbVertex
100
AcDb2dVertex
 10
486.3828125
 20
892.2353515625
 30
0.0
  0
VERTEX
  5
13E
330
124
100
AcDbEntity
  8
Ebene 1
370
     0
100
AcDbVertex
100
AcDb2dVertex
 10
486.912109375
 20
891.8828125
 30
0.0
  0
VERTEX
  5
13F
330
124
100
AcDbEntity
  8
Ebene 1
370
     0
100
AcDbVertex
100
AcDb2dVertex
 10
487.529296875
 20
891.662109375
 30
0.0
  0
VERTEX
  5
140
330
124
100
AcDbEntity
  8
Ebene 1
370
     0
100
AcDbVertex
100
AcDb2dVertex
 10
488.146484375
 20
891.529296875
 30
0.0
  0
VERTEX
  5
141
330
124
100
AcDbEntity
  8
Ebene 1
370
     0
100
AcDbVertex
100
AcDb2dVertex
 10
488.80859375
 20
891.4853515625
 30
0.0
  0
VERTEX
  5
142
330
124
100
AcDbEntity
  8
Ebene 1
370
     0
100
AcDbVertex
100
AcDb2dVertex
 10
489.42578125
 20
891.5732421875
 30
0.0
  0
VERTEX
  5
143
330
124
100
AcDbEntity
  8
Ebene 1
370
     0
100
AcDbVertex
100
AcDb2dVertex
 10
490.0439453125
 20
891.75
 30
0.0
  0
VERTEX
  5
144
330
124
100
AcDbEntity
  8
Ebene 1
370
     0
100
AcDbVertex
100
AcDb2dVertex
 10
490.6171875
 20
892.05859375
 30
0.0
  0
VERTEX
  5
145
330
124
100
AcDbEntity
  8
Ebene 1
370
     0
100
AcDbVertex
100
AcDb2dVertex
 10
491.146484375
 20
892.412109375
 30
0.0
  0
VERTEX
  5
146
330
124
100
AcDbEntity
  8
Ebene 1
370
     0
100
AcDbVertex
100
AcDb2dVertex
 10
491.587890625
 20
892.8974609375
 30
0.0
  0
VERTEX
  5
147
330
124
100
AcDbEntity
  8
Ebene 1
370
     0
100
AcDbVertex
100
AcDb2dVertex
 10
491.94140625
 20
893.4267578125
 30
0.0
  0
VERTEX
  5
148
330
124
100
AcDbEntity
  8
Ebene 1
370
     0
100
AcDbVertex
100
AcDb2dVertex
 10
492.2060546875
 20
894.0
 30
0.0
  0
VERTEX
  5
149
330
124
100
AcDbEntity
  8
Ebene 1
370
     0
100
AcDbVertex
100
AcDb2dVertex
 10
492.3828125
 20
894.6171875
 30
0.0
  0
VERTEX
  5
14A
330
124
100
AcDbEntity
  8
Ebene 1
370
     0
100
AcDbVertex
100
AcDb2dVertex
 10
492.42578125
 20
895.279296875
 30
0.0
  0
VERTEX
  5
14B
330
124
100
AcDbEntity
  8
Ebene 1
370
     0
100
AcDbVertex
100
AcDb2dVertex
 10
492.42578125
 20
895.279296875
 30
0.0
  0
SEQEND
  5
14C
330
124
100
AcDbEntity
  8
Ebene 1
370
     0
  0
POLYLINE
  5
14D
330
3C
100
AcDbEntity
  8
Ebene 1
370
     0
100
AcDb2dPolyline
 66
     1
 10
0.0
 20
0.0
 30
0.0
  0
VERTEX
  5
14E
330
14D
100
AcDbEntity
  8
Ebene 1
370
     0
100
AcDbVertex
100
AcDb2dVertex
 10
503.146484375
 20
918.7939453125
 30
0.0
  0
VERTEX
  5
14F
330
14D
100
AcDbEntity
  8
Ebene 1
370
     0
100
AcDbVertex
100
AcDb2dVertex
 10
502.529296875
 20
918.7939453125
 30
0.0
  0
SEQEND
  5
150
330
14D
100
AcDbEntity
  8
Ebene 1
370
     0
  0
POLYLINE
  5
151
330
3C
100
AcDbEntity
  8
Ebene 1
370
     0
100
AcDb2dPolyline
 66
     1
 10
0.0
 20
0.0
 30
0.0
  0
VERTEX
  5
152
330
151
100
AcDbEntity
  8
Ebene 1
370
     0
100
AcDbVertex
100
AcDb2dVertex
 10
502.353515625
 20
918.7939453125
 30
0.0
  0
VERTEX
  5
153
330
151
100
AcDbEntity
  8
Ebene 1
370
     0
100
AcDbVertex
100
AcDb2dVertex
 10
502.17578125
 20
918.7939453125
 30
0.0
  0
SEQEND
  5
154
330
151
100
AcDbEntity
  8
Ebene 1
370
     0
  0
POLYLINE
  5
155
330
3C
100
AcDbEntity
  8
Ebene 1
370
     0
100
AcDb2dPolyline
 66
     1
 10
0.0
 20
0.0
 30
0.0
  0
VERTEX
  5
156
330
155
100
AcDbEntity
  8
Ebene 1
370
     0
100
AcDbVertex
100
AcDb2dVertex
 10
502.0
 20
918.7939453125
 30
0.0
  0
VERTEX
  5
157
330
155
100
AcDbEntity
  8
Ebene 1
370
     0
100
AcDbVertex
100
AcDb2dVertex
 10
500.9853515625
 20
918.7939453125
 30
0.0
  0
SEQEND
  5
158
330
155
100
AcDbEntity
  8
Ebene 1
370
     0
  0
POLYLINE
  5
159
330
3C
100
AcDbEntity
  8
Ebene 1
370
     0
100
AcDb2dPolyline
 66
     1
 10
0.0
 20
0.0
 30
0.0
  0
VERTEX
  5
15A
330
159
100
AcDbEntity
  8
Ebene 1
370
     0
100
AcDbVertex
100
AcDb2dVertex
 10
500.80859375
 20
918.7939453125
 30
0.0
  0
VERTEX
  5
15B
330
159
100
AcDbEntity
  8
Ebene 1
370
     0
100
AcDbVertex
100
AcDb2dVertex
 10
500.6328125
 20
918.7939453125
 30
0.0
  0
SEQEND
  5
15C
330
159
100
AcDbEntity
  8
Ebene 1
370
     0
  0
POLYLINE
  5
15D
330
3C
100
AcDbEntity
  8
Ebene 1
370
     0
100
AcDb2dPolyline
 66
     1
 10
0.0
 20
0.0
 30
0.0
  0
VERTEX
  5
15E
330
15D
100
AcDbEntity
  8
Ebene 1
370
     0
100
AcDbVertex
100
AcDb2dVertex
 10
500.4560546875
 20
918.7939453125
 30
0.0
  0
VERTEX
  5
15F
330
15D
100
AcDbEntity
  8
Ebene 1
370
     0
100
AcDbVertex
100
AcDb2dVertex
 10
499.396484375
 20
918.7939453125
 30
0.0
  0
SEQEND
  5
160
330
15D
100
AcDbEntity
  8
Ebene 1
370
     0
  0
POLYLINE
  5
161
330
3C
100
AcDbEntity
  8
Ebene 1
370
     0
100
AcDb2dPolyline
 66
     1
 10
0.0
 20
0.0
 30
0.0
  0
VERTEX
  5
162
330
161
100
AcDbEntity
  8
Ebene 1
370
     0
100
AcDbVertex
100
AcDb2dVertex
 10
499.220703125
 20
918.7939453125
 30
0.0
  0
VERTEX
  5
163
330
161
100
AcDbEntity
  8
Ebene 1
370
     0
100
AcDbVertex
100
AcDb2dVertex
 10
499.0439453125
 20
918.7939453125
 30
0.0
  0
SEQEND
  5
164
330
161
100
AcDbEntity
  8
Ebene 1
370
     0
  0
POLYLINE
  5
165
330
3C
100
AcDbEntity
  8
Ebene 1
370
     0
100
AcDb2dPolyline
 66
     1
 10
0.0
 20
0.0
 30
0.0
  0
VERTEX
  5
166
330
165
100
AcDbEntity
  8
Ebene 1
370
     0
100
AcDbVertex
100
AcDb2dVertex
 10
498.8671875
 20
918.7939453125
 30
0.0
  0
VERTEX
  5
167
330
165
100
AcDbEntity
  8
Ebene 1
370
     0
100
AcDbVertex
100
AcDb2dVertex
 10
497.853515625
 20
918.7939453125
 30
0.0
  0
SEQEND
  5
168
330
165
100
AcDbEntity
  8
Ebene 1
370
     0
  0
POLYLINE
  5
169
330
3C
100
AcDbEntity
  8
Ebene 1
370
     0
100
AcDb2dPolyline
 66
     1
 10
0.0
 20
0.0
 30
0.0
  0
VERTEX
  5
16A
330
169
100
AcDbEntity
  8
Ebene 1
370
     0
100
AcDbVertex
100
AcDb2dVertex
 10
497.67578125
 20
918.7939453125
 30
0.0
  0
VERTEX
  5
16B
330
169
100
AcDbEntity
  8
Ebene 1
370
     0
100
AcDbVertex
100
AcDb2dVertex
 10
497.5
 20
918.7939453125
 30
0.0
  0
SEQEND
  5
16C
330
169
100
AcDbEntity
  8
Ebene 1
370
     0
  0
POLYLINE
  5
16D
330
3C
100
AcDbEntity
  8
Ebene 1
370
     0
100
AcDb2dPolyline
 66
     1
 10
0.0
 20
0.0
 30
0.0
  0
VERTEX
  5
16E
330
16D
100
AcDbEntity
  8
Ebene 1
370
     0
100
AcDbVertex
100
AcDb2dVertex
 10
497.32421875
 20
918.7939453125
 30
0.0
  0
VERTEX
  5
16F
330
16D
100
AcDbEntity
  8
Ebene 1
370
     0
100
AcDbVertex
100
AcDb2dVertex
 10
496.30859375
 20
918.7939453125
 30
0.0
  0
SEQEND
  5
170
330
16D
100
AcDbEntity
  8
Ebene 1
370
     0
  0
POLYLINE
  5
171
330
3C
100
AcDbEntity
  8
Ebene 1
370
     0
100
AcDb2dPolyline
 66
     1
 10
0.0
 20
0.0
 30
0.0
  0
VERTEX
  5
172
330
171
100
AcDbEntity
  8
Ebene 1
370
     0
100
AcDbVertex
100
AcDb2dVertex
 10
496.1328125
 20
918.7939453125
 30
0.0
  0
VERTEX
  5
173
330
171
100
AcDbEntity
  8
Ebene 1
370
     0
100
AcDbVertex
100
AcDb2dVertex
 10
495.9560546875
 20
918.7939453125
 30
0.0
  0
SEQEND
  5
174
330
171
100
AcDbEntity
  8
Ebene 1
370
     0
  0
POLYLINE
  5
175
330
3C
100
AcDbEntity
  8
Ebene 1
370
     0
100
AcDb2dPolyline
 66
     1
 10
0.0
 20
0.0
 30
0.0
  0
VERTEX
  5
176
330
175
100
AcDbEntity
  8
Ebene 1
370
     0
100
AcDbVertex
100
AcDb2dVertex
 10
495.779296875
 20
918.7939453125
 30
0.0
  0
VERTEX
  5
177
330
175
100
AcDbEntity
  8
Ebene 1
370
     0
100
AcDbVertex
100
AcDb2dVertex
 10
494.720703125
 20
918.7939453125
 30
0.0
  0
SEQEND
  5
178
330
175
100
AcDbEntity
  8
Ebene 1
370
     0
  0
POLYLINE
  5
179
330
3C
100
AcDbEntity
  8
Ebene 1
370
     0
100
AcDb2dPolyline
 66
     1
 10
0.0
 20
0.0
 30
0.0
  0
VERTEX
  5
17A
330
179
100
AcDbEntity
  8
Ebene 1
370
     0
100
AcDbVertex
100
AcDb2dVertex
 10
494.587890625
 20
918.7939453125
 30
0.0
  0
VERTEX
  5
17B
330
179
100
AcDbEntity
  8
Ebene 1
370
     0
100
AcDbVertex
100
AcDb2dVertex
 10
494.412109375
 20
918.7939453125
 30
0.0
  0
SEQEND
  5
17C
330
179
100
AcDbEntity
  8
Ebene 1
370
     0
  0
POLYLINE
  5
17D
330
3C
100
AcDbEntity
  8
Ebene 1
370
     0
100
AcDb2dPolyline
 66
     1
 10
0.0
 20
0.0
 30
0.0
  0
VERTEX
  5
17E
330
17D
100
AcDbEntity
  8
Ebene 1
370
     0
100
AcDbVertex
100
AcDb2dVertex
 10
494.2353515625
 20
918.7939453125
 30
0.0
  0
VERTEX
  5
17F
330
17D
100
AcDbEntity
  8
Ebene 1
370
     0
100
AcDbVertex
100
AcDb2dVertex
 10
493.17578125
 20
918.7939453125
 30
0.0
  0
SEQEND
  5
180
330
17D
100
AcDbEntity
  8
Ebene 1
370
     0
  0
POLYLINE
  5
181
330
3C
100
AcDbEntity
  8
Ebene 1
370
     0
100
AcDb2dPolyline
 66
     1
 10
0.0
 20
0.0
 30
0.0
  0
VERTEX
  5
182
330
181
100
AcDbEntity
  8
Ebene 1
370
     0
100
AcDbVertex
100
AcDb2dVertex
 10
493.0
 20
918.7939453125
 30
0.0
  0
VERTEX
  5
183
330
181
100
AcDbEntity
  8
Ebene 1
370
     0
100
AcDbVertex
100
AcDb2dVertex
 10
492.82421875
 20
918.7939453125
 30
0.0
  0
SEQEND
  5
184
330
181
100
AcDbEntity
  8
Ebene 1
370
     0
  0
POLYLINE
  5
185
330
3C
100
AcDbEntity
  8
Ebene 1
370
     0
100
AcDb2dPolyline
 66
     1
 10
0.0
 20
0.0
 30
0.0
  0
VERTEX
  5
186
330
185
100
AcDbEntity
  8
Ebene 1
370
     0
100
AcDbVertex
100
AcDb2dVertex
 10
492.646484375
 20
918.7939453125
 30
0.0
  0
VERTEX
  5
187
330
185
100
AcDbEntity
  8
Ebene 1
370
     0
100
AcDbVertex
100
AcDb2dVertex
 10
492.07421875
 20
918.7939453125
 30
0.0
  0
SEQEND
  5
188
330
185
100
AcDbEntity
  8
Ebene 1
370
     0
  0
POLYLINE
  5
189
330
3C
100
AcDbEntity
  8
Ebene 1
370
     0
100
AcDb2dPolyline
 66
     1
 10
0.0
 20
0.0
 30
0.0
  0
VERTEX
  5
18A
330
189
100
AcDbEntity
  8
Ebene 1
370
     0
100
AcDbVertex
100
AcDb2dVertex
 10
497.587890625
 20
924.30859375
 30
0.0
  0
VERTEX
  5
18B
330
189
100
AcDbEntity
  8
Ebene 1
370
     0
100
AcDbVertex
100
AcDb2dVertex
 10
497.587890625
 20
923.69140625
 30
0.0
  0
SEQEND
  5
18C
330
189
100
AcDbEntity
  8
Ebene 1
370
     0
  0
POLYLINE
  5
18D
330
3C
100
AcDbEntity
  8
Ebene 1
370
     0
100
AcDb2dPolyline
 66
     1
 10
0.0
 20
0.0
 30
0.0
  0
VERTEX
  5
18E
330
18D
100
AcDbEntity
  8
Ebene 1
370
     0
100
AcDbVertex
100
AcDb2dVertex
 10
497.587890625
 20
923.5146484375
 30
0.0
  0
VERTEX
  5
18F
330
18D
100
AcDbEntity
  8
Ebene 1
370
     0
100
AcDbVertex
100
AcDb2dVertex
 10
497.587890625
 20
923.337890625
 30
0.0
  0
SEQEND
  5
190
330
18D
100
AcDbEntity
  8
Ebene 1
370
     0
  0
POLYLINE
  5
191
330
3C
100
AcDbEntity
  8
Ebene 1
370
     0
100
AcDb2dPolyline
 66
     1
 10
0.0
 20
0.0
 30
0.0
  0
VERTEX
  5
192
330
191
100
AcDbEntity
  8
Ebene 1
370
     0
100
AcDbVertex
100
AcDb2dVertex
 10
497.587890625
 20
923.162109375
 30
0.0
  0
VERTEX
  5
193
330
191
100
AcDbEntity
  8
Ebene 1
370
     0
100
AcDbVertex
100
AcDb2dVertex
 10
497.587890625
 20
922.1474609375
 30
0.0
  0
SEQEND
  5
194
330
191
100
AcDbEntity
  8
Ebene 1
370
     0
  0
POLYLINE
  5
195
330
3C
100
AcDbEntity
  8
Ebene 1
370
     0
100
AcDb2dPolyline
 66
     1
 10
0.0
 20
0.0
 30
0.0
  0
VERTEX
  5
196
330
195
100
AcDbEntity
  8
Ebene 1
370
     0
100
AcDbVertex
100
AcDb2dVertex
 10
497.587890625
 20
921.970703125
 30
0.0
  0
VERTEX
  5
197
330
195
100
AcDbEntity
  8
Ebene 1
370
     0
100
AcDbVertex
100
AcDb2dVertex
 10
497.587890625
 20
921.7939453125
 30
0.0
  0
SEQEND
  5
198
330
195
100
AcDbEntity
  8
Ebene 1
370
     0
  0
POLYLINE
  5
199
330
3C
100
AcDbEntity
  8
Ebene 1
370
     0
100
AcDb2dPolyline
 66
     1
 10
0.0
 20
0.0
 30
0.0
  0
VERTEX
  5
19A
330
199
100
AcDbEntity
  8
Ebene 1
370
     0
100
AcDbVertex
100
AcDb2dVertex
 10
497.587890625
 20
921.6171875
 30
0.0
  0
VERTEX
  5
19B
330
199
100
AcDbEntity
  8
Ebene 1
370
     0
100
AcDbVertex
100
AcDb2dVertex
 10
497.587890625
 20
920.55859375
 30
0.0
  0
SEQEND
  5
19C
330
199
100
AcDbEntity
  8
Ebene 1
370
     0
  0
POLYLINE
  5
19D
330
3C
100
AcDbEntity
  8
Ebene 1
370
     0
100
AcDb2dPolyline
 66
     1
 10
0.0
 20
0.0
 30
0.0
  0
VERTEX
  5
19E
330
19D
100
AcDbEntity
  8
Ebene 1
370
     0
100
AcDbVertex
100
AcDb2dVertex
 10
497.587890625
 20
920.3828125
 30
0.0
  0
VERTEX
  5
19F
330
19D
100
AcDbEntity
  8
Ebene 1
370
     0
100
AcDbVertex
100
AcDb2dVertex
 10
497.587890625
 20
920.2060546875
 30
0.0
  0
SEQEND
  5
1A0
330
19D
100
AcDbEntity
  8
Ebene 1
370
     0
  0
POLYLINE
  5
1A1
330
3C
100
AcDbEntity
  8
Ebene 1
370
     0
100
AcDb2dPolyline
 66
     1
 10
0.0
 20
0.0
 30
0.0
  0
VERTEX
  5
1A2
330
1A1
100
AcDbEntity
  8
Ebene 1
370
     0
100
AcDbVertex
100
AcDb2dVertex
 10
497.587890625
 20
920.029296875
 30
0.0
  0
VERTEX
  5
1A3
330
1A1
100
AcDbEntity
  8
Ebene 1
370
     0
100
AcDbVertex
100
AcDb2dVertex
 10
497.587890625
 20
919.0146484375
 30
0.0
  0
SEQEND
  5
1A4
330
1A1
100
AcDbEntity
  8
Ebene 1
370
     0
  0
POLYLINE
  5
1A5
330
3C
100
AcDbEntity
  8
Ebene 1
370
     0
100
AcDb2dPolyline
 66
     1
 10
0.0
 20
0.0
 30
0.0
  0
VERTEX
  5
1A6
330
1A5
100
AcDbEntity
  8
Ebene 1
370
     0
100
AcDbVertex
100
AcDb2dVertex
 10
497.587890625
 20
918.837890625
 30
0.0
  0
VERTEX
  5
1A7
330
1A5
100
AcDbEntity
  8
Ebene 1
370
     0
100
AcDbVertex
100
AcDb2dVertex
 10
497.587890625
 20
918.662109375
 30
0.0
  0
SEQEND
  5
1A8
330
1A5
100
AcDbEntity
  8
Ebene 1
370
     0
  0
POLYLINE
  5
1A9
330
3C
100
AcDbEntity
  8
Ebene 1
370
     0
100
AcDb2dPolyline
 66
     1
 10
0.0
 20
0.0
 30
0.0
  0
VERTEX
  5
1AA
330
1A9
100
AcDbEntity
  8
Ebene 1
370
     0
100
AcDbVertex
100
AcDb2dVertex
 10
497.587890625
 20
918.4853515625
 30
0.0
  0
VERTEX
  5
1AB
330
1A9
100
AcDbEntity
  8
Ebene 1
370
     0
100
AcDbVertex
100
AcDb2dVertex
 10
497.587890625
 20
917.470703125
 30
0.0
  0
SEQEND
  5
1AC
330
1A9
100
AcDbEntity
  8
Ebene 1
370
     0
  0
POLYLINE
  5
1AD
330
3C
100
AcDbEntity
  8
Ebene 1
370
     0
100
AcDb2dPolyline
 66
     1
 10
0.0
 20
0.0
 30
0.0
  0
VERTEX
  5
1AE
330
1AD
100
AcDbEntity
  8
Ebene 1
370
     0
100
AcDbVertex
100
AcDb2dVertex
 10
497.587890625
 20
917.2939453125
 30
0.0
  0
VERTEX
  5
1AF
330
1AD
100
AcDbEntity
  8
Ebene 1
370
     0
100
AcDbVertex
100
AcDb2dVertex
 10
497.587890625
 20
917.1171875
 30
0.0
  0
SEQEND
  5
1B0
330
1AD
100
AcDbEntity
  8
Ebene 1
370
     0
  0
POLYLINE
  5
1B1
330
3C
100
AcDbEntity
  8
Ebene 1
370
     0
100
AcDb2dPolyline
 66
     1
 10
0.0
 20
0.0
 30
0.0
  0
VERTEX
  5
1B2
330
1B1
100
AcDbEntity
  8
Ebene 1
370
     0
100
AcDbVertex
100
AcDb2dVertex
 10
497.587890625
 20
916.94140625
 30
0.0
  0
VERTEX
  5
1B3
330
1B1
100
AcDbEntity
  8
Ebene 1
370
     0
100
AcDbVertex
100
AcDb2dVertex
 10
497.587890625
 20
915.8828125
 30
0.0
  0
SEQEND
  5
1B4
330
1B1
100
AcDbEntity
  8
Ebene 1
370
     0
  0
POLYLINE
  5
1B5
330
3C
100
AcDbEntity
  8
Ebene 1
370
     0
100
AcDb2dPolyline
 66
     1
 10
0.0
 20
0.0
 30
0.0
  0
VERTEX
  5
1B6
330
1B5
100
AcDbEntity
  8
Ebene 1
370
     0
100
AcDbVertex
100
AcDb2dVertex
 10
497.587890625
 20
915.75
 30
0.0
  0
VERTEX
  5
1B7
330
1B5
100
AcDbEntity
  8
Ebene 1
370
     0
100
AcDbVertex
100
AcDb2dVertex
 10
497.587890625
 20
915.5732421875
 30
0.0
  0
SEQEND
  5
1B8
330
1B5
100
AcDbEntity
  8
Ebene 1
370
     0
  0
POLYLINE
  5
1B9
330
3C
100
AcDbEntity
  8
Ebene 1
370
     0
100
AcDb2dPolyline
 66
     1
 10
0.0
 20
0.0
 30
0.0
  0
VERTEX
  5
1BA
330
1B9
100
AcDbEntity
  8
Ebene 1
370
     0
100
AcDbVertex
100
AcDb2dVertex
 10
497.587890625
 20
915.3974609375
 30
0.0
  0
VERTEX
  5
1BB
330
1B9
100
AcDbEntity
  8
Ebene 1
370
     0
100
AcDbVertex
100
AcDb2dVertex
 10
497.587890625
 20
914.337890625
 30
0.0
  0
SEQEND
  5
1BC
330
1B9
100
AcDbEntity
  8
Ebene 1
370
     0
  0
POLYLINE
  5
1BD
330
3C
100
AcDbEntity
  8
Ebene 1
370
     0
100
AcDb2dPolyline
 66
     1
 10
0.0
 20
0.0
 30
0.0
  0
VERTEX
  5
1BE
330
1BD
100
AcDbEntity
  8
Ebene 1
370
     0
100
AcDbVertex
100
AcDb2dVertex
 10
497.587890625
 20
914.162109375
 30
0.0
  0
VERTEX
  5
1BF
330
1BD
100
AcDbEntity
  8
Ebene 1
370
     0
100
AcDbVertex
100
AcDb2dVertex
 10
497.587890625
 20
913.9853515625
 30
0.0
  0
SEQEND
  5
1C0
330
1BD
100
AcDbEntity
  8
Ebene 1
370
     0
  0
POLYLINE
  5
1C1
330
3C
100
AcDbEntity
  8
Ebene 1
370
     0
100
AcDb2dPolyline
 66
     1
 10
0.0
 20
0.0
 30
0.0
  0
VERTEX
  5
1C2
330
1C1
100
AcDbEntity
  8
Ebene 1
370
     0
100
AcDbVertex
100
AcDb2dVertex
 10
497.587890625
 20
913.80859375
 30
0.0
  0
VERTEX
  5
1C3
330
1C1
100
AcDbEntity
  8
Ebene 1
370
     0
100
AcDbVertex
100
AcDb2dVertex
 10
497.587890625
 20
913.19140625
 30
0.0
  0
SEQEND
  5
1C4
330
1C1
100
AcDbEntity
  8
Ebene 1
370
     0
  0
POLYLINE
  5
1C5
330
3C
100
AcDbEntity
  8
Ebene 1
370
     0
100
AcDb2dPolyline
 66
     1
 10
0.0
 20
0.0
 30
0.0
  0
VERTEX
  5
1C6
330
1C5
100
AcDbEntity
  8
Ebene 1
370
     0
100
AcDbVertex
100
AcDb2dVertex
 10
501.3828125
 20
918.7939453125
 30
0.0
  0
VERTEX
  5
1C7
330
1C5
100
AcDbEntity
  8
Ebene 1
370
     0
100
AcDbVertex
100
AcDb2dVertex
 10
501.337890625
 20
919.4560546875
 30
0.0
  0
VERTEX
  5
1C8
330
1C5
100
AcDbEntity
  8
Ebene 1
370
     0
100
AcDbVertex
100
AcDb2dVertex
 10
501.162109375
 20
920.0732421875
 30
0.0
  0
VERTEX
  5
1C9
330
1C5
100
AcDbEntity
  8
Ebene 1
370
     0
100
AcDbVertex
100
AcDb2dVertex
 10
500.896484375
 20
920.6474609375
 30
0.0
  0
VERTEX
  5
1CA
330
1C5
100
AcDbEntity
  8
Ebene 1
370
     0
100
AcDbVertex
100
AcDb2dVertex
 10
500.5439453125
 20
921.1767578125
 30
0.0
  0
VERTEX
  5
1CB
330
1C5
100
AcDbEntity
  8
Ebene 1
370
     0
100
AcDbVertex
100
AcDb2dVertex
 10
500.103515625
 20
921.662109375
 30
0.0
  0
VERTEX
  5
1CC
330
1C5
100
AcDbEntity
  8
Ebene 1
370
     0
100
AcDbVertex
100
AcDb2dVertex
 10
499.57421875
 20
922.0146484375
 30
0.0
  0
VERTEX
  5
1CD
330
1C5
100
AcDbEntity
  8
Ebene 1
370
     0
100
AcDbVertex
100
AcDb2dVertex
 10
499.0
 20
922.3232421875
 30
0.0
  0
VERTEX
  5
1CE
330
1C5
100
AcDbEntity
  8
Ebene 1
370
     0
100
AcDbVertex
100
AcDb2dVertex
 10
498.3828125
 20
922.5
 30
0.0
  0
VERTEX
  5
1CF
330
1C5
100
AcDbEntity
  8
Ebene 1
370
     0
100
AcDbVertex
100
AcDb2dVertex
 10
497.7646484375
 20
922.587890625
 30
0.0
  0
VERTEX
  5
1D0
330
1C5
100
AcDbEntity
  8
Ebene 1
370
     0
100
AcDbVertex
100
AcDb2dVertex
 10
497.103515625
 20
922.5439453125
 30
0.0
  0
VERTEX
  5
1D1
330
1C5
100
AcDbEntity
  8
Ebene 1
370
     0
100
AcDbVertex
100
AcDb2dVertex
 10
496.4853515625
 20
922.412109375
 30
0.0
  0
VERTEX
  5
1D2
330
1C5
100
AcDbEntity
  8
Ebene 1
370
     0
100
AcDbVertex
100
AcDb2dVertex
 10
495.8671875
 20
922.19140625
 30
0.0
  0
VERTEX
  5
1D3
330
1C5
100
AcDbEntity
  8
Ebene 1
370
     0
100
AcDbVertex
100
AcDb2dVertex
 10
495.337890625
 20
921.837890625
 30
0.0
  0
VERTEX
  5
1D4
330
1C5
100
AcDbEntity
  8
Ebene 1
370
     0
100
AcDbVertex
100
AcDb2dVertex
 10
494.853515625
 20
921.44140625
 30
0.0
  0
VERTEX
  5
1D5
330
1C5
100
AcDbEntity
  8
Ebene 1
370
     0
100
AcDbVertex
100
AcDb2dVertex
 10
494.4560546875
 20
920.912109375
 30
0.0
  0
VERTEX
  5
1D6
330
1C5
100
AcDbEntity
  8
Ebene 1
370
     0
100
AcDbVertex
100
AcDb2dVertex
 10
494.146484375
 20
920.337890625
 30
0.0
  0
VERTEX
  5
1D7
330
1C5
100
AcDbEntity
  8
Ebene 1
370
     0
100
AcDbVertex
100
AcDb2dVertex
 10
493.92578125
 20
919.7646484375
 30
0.0
  0
VERTEX
  5
1D8
330
1C5
100
AcDbEntity
  8
Ebene 1
370
     0
100
AcDbVertex
100
AcDb2dVertex
 10
493.7939453125
 20
919.1025390625
 30
0.0
  0
VERTEX
  5
1D9
330
1C5
100
AcDbEntity
  8
Ebene 1
370
     0
100
AcDbVertex
100
AcDb2dVertex
 10
493.7939453125
 20
918.4853515625
 30
0.0
  0
VERTEX
  5
1DA
330
1C5
100
AcDbEntity
  8
Ebene 1
370
     0
100
AcDbVertex
100
AcDb2dVertex
 10
493.92578125
 20
917.8232421875
 30
0.0
  0
VERTEX
  5
1DB
330
1C5
100
AcDbEntity
  8
Ebene 1
370
     0
100
AcDbVertex
100
AcDb2dVertex
 10
494.146484375
 20
917.25
 30
0.0
  0
VERTEX
  5
1DC
330
1C5
100
AcDbEntity
  8
Ebene 1
370
     0
100
AcDbVertex
100
AcDb2dVertex
 10
494.4560546875
 20
916.6767578125
 30
0.0
  0
VERTEX
  5
1DD
330
1C5
100
AcDbEntity
  8
Ebene 1
370
     0
100
AcDbVertex
100
AcDb2dVertex
 10
494.853515625
 20
916.1474609375
 30
0.0
  0
VERTEX
  5
1DE
330
1C5
100
AcDbEntity
  8
Ebene 1
370
     0
100
AcDbVertex
100
AcDb2dVertex
 10
495.337890625
 20
915.75
 30
0.0
  0
VERTEX
  5
1DF
330
1C5
100
AcDbEntity
  8
Ebene 1
370
     0
100
AcDbVertex
100
AcDb2dVertex
 10
495.8671875
 20
915.3974609375
 30
0.0
  0
VERTEX
  5
1E0
330
1C5
100
AcDbEntity
  8
Ebene 1
370
     0
100
AcDbVertex
100
AcDb2dVertex
 10
496.4853515625
 20
915.1767578125
 30
0.0
  0
VERTEX
  5
1E1
330
1C5
100
AcDbEntity
  8
Ebene 1
370
     0
100
AcDbVertex
100
AcDb2dVertex
 10
497.103515625
 20
915.0439453125
 30
0.0
  0
VERTEX
  5
1E2
330
1C5
100
AcDbEntity
  8
Ebene 1
370
     0
100
AcDbVertex
100
AcDb2dVertex
 10
497.7646484375
 20
915.0
 30
0.0
  0
VERTEX
  5
1E3
330
1C5
100
AcDbEntity
  8
Ebene 1
370
     0
100
AcDbVertex
100
AcDb2dVertex
 10
498.3828125
 20
915.087890625
 30
0.0
  0
VERTEX
  5
1E4
330
1C5
100
AcDbEntity
  8
Ebene 1
370
     0
100
AcDbVertex
100
AcDb2dVertex
 10
499.0
 20
915.2646484375
 30
0.0
  0
VERTEX
  5
1E5
330
1C5
100
AcDbEntity
  8
Ebene 1
370
     0
100
AcDbVertex
100
AcDb2dVertex
 10
499.57421875
 20
915.5732421875
 30
0.0
  0
VERTEX
  5
1E6
330
1C5
100
AcDbEntity
  8
Ebene 1
370
     0
100
AcDbVertex
100
AcDb2dVertex
 10
500.103515625
 20
915.9267578125
 30
0.0
  0
VERTEX
  5
1E7
330
1C5
100
AcDbEntity
  8
Ebene 1
370
     0
100
AcDbVertex
100
AcDb2dVertex
 10
500.5439453125
 20
916.412109375
 30
0.0
  0
VERTEX
  5
1E8
330
1C5
100
AcDbEntity
  8
Ebene 1
370
     0
100
AcDbVertex
100
AcDb2dVertex
 10
500.896484375
 20
916.94140625
 30
0.0
  0
VERTEX
  5
1E9
330
1C5
100
AcDbEntity
  8
Ebene 1
370
     0
100
AcDbVertex
100
AcDb2dVertex
 10
501.162109375
 20
917.5146484375
 30
0.0
  0
VERTEX
  5
1EA
330
1C5
100
AcDbEntity
  8
Ebene 1
370
     0
100
AcDbVertex
100
AcDb2dVertex
 10
501.337890625
 20
918.1328125
 30
0.0
  0
VERTEX
  5
1EB
330
1C5
100
AcDbEntity
  8
Ebene 1
370
     0
100
AcDbVertex
100
AcDb2dVertex
 10
501.3828125
 20
918.7939453125
 30
0.0
  0
VERTEX
  5
1EC
330
1C5
100
AcDbEntity
  8
Ebene 1
370
     0
100
AcDbVertex
100
AcDb2dVertex
 10
501.3828125
 20
918.7939453125
 30
0.0
  0
SEQEND
  5
1ED
330
1C5
100
AcDbEntity
  8
Ebene 1
370
     0
  0
POLYLINE
  5
1EE
330
3C
100
AcDbEntity
  8
Ebene 1
370
     0
100
AcDb2dPolyline
 66
     1
 10
0.0
 20
0.0
 30
0.0
  0
VERTEX
  5
1EF
330
1EE
100
AcDbEntity
  8
Ebene 1
370
     0
100
AcDbVertex
100
AcDb2dVertex
 10
562.6171875
 20
918.7939453125
 30
0.0
  0
VERTEX
  5
1F0
330
1EE
100
AcDbEntity
  8
Ebene 1
370
     0
100
AcDbVertex
100
AcDb2dVertex
 10
562.0
 20
918.7939453125
 30
0.0
  0
SEQEND
  5
1F1
330
1EE
100
AcDbEntity
  8
Ebene 1
370
     0
  0
POLYLINE
  5
1F2
330
3C
100
AcDbEntity
  8
Ebene 1
370
     0
100
AcDb2dPolyline
 66
     1
 10
0.0
 20
0.0
 30
0.0
  0
VERTEX
  5
1F3
330
1F2
100
AcDbEntity
  8
Ebene 1
370
     0
100
AcDbVertex
100
AcDb2dVertex
 10
561.8232421875
 20
918.7939453125
 30
0.0
  0
VERTEX
  5
1F4
330
1F2
100
AcDbEntity
  8
Ebene 1
370
     0
100
AcDbVertex
100
AcDb2dVertex
 10
561.6474609375
 20
918.7939453125
 30
0.0
  0
SEQEND
  5
1F5
330
1F2
100
AcDbEntity
  8
Ebene 1
370
     0
  0
POLYLINE
  5
1F6
330
3C
100
AcDbEntity
  8
Ebene 1
370
     0
100
AcDb2dPolyline
 66
     1
 10
0.0
 20
0.0
 30
0.0
  0
VERTEX
  5
1F7
330
1F6
100
AcDbEntity
  8
Ebene 1
370
     0
100
AcDbVertex
100
AcDb2dVertex
 10
561.470703125
 20
918.7939453125
 30
0.0
  0
VERTEX
  5
1F8
330
1F6
100
AcDbEntity
  8
Ebene 1
370
     0
100
AcDbVertex
100
AcDb2dVertex
 10
560.4560546875
 20
918.7939453125
 30
0.0
  0
SEQEND
  5
1F9
330
1F6
100
AcDbEntity
  8
Ebene 1
370
     0
  0
POLYLINE
  5
1FA
330
3C
100
AcDbEntity
  8
Ebene 1
370
     0
100
AcDb2dPolyline
 66
     1
 10
0.0
 20
0.0
 30
0.0
  0
VERTEX
  5
1FB
330
1FA
100
AcDbEntity
  8
Ebene 1
370
     0
100
AcDbVertex
100
AcDb2dVertex
 10
560.279296875
 20
918.7939453125
 30
0.0
  0
VERTEX
  5
1FC
330
1FA
100
AcDbEntity
  8
Ebene 1
370
     0
100
AcDbVertex
100
AcDb2dVertex
 10
560.1025390625
 20
918.7939453125
 30
0.0
  0
SEQEND
  5
1FD
330
1FA
100
AcDbEntity
  8
Ebene 1
370
     0
  0
POLYLINE
  5
1FE
330
3C
100
AcDbEntity
  8
Ebene 1
370
     0
100
AcDb2dPolyline
 66
     1
 10
0.0
 20
0.0
 30
0.0
  0
VERTEX
  5
1FF
330
1FE
100
AcDbEntity
  8
Ebene 1
370
     0
100
AcDbVertex
100
AcDb2dVertex
 10
559.9267578125
 20
918.7939453125
 30
0.0
  0
VERTEX
  5
200
330
1FE
100
AcDbEntity
  8
Ebene 1
370
     0
100
AcDbVertex
100
AcDb2dVertex
 10
558.8671875
 20
918.7939453125
 30
0.0
  0
SEQEND
  5
201
330
1FE
100
AcDbEntity
  8
Ebene 1
370
     0
  0
POLYLINE
  5
202
330
3C
100
AcDbEntity
  8
Ebene 1
370
     0
100
AcDb2dPolyline
 66
     1
 10
0.0
 20
0.0
 30
0.0
  0
VERTEX
  5
203
330
202
100
AcDbEntity
  8
Ebene 1
370
     0
100
AcDbVertex
100
AcDb2dVertex
 10
558.69140625
 20
918.7939453125
 30
0.0
  0
VERTEX
  5
204
330
202
100
AcDbEntity
  8
Ebene 1
370
     0
100
AcDbVertex
100
AcDb2dVertex
 10
558.5146484375
 20
918.7939453125
 30
0.0
  0
SEQEND
  5
205
330
202
100
AcDbEntity
  8
Ebene 1
370
     0
  0
POLYLINE
  5
206
330
3C
100
AcDbEntity
  8
Ebene 1
370
     0
100
AcDb2dPolyline
 66
     1
 10
0.0
 20
0.0
 30
0.0
  0
VERTEX
  5
207
330
206
100
AcDbEntity
  8
Ebene 1
370
     0
100
AcDbVertex
100
AcDb2dVertex
 10
558.337890625
 20
918.7939453125
 30
0.0
  0
VERTEX
  5
208
330
206
100
AcDbEntity
  8
Ebene 1
370
     0
100
AcDbVertex
100
AcDb2dVertex
 10
557.3232421875
 20
918.7939453125
 30
0.0
  0
SEQEND
  5
209
330
206
100
AcDbEntity
  8
Ebene 1
370
     0
  0
POLYLINE
  5
20A
330
3C
100
AcDbEntity
  8
Ebene 1
370
     0
100
AcDb2dPolyline
 66
     1
 10
0.0
 20
0.0
 30
0.0
  0
VERTEX
  5
20B
330
20A
100
AcDbEntity
  8
Ebene 1
370
     0
100
AcDbVertex
100
AcDb2dVertex
 10
557.1474609375
 20
918.7939453125
 30
0.0
  0
VERTEX
  5
20C
330
20A
100
AcDbEntity
  8
Ebene 1
370
     0
100
AcDbVertex
100
AcDb2dVertex
 10
556.970703125
 20
918.7939453125
 30
0.0
  0
SEQEND
  5
20D
330
20A
100
AcDbEntity
  8
Ebene 1
370
     0
  0
POLYLINE
  5
20E
330
3C
100
AcDbEntity
  8
Ebene 1
370
     0
100
AcDb2dPolyline
 66
     1
 10
0.0
 20
0.0
 30
0.0
  0
VERTEX
  5
20F
330
20E
100
AcDbEntity
  8
Ebene 1
370
     0
100
AcDbVertex
100
AcDb2dVertex
 10
556.7939453125
 20
918.7939453125
 30
0.0
  0
VERTEX
  5
210
330
20E
100
AcDbEntity
  8
Ebene 1
370
     0
100
AcDbVertex
100
AcDb2dVertex
 10
555.779296875
 20
918.7939453125
 30
0.0
  0
SEQEND
  5
211
330
20E
100
AcDbEntity
  8
Ebene 1
370
     0
  0
POLYLINE
  5
212
330
3C
100
AcDbEntity
  8
Ebene 1
370
     0
100
AcDb2dPolyline
 66
     1
 10
0.0
 20
0.0
 30
0.0
  0
VERTEX
  5
213
330
212
100
AcDbEntity
  8
Ebene 1
370
     0
100
AcDbVertex
100
AcDb2dVertex
 10
555.603515625
 20
918.7939453125
 30
0.0
  0
VERTEX
  5
214
330
212
100
AcDbEntity
  8
Ebene 1
370
     0
100
AcDbVertex
100
AcDb2dVertex
 10
555.42578125
 20
918.7939453125
 30
0.0
  0
SEQEND
  5
215
330
212
100
AcDbEntity
  8
Ebene 1
370
     0
  0
POLYLINE
  5
216
330
3C
100
AcDbEntity
  8
Ebene 1
370
     0
100
AcDb2dPolyline
 66
     1
 10
0.0
 20
0.0
 30
0.0
  0
VERTEX
  5
217
330
216
100
AcDbEntity
  8
Ebene 1
370
     0
100
AcDbVertex
100
AcDb2dVertex
 10
555.25
 20
918.7939453125
 30
0.0
  0
VERTEX
  5
218
330
216
100
AcDbEntity
  8
Ebene 1
370
     0
100
AcDbVertex
100
AcDb2dVertex
 10
554.19140625
 20
918.7939453125
 30
0.0
  0
SEQEND
  5
219
330
216
100
AcDbEntity
  8
Ebene 1
370
     0
  0
POLYLINE
  5
21A
330
3C
100
AcDbEntity
  8
Ebene 1
370
     0
100
AcDb2dPolyline
 66
     1
 10
0.0
 20
0.0
 30
0.0
  0
VERTEX
  5
21B
330
21A
100
AcDbEntity
  8
Ebene 1
370
     0
100
AcDbVertex
100
AcDb2dVertex
 10
554.05859375
 20
918.7939453125
 30
0.0
  0
VERTEX
  5
21C
330
21A
100
AcDbEntity
  8
Ebene 1
370
     0
100
AcDbVertex
100
AcDb2dVertex
 10
553.8828125
 20
918.7939453125
 30
0.0
  0
SEQEND
  5
21D
330
21A
100
AcDbEntity
  8
Ebene 1
370
     0
  0
POLYLINE
  5
21E
330
3C
100
AcDbEntity
  8
Ebene 1
370
     0
100
AcDb2dPolyline
 66
     1
 10
0.0
 20
0.0
 30
0.0
  0
VERTEX
  5
21F
330
21E
100
AcDbEntity
  8
Ebene 1
370
     0
100
AcDbVertex
100
AcDb2dVertex
 10
553.7060546875
 20
918.7939453125
 30
0.0
  0
VERTEX
  5
220
330
21E
100
AcDbEntity
  8
Ebene 1
370
     0
100
AcDbVertex
100
AcDb2dVertex
 10
552.646484375
 20
918.7939453125
 30
0.0
  0
SEQEND
  5
221
330
21E
100
AcDbEntity
  8
Ebene 1
370
     0
  0
POLYLINE
  5
222
330
3C
100
AcDbEntity
  8
Ebene 1
370
     0
100
AcDb2dPolyline
 66
     1
 10
0.0
 20
0.0
 30
0.0
  0
VERTEX
  5
223
330
222
100
AcDbEntity
  8
Ebene 1
370
     0
100
AcDbVertex
100
AcDb2dVertex
 10
552.470703125
 20
918.7939453125
 30
0.0
  0
VERTEX
  5
224
330
222
100
AcDbEntity
  8
Ebene 1
370
     0
100
AcDbVertex
100
AcDb2dVertex
 10
552.2939453125
 20
918.7939453125
 30
0.0
  0
SEQEND
  5
225
330
222
100
AcDbEntity
  8
Ebene 1
370
     0
  0
POLYLINE
  5
226
330
3C
100
AcDbEntity
  8
Ebene 1
370
     0
100
AcDb2dPolyline
 66
     1
 10
0.0
 20
0.0
 30
0.0
  0
VERTEX
  5
227
330
226
100
AcDbEntity
  8
Ebene 1
370
     0
100
AcDbVertex
100
AcDb2dVertex
 10
552.1171875
 20
918.7939453125
 30
0.0
  0
VERTEX
  5
228
330
226
100
AcDbEntity
  8
Ebene 1
370
     0
100
AcDbVertex
100
AcDb2dVertex
 10
551.5439453125
 20
918.7939453125
 30
0.0
  0
SEQEND
  5
229
330
226
100
AcDbEntity
  8
Ebene 1
370
     0
  0
POLYLINE
  5
22A
330
3C
100
AcDbEntity
  8
Ebene 1
370
     0
100
AcDb2dPolyline
 66
     1
 10
0.0
 20
0.0
 30
0.0
  0
VERTEX
  5
22B
330
22A
100
AcDbEntity
  8
Ebene 1
370
     0
100
AcDbVertex
100
AcDb2dVertex
 10
557.05859375
 20
924.30859375
 30
0.0
  0
VERTEX
  5
22C
330
22A
100
AcDbEntity
  8
Ebene 1
370
     0
100
AcDbVertex
100
AcDb2dVertex
 10
557.05859375
 20
923.69140625
 30
0.0
  0
SEQEND
  5
22D
330
22A
100
AcDbEntity
  8
Ebene 1
370
     0
  0
POLYLINE
  5
22E
330
3C
100
AcDbEntity
  8
Ebene 1
370
     0
100
AcDb2dPolyline
 66
     1
 10
0.0
 20
0.0
 30
0.0
  0
VERTEX
  5
22F
330
22E
100
AcDbEntity
  8
Ebene 1
370
     0
100
AcDbVertex
100
AcDb2dVertex
 10
557.05859375
 20
923.5146484375
 30
0.0
  0
VERTEX
  5
230
330
22E
100
AcDbEntity
  8
Ebene 1
370
     0
100
AcDbVertex
100
AcDb2dVertex
 10
557.05859375
 20
923.337890625
 30
0.0
  0
SEQEND
  5
231
330
22E
100
AcDbEntity
  8
Ebene 1
370
     0
  0
POLYLINE
  5
232
330
3C
100
AcDbEntity
  8
Ebene 1
370
     0
100
AcDb2dPolyline
 66
     1
 10
0.0
 20
0.0
 30
0.0
  0
VERTEX
  5
233
330
232
100
AcDbEntity
  8
Ebene 1
370
     0
100
AcDbVertex
100
AcDb2dVertex
 10
557.05859375
 20
923.162109375
 30
0.0
  0
VERTEX
  5
234
330
232
100
AcDbEntity
  8
Ebene 1
370
     0
100
AcDbVertex
100
AcDb2dVertex
 10
557.05859375
 20
922.1474609375
 30
0.0
  0
SEQEND
  5
235
330
232
100
AcDbEntity
  8
Ebene 1
370
     0
  0
POLYLINE
  5
236
330
3C
100
AcDbEntity
  8
Ebene 1
370
     0
100
AcDb2dPolyline
 66
     1
 10
0.0
 20
0.0
 30
0.0
  0
VERTEX
  5
237
330
236
100
AcDbEntity
  8
Ebene 1
370
     0
100
AcDbVertex
100
AcDb2dVertex
 10
557.05859375
 20
921.970703125
 30
0.0
  0
VERTEX
  5
238
330
236
100
AcDbEntity
  8
Ebene 1
370
     0
100
AcDbVertex
100
AcDb2dVertex
 10
557.05859375
 20
921.7939453125
 30
0.0
  0
SEQEND
  5
239
330
236
100
AcDbEntity
  8
Ebene 1
370
     0
  0
POLYLINE
  5
23A
330
3C
100
AcDbEntity
  8
Ebene 1
370
     0
100
AcDb2dPolyline
 66
     1
 10
0.0
 20
0.0
 30
0.0
  0
VERTEX
  5
23B
330
23A
100
AcDbEntity
  8
Ebene 1
370
     0
100
AcDbVertex
100
AcDb2dVertex
 10
557.05859375
 20
921.6171875
 30
0.0
  0
VERTEX
  5
23C
330
23A
100
AcDbEntity
  8
Ebene 1
370
     0
100
AcDbVertex
100
AcDb2dVertex
 10
557.05859375
 20
920.55859375
 30
0.0
  0
SEQEND
  5
23D
330
23A
100
AcDbEntity
  8
Ebene 1
370
     0
  0
POLYLINE
  5
23E
330
3C
100
AcDbEntity
  8
Ebene 1
370
     0
100
AcDb2dPolyline
 66
     1
 10
0.0
 20
0.0
 30
0.0
  0
VERTEX
  5
23F
330
23E
100
AcDbEntity
  8
Ebene 1
370
     0
100
AcDbVertex
100
AcDb2dVertex
 10
557.05859375
 20
920.3828125
 30
0.0
  0
VERTEX
  5
240
330
23E
100
AcDbEntity
  8
Ebene 1
370
     0
100
AcDbVertex
100
AcDb2dVertex
 10
557.05859375
 20
920.2060546875
 30
0.0
  0
SEQEND
  5
241
330
23E
100
AcDbEntity
  8
Ebene 1
370
     0
  0
POLYLINE
  5
242
330
3C
100
AcDbEntity
  8
Ebene 1
370
     0
100
AcDb2dPolyline
 66
     1
 10
0.0
 20
0.0
 30
0.0
  0
VERTEX
  5
243
330
242
100
AcDbEntity
  8
Ebene 1
370
     0
100
AcDbVertex
100
AcDb2dVertex
 10
557.05859375
 20
920.029296875
 30
0.0
  0
VERTEX
  5
244
330
242
100
AcDbEntity
  8
Ebene 1
370
     0
100
AcDbVertex
100
AcDb2dVertex
 10
557.05859375
 20
919.0146484375
 30
0.0
  0
SEQEND
  5
245
330
242
100
AcDbEntity
  8
Ebene 1
370
     0
  0
POLYLINE
  5
246
330
3C
100
AcDbEntity
  8
Ebene 1
370
     0
100
AcDb2dPolyline
 66
     1
 10
0.0
 20
0.0
 30
0.0
  0
VERTEX
  5
247
330
246
100
AcDbEntity
  8
Ebene 1
370
     0
100
AcDbVertex
100
AcDb2dVertex
 10
557.05859375
 20
918.837890625
 30
0.0
  0
VERTEX
  5
248
330
246
100
AcDbEntity
  8
Ebene 1
370
     0
100
AcDbVertex
100
AcDb2dVertex
 10
557.05859375
 20
918.662109375
 30
0.0
  0
SEQEND
  5
249
330
246
100
AcDbEntity
  8
Ebene 1
370
     0
  0
POLYLINE
  5
24A
330
3C
100
AcDbEntity
  8
Ebene 1
370
     0
100
AcDb2dPolyline
 66
     1
 10
0.0
 20
0.0
 30
0.0
  0
VERTEX
  5
24B
330
24A
100
AcDbEntity
  8
Ebene 1
370
     0
100
AcDbVertex
100
AcDb2dVertex
 10
557.05859375
 20
918.4853515625
 30
0.0
  0
VERTEX
  5
24C
330
24A
100
AcDbEntity
  8
Ebene 1
370
     0
100
AcDbVertex
100
AcDb2dVertex
 10
557.05859375
 20
917.470703125
 30
0.0
  0
SEQEND
  5
24D
330
24A
100
AcDbEntity
  8
Ebene 1
370
     0
  0
POLYLINE
  5
24E
330
3C
100
AcDbEntity
  8
Ebene 1
370
     0
100
AcDb2dPolyline
 66
     1
 10
0.0
 20
0.0
 30
0.0
  0
VERTEX
  5
24F
330
24E
100
AcDbEntity
  8
Ebene 1
370
     0
100
AcDbVertex
100
AcDb2dVertex
 10
557.05859375
 20
917.2939453125
 30
0.0
  0
VERTEX
  5
250
330
24E
100
AcDbEntity
  8
Ebene 1
370
     0
100
AcDbVertex
100
AcDb2dVertex
 10
557.05859375
 20
917.1171875
 30
0.0
  0
SEQEND
  5
251
330
24E
100
AcDbEntity
  8
Ebene 1
370
     0
  0
POLYLINE
  5
252
330
3C
100
AcDbEntity
  8
Ebene 1
370
     0
100
AcDb2dPolyline
 66
     1
 10
0.0
 20
0.0
 30
0.0
  0
VERTEX
  5
253
330
252
100
AcDbEntity
  8
Ebene 1
370
     0
100
AcDbVertex
100
AcDb2dVertex
 10
557.05859375
 20
916.94140625
 30
0.0
  0
VERTEX
  5
254
330
252
100
AcDbEntity
  8
Ebene 1
370
     0
100
AcDbVertex
100
AcDb2dVertex
 10
557.05859375
 20
915.8828125
 30
0.0
  0
SEQEND
  5
255
330
252
100
AcDbEntity
  8
Ebene 1
370
     0
  0
POLYLINE
  5
256
330
3C
100
AcDbEntity
  8
Ebene 1
370
     0
100
AcDb2dPolyline
 66
     1
 10
0.0
 20
0.0
 30
0.0
  0
VERTEX
  5
257
330
256
100
AcDbEntity
  8
Ebene 1
370
     0
100
AcDbVertex
100
AcDb2dVertex
 10
557.05859375
 20
915.75
 30
0.0
  0
VERTEX
  5
258
330
256
100
AcDbEntity
  8
Ebene 1
370
     0
100
AcDbVertex
100
AcDb2dVertex
 10
557.05859375
 20
915.5732421875
 30
0.0
  0
SEQEND
  5
259
330
256
100
AcDbEntity
  8
Ebene 1
370
     0
  0
POLYLINE
  5
25A
330
3C
100
AcDbEntity
  8
Ebene 1
370
     0
100
AcDb2dPolyline
 66
     1
 10
0.0
 20
0.0
 30
0.0
  0
VERTEX
  5
25B
330
25A
100
AcDbEntity
  8
Ebene 1
370
     0
100
AcDbVertex
100
AcDb2dVertex
 10
557.05859375
 20
915.3974609375
 30
0.0
  0
VERTEX
  5
25C
330
25A
100
AcDbEntity
  8
Ebene 1
370
     0
100
AcDbVertex
100
AcDb2dVertex
 10
557.05859375
 20
914.337890625
 30
0.0
  0
SEQEND
  5
25D
330
25A
100
AcDbEntity
  8
Ebene 1
370
     0
  0
POLYLINE
  5
25E
330
3C
100
AcDbEntity
  8
Ebene 1
370
     0
100
AcDb2dPolyline
 66
     1
 10
0.0
 20
0.0
 30
0.0
  0
VERTEX
  5
25F
330
25E
100
AcDbEntity
  8
Ebene 1
370
     0
100
AcDbVertex
100
AcDb2dVertex
 10
557.05859375
 20
914.162109375
 30
0.0
  0
VERTEX
  5
260
330
25E
100
AcDbEntity
  8
Ebene 1
370
     0
100
AcDbVertex
100
AcDb2dVertex
 10
557.05859375
 20
913.9853515625
 30
0.0
  0
SEQEND
  5
261
330
25E
100
AcDbEntity
  8
Ebene 1
370
     0
  0
POLYLINE
  5
262
330
3C
100
AcDbEntity
  8
Ebene 1
370
     0
100
AcDb2dPolyline
 66
     1
 10
0.0
 20
0.0
 30
0.0
  0
VERTEX
  5
263
330
262
100
AcDbEntity
  8
Ebene 1
370
     0
100
AcDbVertex
100
AcDb2dVertex
 10
557.05859375
 20
913.80859375
 30
0.0
  0
VERTEX
  5
264
330
262
100
AcDbEntity
  8
Ebene 1
370
     0
100
AcDbVertex
100
AcDb2dVertex
 10
557.05859375
 20
913.19140625
 30
0.0
  0
SEQEND
  5
265
330
262
100
AcDbEntity
  8
Ebene 1
370
     0
  0
POLYLINE
  5
266
330
3C
100
AcDbEntity
  8
Ebene 1
370
     0
100
AcDb2dPolyline
 66
     1
 10
0.0
 20
0.0
 30
0.0
  0
VERTEX
  5
267
330
266
100
AcDbEntity
  8
Ebene 1
370
     0
100
AcDbVertex
100
AcDb2dVertex
 10
560.8525390625
 20
918.7939453125
 30
0.0
  0
VERTEX
  5
268
330
266
100
AcDbEntity
  8
Ebene 1
370
     0
100
AcDbVertex
100
AcDb2dVertex
 10
560.80859375
 20
919.4560546875
 30
0.0
  0
VERTEX
  5
269
330
266
100
AcDbEntity
  8
Ebene 1
370
     0
100
AcDbVertex
100
AcDb2dVertex
 10
560.6328125
 20
920.0732421875
 30
0.0
  0
VERTEX
  5
26A
330
266
100
AcDbEntity
  8
Ebene 1
370
     0
100
AcDbVertex
100
AcDb2dVertex
 10
560.3671875
 20
920.6474609375
 30
0.0
  0
VERTEX
  5
26B
330
266
100
AcDbEntity
  8
Ebene 1
370
     0
100
AcDbVertex
100
AcDb2dVertex
 10
560.0146484375
 20
921.1767578125
 30
0.0
  0
VERTEX
  5
26C
330
266
100
AcDbEntity
  8
Ebene 1
370
     0
100
AcDbVertex
100
AcDb2dVertex
 10
559.5732421875
 20
921.662109375
 30
0.0
  0
VERTEX
  5
26D
330
266
100
AcDbEntity
  8
Ebene 1
370
     0
100
AcDbVertex
100
AcDb2dVertex
 10
559.0439453125
 20
922.0146484375
 30
0.0
  0
VERTEX
  5
26E
330
266
100
AcDbEntity
  8
Ebene 1
370
     0
100
AcDbVertex
100
AcDb2dVertex
 10
558.470703125
 20
922.3232421875
 30
0.0
  0
VERTEX
  5
26F
330
266
100
AcDbEntity
  8
Ebene 1
370
     0
100
AcDbVertex
100
AcDb2dVertex
 10
557.8525390625
 20
922.5
 30
0.0
  0
VERTEX
  5
270
330
266
100
AcDbEntity
  8
Ebene 1
370
     0
100
AcDbVertex
100
AcDb2dVertex
 10
557.2353515625
 20
922.587890625
 30
0.0
  0
VERTEX
  5
271
330
266
100
AcDbEntity
  8
Ebene 1
370
     0
100
AcDbVertex
100
AcDb2dVertex
 10
556.5732421875
 20
922.5439453125
 30
0.0
  0
VERTEX
  5
272
330
266
100
AcDbEntity
  8
Ebene 1
370
     0
100
AcDbVertex
100
AcDb2dVertex
 10
555.9560546875
 20
922.412109375
 30
0.0
  0
VERTEX
  5
273
330
266
100
AcDbEntity
  8
Ebene 1
370
     0
100
AcDbVertex
100
AcDb2dVertex
 10
555.337890625
 20
922.19140625
 30
0.0
  0
VERTEX
  5
274
330
266
100
AcDbEntity
  8
Ebene 1
370
     0
100
AcDbVertex
100
AcDb2dVertex
 10
554.80859375
 20
921.837890625
 30
0.0
  0
VERTEX
  5
275
330
266
100
AcDbEntity
  8
Ebene 1
370
     0
100
AcDbVertex
100
AcDb2dVertex
 10
554.32421875
 20
921.44140625
 30
0.0
  0
VERTEX
  5
276
330
266
100
AcDbEntity
  8
Ebene 1
370
     0
100
AcDbVertex
100
AcDb2dVertex
 10
553.92578125
 20
920.912109375
 30
0.0
  0
VERTEX
  5
277
330
266
100
AcDbEntity
  8
Ebene 1
370
     0
100
AcDbVertex
100
AcDb2dVertex
 10
553.6171875
 20
920.337890625
 30
0.0
  0
VERTEX
  5
278
330
266
100
AcDbEntity
  8
Ebene 1
370
     0
100
AcDbVertex
100
AcDb2dVertex
 10
553.396484375
 20
919.7646484375
 30
0.0
  0
VERTEX
  5
279
330
266
100
AcDbEntity
  8
Ebene 1
370
     0
100
AcDbVertex
100
AcDb2dVertex
 10
553.2646484375
 20
919.1025390625
 30
0.0
  0
VERTEX
  5
27A
330
266
100
AcDbEntity
  8
Ebene 1
370
     0
100
AcDbVertex
100
AcDb2dVertex
 10
553.2646484375
 20
918.4853515625
 30
0.0
  0
VERTEX
  5
27B
330
266
100
AcDbEntity
  8
Ebene 1
370
     0
100
AcDbVertex
100
AcDb2dVertex
 10
553.396484375
 20
917.8232421875
 30
0.0
  0
VERTEX
  5
27C
330
266
100
AcDbEntity
  8
Ebene 1
370
     0
100
AcDbVertex
100
AcDb2dVertex
 10
553.6171875
 20
917.25
 30
0.0
  0
VERTEX
  5
27D
330
266
100
AcDbEntity
  8
Ebene 1
370
     0
100
AcDbVertex
100
AcDb2dVertex
 10
553.92578125
 20
916.6767578125
 30
0.0
  0
VERTEX
  5
27E
330
266
100
AcDbEntity
  8
Ebene 1
370
     0
100
AcDbVertex
100
AcDb2dVertex
 10
554.32421875
 20
916.1474609375
 30
0.0
  0
VERTEX
  5
27F
330
266
100
AcDbEntity
  8
Ebene 1
370
     0
100
AcDbVertex
100
AcDb2dVertex
 10
554.80859375
 20
915.75
 30
0.0
  0
VERTEX
  5
280
330
266
100
AcDbEntity
  8
Ebene 1
370
     0
100
AcDbVertex
100
AcDb2dVertex
 10
555.337890625
 20
915.3974609375
 30
0.0
  0
VERTEX
  5
281
330
266
100
AcDbEntity
  8
Ebene 1
370
     0
100
AcDbVertex
100
AcDb2dVertex
 10
555.9560546875
 20
915.1767578125
 30
0.0
  0
VERTEX
  5
282
330
266
100
AcDbEntity
  8
Ebene 1
370
     0
100
AcDbVertex
100
AcDb2dVertex
 10
556.5732421875
 20
915.0439453125
 30
0.0
  0
VERTEX
  5
283
330
266
100
AcDbEntity
  8
Ebene 1
370
     0
100
AcDbVertex
100
AcDb2dVertex
 10
557.2353515625
 20
915.0
 30
0.0
  0
VERTEX
  5
284
330
266
100
AcDbEntity
  8
Ebene 1
370
     0
100
AcDbVertex
100
AcDb2dVertex
 10
557.8525390625
 20
915.087890625
 30
0.0
  0
VERTEX
  5
285
330
266
100
AcDbEntity
  8
Ebene 1
370
     0
100
AcDbVertex
100
AcDb2dVertex
 10
558.470703125
 20
915.2646484375
 30
0.0
  0
VERTEX
  5
286
330
266
100
AcDbEntity
  8
Ebene 1
370
     0
100
AcDbVertex
100
AcDb2dVertex
 10
559.0439453125
 20
915.5732421875
 30
0.0
  0
VERTEX
  5
287
330
266
100
AcDbEntity
  8
Ebene 1
370
     0
100
AcDbVertex
100
AcDb2dVertex
 10
559.5732421875
 20
915.9267578125
 30
0.0
  0
VERTEX
  5
288
330
266
100
AcDbEntity
  8
Ebene 1
370
     0
100
AcDbVertex
100
AcDb2dVertex
 10
560.0146484375
 20
916.412109375
 30
0.0
  0
VERTEX
  5
289
330
266
100
AcDbEntity
  8
Ebene 1
370
     0
100
AcDbVertex
100
AcDb2dVertex
 10
560.3671875
 20
916.94140625
 30
0.0
  0
VERTEX
  5
28A
330
266
100
AcDbEntity
  8
Ebene 1
370
     0
100
AcDbVertex
100
AcDb2dVertex
 10
560.6328125
 20
917.5146484375
 30
0.0
  0
VERTEX
  5
28B
330
266
100
AcDbEntity
  8
Ebene 1
370
     0
100
AcDbVertex
100
AcDb2dVertex
 10
560.80859375
 20
918.1328125
 30
0.0
  0
VERTEX
  5
28C
330
266
100
AcDbEntity
  8
Ebene 1
370
     0
100
AcDbVertex
100
AcDb2dVertex
 10
560.8525390625
 20
918.7939453125
 30
0.0
  0
VERTEX
  5
28D
330
266
100
AcDbEntity
  8
Ebene 1
370
     0
100
AcDbVertex
100
AcDb2dVertex
 10
560.8525390625
 20
918.7939453125
 30
0.0
  0
SEQEND
  5
28E
330
266
100
AcDbEntity
  8
Ebene 1
370
     0
  0
POLYLINE
  5
28F
330
3C
100
AcDbEntity
  8
Ebene 1
370
     0
100
AcDb2dPolyline
 66
     1
 10
0.0
 20
0.0
 30
0.0
  0
VERTEX
  5
290
330
28F
100
AcDbEntity
  8
Ebene 1
370
     0
100
AcDbVertex
100
AcDb2dVertex
 10
571.6171875
 20
895.279296875
 30
0.0
  0
VERTEX
  5
291
330
28F
100
AcDbEntity
  8
Ebene 1
370
     0
100
AcDbVertex
100
AcDb2dVertex
 10
571.0
 20
895.279296875
 30
0.0
  0
SEQEND
  5
292
330
28F
100
AcDbEntity
  8
Ebene 1
370
     0
  0
POLYLINE
  5
293
330
3C
100
AcDbEntity
  8
Ebene 1
370
     0
100
AcDb2dPolyline
 66
     1
 10
0.0
 20
0.0
 30
0.0
  0
VERTEX
  5
294
330
293
100
AcDbEntity
  8
Ebene 1
370
     0
100
AcDbVertex
100
AcDb2dVertex
 10
570.8232421875
 20
895.279296875
 30
0.0
  0
VERTEX
  5
295
330
293
100
AcDbEntity
  8
Ebene 1
370
     0
100
AcDbVertex
100
AcDb2dVertex
 10
570.6474609375
 20
895.279296875
 30
0.0
  0
SEQEND
  5
296
330
293
100
AcDbEntity
  8
Ebene 1
370
     0
  0
POLYLINE
  5
297
330
3C
100
AcDbEntity
  8
Ebene 1
370
     0
100
AcDb2dPolyline
 66
     1
 10
0.0
 20
0.0
 30
0.0
  0
VERTEX
  5
298
330
297
100
AcDbEntity
  8
Ebene 1
370
     0
100
AcDbVertex
100
AcDb2dVertex
 10
570.470703125
 20
895.279296875
 30
0.0
  0
VERTEX
  5
299
330
297
100
AcDbEntity
  8
Ebene 1
370
     0
100
AcDbVertex
100
AcDb2dVertex
 10
569.4560546875
 20
895.279296875
 30
0.0
  0
SEQEND
  5
29A
330
297
100
AcDbEntity
  8
Ebene 1
370
     0
  0
POLYLINE
  5
29B
330
3C
100
AcDbEntity
  8
Ebene 1
370
     0
100
AcDb2dPolyline
 66
     1
 10
0.0
 20
0.0
 30
0.0
  0
VERTEX
  5
29C
330
29B
100
AcDbEntity
  8
Ebene 1
370
     0
100
AcDbVertex
100
AcDb2dVertex
 10
569.279296875
 20
895.279296875
 30
0.0
  0
VERTEX
  5
29D
330
29B
100
AcDbEntity
  8
Ebene 1
370
     0
100
AcDbVertex
100
AcDb2dVertex
 10
569.1025390625
 20
895.279296875
 30
0.0
  0
SEQEND
  5
29E
330
29B
100
AcDbEntity
  8
Ebene 1
370
     0
  0
POLYLINE
  5
29F
330
3C
100
AcDbEntity
  8
Ebene 1
370
     0
100
AcDb2dPolyline
 66
     1
 10
0.0
 20
0.0
 30
0.0
  0
VERTEX
  5
2A0
330
29F
100
AcDbEntity
  8
Ebene 1
370
     0
100
AcDbVertex
100
AcDb2dVertex
 10
568.9267578125
 20
895.279296875
 30
0.0
  0
VERTEX
  5
2A1
330
29F
100
AcDbEntity
  8
Ebene 1
370
     0
100
AcDbVertex
100
AcDb2dVertex
 10
567.8671875
 20
895.279296875
 30
0.0
  0
SEQEND
  5
2A2
330
29F
100
AcDbEntity
  8
Ebene 1
370
     0
  0
POLYLINE
  5
2A3
330
3C
100
AcDbEntity
  8
Ebene 1
370
     0
100
AcDb2dPolyline
 66
     1
 10
0.0
 20
0.0
 30
0.0
  0
VERTEX
  5
2A4
330
2A3
100
AcDbEntity
  8
Ebene 1
370
     0
100
AcDbVertex
100
AcDb2dVertex
 10
567.69140625
 20
895.279296875
 30
0.0
  0
VERTEX
  5
2A5
330
2A3
100
AcDbEntity
  8
Ebene 1
370
     0
100
AcDbVertex
100
AcDb2dVertex
 10
567.5146484375
 20
895.279296875
 30
0.0
  0
SEQEND
  5
2A6
330
2A3
100
AcDbEntity
  8
Ebene 1
370
     0
  0
POLYLINE
  5
2A7
330
3C
100
AcDbEntity
  8
Ebene 1
370
     0
100
AcDb2dPolyline
 66
     1
 10
0.0
 20
0.0
 30
0.0
  0
VERTEX
  5
2A8
330
2A7
100
AcDbEntity
  8
Ebene 1
370
     0
100
AcDbVertex
100
AcDb2dVertex
 10
567.337890625
 20
895.279296875
 30
0.0
  0
VERTEX
  5
2A9
330
2A7
100
AcDbEntity
  8
Ebene 1
370
     0
100
AcDbVertex
100
AcDb2dVertex
 10
566.3232421875
 20
895.279296875
 30
0.0
  0
SEQEND
  5
2AA
330
2A7
100
AcDbEntity
  8
Ebene 1
370
     0
  0
POLYLINE
  5
2AB
330
3C
100
AcDbEntity
  8
Ebene 1
370
     0
100
AcDb2dPolyline
 66
     1
 10
0.0
 20
0.0
 30
0.0
  0
VERTEX
  5
2AC
330
2AB
100
AcDbEntity
  8
Ebene 1
370
     0
100
AcDbVertex
100
AcDb2dVertex
 10
566.1474609375
 20
895.279296875
 30
0.0
  0
VERTEX
  5
2AD
330
2AB
100
AcDbEntity
  8
Ebene 1
370
     0
100
AcDbVertex
100
AcDb2dVertex
 10
565.970703125
 20
895.279296875
 30
0.0
  0
SEQEND
  5
2AE
330
2AB
100
AcDbEntity
  8
Ebene 1
370
     0
  0
POLYLINE
  5
2AF
330
3C
100
AcDbEntity
  8
Ebene 1
370
     0
100
AcDb2dPolyline
 66
     1
 10
0.0
 20
0.0
 30
0.0
  0
VERTEX
  5
2B0
330
2AF
100
AcDbEntity
  8
Ebene 1
370
     0
100
AcDbVertex
100
AcDb2dVertex
 10
565.7939453125
 20
895.279296875
 30
0.0
  0
VERTEX
  5
2B1
330
2AF
100
AcDbEntity
  8
Ebene 1
370
     0
100
AcDbVertex
100
AcDb2dVertex
 10
564.779296875
 20
895.279296875
 30
0.0
  0
SEQEND
  5
2B2
330
2AF
100
AcDbEntity
  8
Ebene 1
370
     0
  0
POLYLINE
  5
2B3
330
3C
100
AcDbEntity
  8
Ebene 1
370
     0
100
AcDb2dPolyline
 66
     1
 10
0.0
 20
0.0
 30
0.0
  0
VERTEX
  5
2B4
330
2B3
100
AcDbEntity
  8
Ebene 1
370
     0
100
AcDbVertex
100
AcDb2dVertex
 10
564.6025390625
 20
895.279296875
 30
0.0
  0
VERTEX
  5
2B5
330
2B3
100
AcDbEntity
  8
Ebene 1
370
     0
100
AcDbVertex
100
AcDb2dVertex
 10
564.4267578125
 20
895.279296875
 30
0.0
  0
SEQEND
  5
2B6
330
2B3
100
AcDbEntity
  8
Ebene 1
370
     0
  0
POLYLINE
  5
2B7
330
3C
100
AcDbEntity
  8
Ebene 1
370
     0
100
AcDb2dPolyline
 66
     1
 10
0.0
 20
0.0
 30
0.0
  0
VERTEX
  5
2B8
330
2B7
100
AcDbEntity
  8
Ebene 1
370
     0
100
AcDbVertex
100
AcDb2dVertex
 10
564.25
 20
895.279296875
 30
0.0
  0
VERTEX
  5
2B9
330
2B7
100
AcDbEntity
  8
Ebene 1
370
     0
100
AcDbVertex
100
AcDb2dVertex
 10
563.19140625
 20
895.279296875
 30
0.0
  0
SEQEND
  5
2BA
330
2B7
100
AcDbEntity
  8
Ebene 1
370
     0
  0
POLYLINE
  5
2BB
330
3C
100
AcDbEntity
  8
Ebene 1
370
     0
100
AcDb2dPolyline
 66
     1
 10
0.0
 20
0.0
 30
0.0
  0
VERTEX
  5
2BC
330
2BB
100
AcDbEntity
  8
Ebene 1
370
     0
100
AcDbVertex
100
AcDb2dVertex
 10
563.05859375
 20
895.279296875
 30
0.0
  0
VERTEX
  5
2BD
330
2BB
100
AcDbEntity
  8
Ebene 1
370
     0
100
AcDbVertex
100
AcDb2dVertex
 10
562.8828125
 20
895.279296875
 30
0.0
  0
SEQEND
  5
2BE
330
2BB
100
AcDbEntity
  8
Ebene 1
370
     0
  0
POLYLINE
  5
2BF
330
3C
100
AcDbEntity
  8
Ebene 1
370
     0
100
AcDb2dPolyline
 66
     1
 10
0.0
 20
0.0
 30
0.0
  0
VERTEX
  5
2C0
330
2BF
100
AcDbEntity
  8
Ebene 1
370
     0
100
AcDbVertex
100
AcDb2dVertex
 10
562.7060546875
 20
895.279296875
 30
0.0
  0
VERTEX
  5
2C1
330
2BF
100
AcDbEntity
  8
Ebene 1
370
     0
100
AcDbVertex
100
AcDb2dVertex
 10
561.6474609375
 20
895.279296875
 30
0.0
  0
SEQEND
  5
2C2
330
2BF
100
AcDbEntity
  8
Ebene 1
370
     0
  0
POLYLINE
  5
2C3
330
3C
100
AcDbEntity
  8
Ebene 1
370
     0
100
AcDb2dPolyline
 66
     1
 10
0.0
 20
0.0
 30
0.0
  0
VERTEX
  5
2C4
330
2C3
100
AcDbEntity
  8
Ebene 1
370
     0
100
AcDbVertex
100
AcDb2dVertex
 10
561.470703125
 20
895.279296875
 30
0.0
  0
VERTEX
  5
2C5
330
2C3
100
AcDbEntity
  8
Ebene 1
370
     0
100
AcDbVertex
100
AcDb2dVertex
 10
561.2939453125
 20
895.279296875
 30
0.0
  0
SEQEND
  5
2C6
330
2C3
100
AcDbEntity
  8
Ebene 1
370
     0
  0
POLYLINE
  5
2C7
330
3C
100
AcDbEntity
  8
Ebene 1
370
     0
100
AcDb2dPolyline
 66
     1
 10
0.0
 20
0.0
 30
0.0
  0
VERTEX
  5
2C8
330
2C7
100
AcDbEntity
  8
Ebene 1
370
     0
100
AcDbVertex
100
AcDb2dVertex
 10
561.1171875
 20
895.279296875
 30
0.0
  0
VERTEX
  5
2C9
330
2C7
100
AcDbEntity
  8
Ebene 1
370
     0
100
AcDbVertex
100
AcDb2dVertex
 10
560.5439453125
 20
895.279296875
 30
0.0
  0
SEQEND
  5
2CA
330
2C7
100
AcDbEntity
  8
Ebene 1
370
     0
  0
POLYLINE
  5
2CB
330
3C
100
AcDbEntity
  8
Ebene 1
370
     0
100
AcDb2dPolyline
 66
     1
 10
0.0
 20
0.0
 30
0.0
  0
VERTEX
  5
2CC
330
2CB
100
AcDbEntity
  8
Ebene 1
370
     0
100
AcDbVertex
100
AcDb2dVertex
 10
566.05859375
 20
900.7939453125
 30
0.0
  0
VERTEX
  5
2CD
330
2CB
100
AcDbEntity
  8
Ebene 1
370
     0
100
AcDbVertex
100
AcDb2dVertex
 10
566.05859375
 20
900.1767578125
 30
0.0
  0
SEQEND
  5
2CE
330
2CB
100
AcDbEntity
  8
Ebene 1
370
     0
  0
POLYLINE
  5
2CF
330
3C
100
AcDbEntity
  8
Ebene 1
370
     0
100
AcDb2dPolyline
 66
     1
 10
0.0
 20
0.0
 30
0.0
  0
VERTEX
  5
2D0
330
2CF
100
AcDbEntity
  8
Ebene 1
370
     0
100
AcDbVertex
100
AcDb2dVertex
 10
566.05859375
 20
900.0
 30
0.0
  0
VERTEX
  5
2D1
330
2CF
100
AcDbEntity
  8
Ebene 1
370
     0
100
AcDbVertex
100
AcDb2dVertex
 10
566.05859375
 20
899.8232421875
 30
0.0
  0
SEQEND
  5
2D2
330
2CF
100
AcDbEntity
  8
Ebene 1
370
     0
  0
POLYLINE
  5
2D3
330
3C
100
AcDbEntity
  8
Ebene 1
370
     0
100
AcDb2dPolyline
 66
     1
 10
0.0
 20
0.0
 30
0.0
  0
VERTEX
  5
2D4
330
2D3
100
AcDbEntity
  8
Ebene 1
370
     0
100
AcDbVertex
100
AcDb2dVertex
 10
566.05859375
 20
899.6474609375
 30
0.0
  0
VERTEX
  5
2D5
330
2D3
100
AcDbEntity
  8
Ebene 1
370
     0
100
AcDbVertex
100
AcDb2dVertex
 10
566.05859375
 20
898.6328125
 30
0.0
  0
SEQEND
  5
2D6
330
2D3
100
AcDbEntity
  8
Ebene 1
370
     0
  0
POLYLINE
  5
2D7
330
3C
100
AcDbEntity
  8
Ebene 1
370
     0
100
AcDb2dPolyline
 66
     1
 10
0.0
 20
0.0
 30
0.0
  0
VERTEX
  5
2D8
330
2D7
100
AcDbEntity
  8
Ebene 1
370
     0
100
AcDbVertex
100
AcDb2dVertex
 10
566.05859375
 20
898.4560546875
 30
0.0
  0
VERTEX
  5
2D9
330
2D7
100
AcDbEntity
  8
Ebene 1
370
     0
100
AcDbVertex
100
AcDb2dVertex
 10
566.05859375
 20
898.279296875
 30
0.0
  0
SEQEND
  5
2DA
330
2D7
100
AcDbEntity
  8
Ebene 1
370
     0
  0
POLYLINE
  5
2DB
330
3C
100
AcDbEntity
  8
Ebene 1
370
     0
100
AcDb2dPolyline
 66
     1
 10
0.0
 20
0.0
 30
0.0
  0
VERTEX
  5
2DC
330
2DB
100
AcDbEntity
  8
Ebene 1
370
     0
100
AcDbVertex
100
AcDb2dVertex
 10
566.05859375
 20
898.1025390625
 30
0.0
  0
VERTEX
  5
2DD
330
2DB
100
AcDbEntity
  8
Ebene 1
370
     0
100
AcDbVertex
100
AcDb2dVertex
 10
566.05859375
 20
897.0439453125
 30
0.0
  0
SEQEND
  5
2DE
330
2DB
100
AcDbEntity
  8
Ebene 1
370
     0
  0
POLYLINE
  5
2DF
330
3C
100
AcDbEntity
  8
Ebene 1
370
     0
100
AcDb2dPolyline
 66
     1
 10
0.0
 20
0.0
 30
0.0
  0
VERTEX
  5
2E0
330
2DF
100
AcDbEntity
  8
Ebene 1
370
     0
100
AcDbVertex
100
AcDb2dVertex
 10
566.05859375
 20
896.8671875
 30
0.0
  0
VERTEX
  5
2E1
330
2DF
100
AcDbEntity
  8
Ebene 1
370
     0
100
AcDbVertex
100
AcDb2dVertex
 10
566.05859375
 20
896.69140625
 30
0.0
  0
SEQEND
  5
2E2
330
2DF
100
AcDbEntity
  8
Ebene 1
370
     0
  0
POLYLINE
  5
2E3
330
3C
100
AcDbEntity
  8
Ebene 1
370
     0
100
AcDb2dPolyline
 66
     1
 10
0.0
 20
0.0
 30
0.0
  0
VERTEX
  5
2E4
330
2E3
100
AcDbEntity
  8
Ebene 1
370
     0
100
AcDbVertex
100
AcDb2dVertex
 10
566.05859375
 20
896.5146484375
 30
0.0
  0
VERTEX
  5
2E5
330
2E3
100
AcDbEntity
  8
Ebene 1
370
     0
100
AcDbVertex
100
AcDb2dVertex
 10
566.05859375
 20
895.5
 30
0.0
  0
SEQEND
  5
2E6
330
2E3
100
AcDbEntity
  8
Ebene 1
370
     0
  0
POLYLINE
  5
2E7
330
3C
100
AcDbEntity
  8
Ebene 1
370
     0
100
AcDb2dPolyline
 66
     1
 10
0.0
 20
0.0
 30
0.0
  0
VERTEX
  5
2E8
330
2E7
100
AcDbEntity
  8
Ebene 1
370
     0
100
AcDbVertex
100
AcDb2dVertex
 10
566.05859375
 20
895.3232421875
 30
0.0
  0
VERTEX
  5
2E9
330
2E7
100
AcDbEntity
  8
Ebene 1
370
     0
100
AcDbVertex
100
AcDb2dVertex
 10
566.05859375
 20
895.1474609375
 30
0.0
  0
SEQEND
  5
2EA
330
2E7
100
AcDbEntity
  8
Ebene 1
370
     0
  0
POLYLINE
  5
2EB
330
3C
100
AcDbEntity
  8
Ebene 1
370
     0
100
AcDb2dPolyline
 66
     1
 10
0.0
 20
0.0
 30
0.0
  0
VERTEX
  5
2EC
330
2EB
100
AcDbEntity
  8
Ebene 1
370
     0
100
AcDbVertex
100
AcDb2dVertex
 10
566.05859375
 20
894.970703125
 30
0.0
  0
VERTEX
  5
2ED
330
2EB
100
AcDbEntity
  8
Ebene 1
370
     0
100
AcDbVertex
100
AcDb2dVertex
 10
566.05859375
 20
893.9560546875
 30
0.0
  0
SEQEND
  5
2EE
330
2EB
100
AcDbEntity
  8
Ebene 1
370
     0
  0
POLYLINE
  5
2EF
330
3C
100
AcDbEntity
  8
Ebene 1
370
     0
100
AcDb2dPolyline
 66
     1
 10
0.0
 20
0.0
 30
0.0
  0
VERTEX
  5
2F0
330
2EF
100
AcDbEntity
  8
Ebene 1
370
     0
100
AcDbVertex
100
AcDb2dVertex
 10
566.05859375
 20
893.779296875
 30
0.0
  0
VERTEX
  5
2F1
330
2EF
100
AcDbEntity
  8
Ebene 1
370
     0
100
AcDbVertex
100
AcDb2dVertex
 10
566.05859375
 20
893.6025390625
 30
0.0
  0
SEQEND
  5
2F2
330
2EF
100
AcDbEntity
  8
Ebene 1
370
     0
  0
POLYLINE
  5
2F3
330
3C
100
AcDbEntity
  8
Ebene 1
370
     0
100
AcDb2dPolyline
 66
     1
 10
0.0
 20
0.0
 30
0.0
  0
VERTEX
  5
2F4
330
2F3
100
AcDbEntity
  8
Ebene 1
370
     0
100
AcDbVertex
100
AcDb2dVertex
 10
566.05859375
 20
893.4267578125
 30
0.0
  0
VERTEX
  5
2F5
330
2F3
100
AcDbEntity
  8
Ebene 1
370
     0
100
AcDbVertex
100
AcDb2dVertex
 10
566.05859375
 20
892.3671875
 30
0.0
  0
SEQEND
  5
2F6
330
2F3
100
AcDbEntity
  8
Ebene 1
370
     0
  0
POLYLINE
  5
2F7
330
3C
100
AcDbEntity
  8
Ebene 1
370
     0
100
AcDb2dPolyline
 66
     1
 10
0.0
 20
0.0
 30
0.0
  0
VERTEX
  5
2F8
330
2F7
100
AcDbEntity
  8
Ebene 1
370
     0
100
AcDbVertex
100
AcDb2dVertex
 10
566.05859375
 20
892.2353515625
 30
0.0
  0
VERTEX
  5
2F9
330
2F7
100
AcDbEntity
  8
Ebene 1
370
     0
100
AcDbVertex
100
AcDb2dVertex
 10
566.05859375
 20
892.05859375
 30
0.0
  0
SEQEND
  5
2FA
330
2F7
100
AcDbEntity
  8
Ebene 1
370
     0
  0
POLYLINE
  5
2FB
330
3C
100
AcDbEntity
  8
Ebene 1
370
     0
100
AcDb2dPolyline
 66
     1
 10
0.0
 20
0.0
 30
0.0
  0
VERTEX
  5
2FC
330
2FB
100
AcDbEntity
  8
Ebene 1
370
     0
100
AcDbVertex
100
AcDb2dVertex
 10
566.05859375
 20
891.8828125
 30
0.0
  0
VERTEX
  5
2FD
330
2FB
100
AcDbEntity
  8
Ebene 1
370
     0
100
AcDbVertex
100
AcDb2dVertex
 10
566.05859375
 20
890.8232421875
 30
0.0
  0
SEQEND
  5
2FE
330
2FB
100
AcDbEntity
  8
Ebene 1
370
     0
  0
POLYLINE
  5
2FF
330
3C
100
AcDbEntity
  8
Ebene 1
370
     0
100
AcDb2dPolyline
 66
     1
 10
0.0
 20
0.0
 30
0.0
  0
VERTEX
  5
300
330
2FF
100
AcDbEntity
  8
Ebene 1
370
     0
100
AcDbVertex
100
AcDb2dVertex
 10
566.05859375
 20
890.6474609375
 30
0.0
  0
VERTEX
  5
301
330
2FF
100
AcDbEntity
  8
Ebene 1
370
     0
100
AcDbVertex
100
AcDb2dVertex
 10
566.05859375
 20
890.470703125
 30
0.0
  0
SEQEND
  5
302
330
2FF
100
AcDbEntity
  8
Ebene 1
370
     0
  0
POLYLINE
  5
303
330
3C
100
AcDbEntity
  8
Ebene 1
370
     0
100
AcDb2dPolyline
 66
     1
 10
0.0
 20
0.0
 30
0.0
  0
VERTEX
  5
304
330
303
100
AcDbEntity
  8
Ebene 1
370
     0
100
AcDbVertex
100
AcDb2dVertex
 10
566.05859375
 20
890.2939453125
 30
0.0
  0
VERTEX
  5
305
330
303
100
AcDbEntity
  8
Ebene 1
370
     0
100
AcDbVertex
100
AcDb2dVertex
 10
566.05859375
 20
889.6767578125
 30
0.0
  0
SEQEND
  5
306
330
303
100
AcDbEntity
  8
Ebene 1
370
     0
  0
POLYLINE
  5
307
330
3C
100
AcDbEntity
  8
Ebene 1
370
     0
100
AcDb2dPolyline
 66
     1
 10
0.0
 20
0.0
 30
0.0
  0
VERTEX
  5
308
330
307
100
AcDbEntity
  8
Ebene 1
370
     0
100
AcDbVertex
100
AcDb2dVertex
 10
569.8525390625
 20
895.279296875
 30
0.0
  0
VERTEX
  5
309
330
307
100
AcDbEntity
  8
Ebene 1
370
     0
100
AcDbVertex
100
AcDb2dVertex
 10
569.80859375
 20
895.94140625
 30
0.0
  0
VERTEX
  5
30A
330
307
100
AcDbEntity
  8
Ebene 1
370
     0
100
AcDbVertex
100
AcDb2dVertex
 10
569.6328125
 20
896.55859375
 30
0.0
  0
VERTEX
  5
30B
330
307
100
AcDbEntity
  8
Ebene 1
370
     0
100
AcDbVertex
100
AcDb2dVertex
 10
569.3671875
 20
897.1328125
 30
0.0
  0
VERTEX
  5
30C
330
307
100
AcDbEntity
  8
Ebene 1
370
     0
100
AcDbVertex
100
AcDb2dVertex
 10
569.0146484375
 20
897.662109375
 30
0.0
  0
VERTEX
  5
30D
330
307
100
AcDbEntity
  8
Ebene 1
370
     0
100
AcDbVertex
100
AcDb2dVertex
 10
568.5732421875
 20
898.1474609375
 30
0.0
  0
VERTEX
  5
30E
330
307
100
AcDbEntity
  8
Ebene 1
370
     0
100
AcDbVertex
100
AcDb2dVertex
 10
568.0439453125
 20
898.5
 30
0.0
  0
VERTEX
  5
30F
330
307
100
AcDbEntity
  8
Ebene 1
370
     0
100
AcDbVertex
100
AcDb2dVertex
 10
567.470703125
 20
898.80859375
 30
0.0
  0
VERTEX
  5
310
330
307
100
AcDbEntity
  8
Ebene 1
370
     0
100
AcDbVertex
100
AcDb2dVertex
 10
566.8525390625
 20
898.9853515625
 30
0.0
  0
VERTEX
  5
311
330
307
100
AcDbEntity
  8
Ebene 1
370
     0
100
AcDbVertex
100
AcDb2dVertex
 10
566.2353515625
 20
899.0732421875
 30
0.0
  0
VERTEX
  5
312
330
307
100
AcDbEntity
  8
Ebene 1
370
     0
100
AcDbVertex
100
AcDb2dVertex
 10
565.5732421875
 20
899.029296875
 30
0.0
  0
VERTEX
  5
313
330
307
100
AcDbEntity
  8
Ebene 1
370
     0
100
AcDbVertex
100
AcDb2dVertex
 10
564.9560546875
 20
898.8974609375
 30
0.0
  0
VERTEX
  5
314
330
307
100
AcDbEntity
  8
Ebene 1
370
     0
100
AcDbVertex
100
AcDb2dVertex
 10
564.337890625
 20
898.6767578125
 30
0.0
  0
VERTEX
  5
315
330
307
100
AcDbEntity
  8
Ebene 1
370
     0
100
AcDbVertex
100
AcDb2dVertex
 10
563.80859375
 20
898.3232421875
 30
0.0
  0
VERTEX
  5
316
330
307
100
AcDbEntity
  8
Ebene 1
370
     0
100
AcDbVertex
100
AcDb2dVertex
 10
563.3232421875
 20
897.9267578125
 30
0.0
  0
VERTEX
  5
317
330
307
100
AcDbEntity
  8
Ebene 1
370
     0
100
AcDbVertex
100
AcDb2dVertex
 10
562.9267578125
 20
897.3974609375
 30
0.0
  0
VERTEX
  5
318
330
307
100
AcDbEntity
  8
Ebene 1
370
     0
100
AcDbVertex
100
AcDb2dVertex
 10
562.6171875
 20
896.8232421875
 30
0.0
  0
VERTEX
  5
319
330
307
100
AcDbEntity
  8
Ebene 1
370
     0
100
AcDbVertex
100
AcDb2dVertex
 10
562.3974609375
 20
896.25
 30
0.0
  0
VERTEX
  5
31A
330
307
100
AcDbEntity
  8
Ebene 1
370
     0
100
AcDbVertex
100
AcDb2dVertex
 10
562.2646484375
 20
895.587890625
 30
0.0
  0
VERTEX
  5
31B
330
307
100
AcDbEntity
  8
Ebene 1
370
     0
100
AcDbVertex
100
AcDb2dVertex
 10
562.2646484375
 20
894.970703125
 30
0.0
  0
VERTEX
  5
31C
330
307
100
AcDbEntity
  8
Ebene 1
370
     0
100
AcDbVertex
100
AcDb2dVertex
 10
562.3974609375
 20
894.30859375
 30
0.0
  0
VERTEX
  5
31D
330
307
100
AcDbEntity
  8
Ebene 1
370
     0
100
AcDbVertex
100
AcDb2dVertex
 10
562.6171875
 20
893.7353515625
 30
0.0
  0
VERTEX
  5
31E
330
307
100
AcDbEntity
  8
Ebene 1
370
     0
100
AcDbVertex
100
AcDb2dVertex
 10
562.9267578125
 20
893.162109375
 30
0.0
  0
VERTEX
  5
31F
330
307
100
AcDbEntity
  8
Ebene 1
370
     0
100
AcDbVertex
100
AcDb2dVertex
 10
563.3232421875
 20
892.6328125
 30
0.0
  0
VERTEX
  5
320
330
307
100
AcDbEntity
  8
Ebene 1
370
     0
100
AcDbVertex
100
AcDb2dVertex
 10
563.80859375
 20
892.2353515625
 30
0.0
  0
VERTEX
  5
321
330
307
100
AcDbEntity
  8
Ebene 1
370
     0
100
AcDbVertex
100
AcDb2dVertex
 10
564.337890625
 20
891.8828125
 30
0.0
  0
VERTEX
  5
322
330
307
100
AcDbEntity
  8
Ebene 1
370
     0
100
AcDbVertex
100
AcDb2dVertex
 10
564.9560546875
 20
891.662109375
 30
0.0
  0
VERTEX
  5
323
330
307
100
AcDbEntity
  8
Ebene 1
370
     0
100
AcDbVertex
100
AcDb2dVertex
 10
565.5732421875
 20
891.529296875
 30
0.0
  0
VERTEX
  5
324
330
307
100
AcDbEntity
  8
Ebene 1
370
     0
100
AcDbVertex
100
AcDb2dVertex
 10
566.2353515625
 20
891.4853515625
 30
0.0
  0
VERTEX
  5
325
330
307
100
AcDbEntity
  8
Ebene 1
370
     0
100
AcDbVertex
100
AcDb2dVertex
 10
566.8525390625
 20
891.5732421875
 30
0.0
  0
VERTEX
  5
326
330
307
100
AcDbEntity
  8
Ebene 1
370
     0
100
AcDbVertex
100
AcDb2dVertex
 10
567.470703125
 20
891.75
 30
0.0
  0
VERTEX
  5
327
330
307
100
AcDbEntity
  8
Ebene 1
370
     0
100
AcDbVertex
100
AcDb2dVertex
 10
568.0439453125
 20
892.05859375
 30
0.0
  0
VERTEX
  5
328
330
307
100
AcDbEntity
  8
Ebene 1
370
     0
100
AcDbVertex
100
AcDb2dVertex
 10
568.5732421875
 20
892.412109375
 30
0.0
  0
VERTEX
  5
329
330
307
100
AcDbEntity
  8
Ebene 1
370
     0
100
AcDbVertex
100
AcDb2dVertex
 10
569.0146484375
 20
892.8974609375
 30
0.0
  0
VERTEX
  5
32A
330
307
100
AcDbEntity
  8
Ebene 1
370
     0
100
AcDbVertex
100
AcDb2dVertex
 10
569.3671875
 20
893.4267578125
 30
0.0
  0
VERTEX
  5
32B
330
307
100
AcDbEntity
  8
Ebene 1
370
     0
100
AcDbVertex
100
AcDb2dVertex
 10
569.6328125
 20
894.0
 30
0.0
  0
VERTEX
  5
32C
330
307
100
AcDbEntity
  8
Ebene 1
370
     0
100
AcDbVertex
100
AcDb2dVertex
 10
569.80859375
 20
894.6171875
 30
0.0
  0
VERTEX
  5
32D
330
307
100
AcDbEntity
  8
Ebene 1
370
     0
100
AcDbVertex
100
AcDb2dVertex
 10
569.8525390625
 20
895.279296875
 30
0.0
  0
VERTEX
  5
32E
330
307
100
AcDbEntity
  8
Ebene 1
370
     0
100
AcDbVertex
100
AcDb2dVertex
 10
569.8525390625
 20
895.279296875
 30
0.0
  0
SEQEND
  5
32F
330
307
100
AcDbEntity
  8
Ebene 1
370
     0
  0
POLYLINE
  5
330
330
3C
100
AcDbEntity
  8
Ebene 1
370
     0
100
AcDb2dPolyline
 66
     1
 10
0.0
 20
0.0
 30
0.0
  0
VERTEX
  5
331
330
330
100
AcDbEntity
  8
Ebene 1
370
     0
100
AcDbVertex
100
AcDb2dVertex
 10
584.720703125
 20
881.4267578125
 30
0.0
  0
VERTEX
  5
332
330
330
100
AcDbEntity
  8
Ebene 1
370
     0
100
AcDbVertex
100
AcDb2dVertex
 10
584.720703125
 20
972.0439453125
 30
0.0
  0
SEQEND
  5
333
330
330
100
AcDbEntity
  8
Ebene 1
370
     0
  0
POLYLINE
  5
334
330
3C
100
AcDbEntity
  8
Ebene 1
370
     0
100
AcDb2dPolyline
 66
     1
 10
0.0
 20
0.0
 30
0.0
  0
VERTEX
  5
335
330
334
100
AcDbEntity
  8
Ebene 1
370
     0
100
AcDbVertex
100
AcDb2dVertex
 10
469.92578125
 20
881.4267578125
 30
0.0
  0
VERTEX
  5
336
330
334
100
AcDbEntity
  8
Ebene 1
370
     0
100
AcDbVertex
100
AcDb2dVertex
 10
469.92578125
 20
972.0439453125
 30
0.0
  0
SEQEND
  5
337
330
334
100
AcDbEntity
  8
Ebene 1
370
     0
  0
POLYLINE
  5
338
330
3C
100
AcDbEntity
  8
Ebene 1
370
     0
100
AcDb2dPolyline
 66
     1
 10
0.0
 20
0.0
 30
0.0
  0
VERTEX
  5
339
330
338
100
AcDbEntity
  8
Ebene 1
370
     0
100
AcDbVertex
100
AcDb2dVertex
 10
652.529296875
 20
925.720703125
 30
0.0
  0
VERTEX
  5
33A
330
338
100
AcDbEntity
  8
Ebene 1
370
     0
100
AcDbVertex
100
AcDb2dVertex
 10
652.529296875
 20
881.4267578125
 30
0.0
  0
SEQEND
  5
33B
330
338
100
AcDbEntity
  8
Ebene 1
370
     0
  0
POLYLINE
  5
33C
330
3C
100
AcDbEntity
  8
Ebene 1
370
     0
100
AcDb2dPolyline
 66
     1
 10
0.0
 20
0.0
 30
0.0
  0
VERTEX
  5
33D
330
33C
100
AcDbEntity
  8
Ebene 1
370
     0
100
AcDbVertex
100
AcDb2dVertex
 10
658.087890625
 20
925.720703125
 30
0.0
  0
VERTEX
  5
33E
330
33C
100
AcDbEntity
  8
Ebene 1
370
     0
100
AcDbVertex
100
AcDb2dVertex
 10
658.087890625
 20
881.4267578125
 30
0.0
  0
SEQEND
  5
33F
330
33C
100
AcDbEntity
  8
Ebene 1
370
     0
  0
POLYLINE
  5
340
330
3C
100
AcDbEntity
  8
Ebene 1
370
     0
100
AcDb2dPolyline
 66
     1
 10
0.0
 20
0.0
 30
0.0
  0
VERTEX
  5
341
330
340
100
AcDbEntity
  8
Ebene 1
370
     0
100
AcDbVertex
100
AcDb2dVertex
 10
663.6025390625
 20
936.7939453125
 30
0.0
  0
VERTEX
  5
342
330
340
100
AcDbEntity
  8
Ebene 1
370
     0
100
AcDbVertex
100
AcDb2dVertex
 10
761.80859375
 20
936.7939453125
 30
0.0
  0
SEQEND
  5
343
330
340
100
AcDbEntity
  8
Ebene 1
370
     0
  0
POLYLINE
  5
344
330
3C
100
AcDbEntity
  8
Ebene 1
370
     0
100
AcDb2dPolyline
 66
     1
 10
0.0
 20
0.0
 30
0.0
  0
VERTEX
  5
345
330
344
100
AcDbEntity
  8
Ebene 1
370
     0
100
AcDbVertex
100
AcDb2dVertex
 10
663.6025390625
 20
931.2353515625
 30
0.0
  0
VERTEX
  5
346
330
344
100
AcDbEntity
  8
Ebene 1
370
     0
100
AcDbVertex
100
AcDb2dVertex
 10
761.80859375
 20
931.2353515625
 30
0.0
  0
SEQEND
  5
347
330
344
100
AcDbEntity
  8
Ebene 1
370
     0
  0
POLYLINE
  5
348
330
3C
100
AcDbEntity
  8
Ebene 1
370
     0
100
AcDb2dPolyline
 66
     1
 10
0.0
 20
0.0
 30
0.0
  0
VERTEX
  5
349
330
348
100
AcDbEntity
  8
Ebene 1
370
     0
100
AcDbVertex
100
AcDb2dVertex
 10
663.6025390625
 20
931.2353515625
 30
0.0
  0
VERTEX
  5
34A
330
348
100
AcDbEntity
  8
Ebene 1
370
     0
100
AcDbVertex
100
AcDb2dVertex
 10
662.80859375
 20
931.19140625
 30
0.0
  0
VERTEX
  5
34B
330
348
100
AcDbEntity
  8
Ebene 1
370
     0
100
AcDbVertex
100
AcDb2dVertex
 10
662.05859375
 20
931.0146484375
 30
0.0
  0
VERTEX
  5
34C
330
348
100
AcDbEntity
  8
Ebene 1
370
     0
100
AcDbVertex
100
AcDb2dVertex
 10
661.30859375
 20
930.75
 30
0.0
  0
VERTEX
  5
34D
330
348
100
AcDbEntity
  8
Ebene 1
370
     0
100
AcDbVertex
100
AcDb2dVertex
 10
660.6025390625
 20
930.3525390625
 30
0.0
  0
VERTEX
  5
34E
330
348
100
AcDbEntity
  8
Ebene 1
370
     0
100
AcDbVertex
100
AcDb2dVertex
 10
659.9853515625
 20
929.8671875
 30
0.0
  0
VERTEX
  5
34F
330
348
100
AcDbEntity
  8
Ebene 1
370
     0
100
AcDbVertex
100
AcDb2dVertex
 10
659.4560546875
 20
929.337890625
 30
0.0
  0
VERTEX
  5
350
330
348
100
AcDbEntity
  8
Ebene 1
370
     0
100
AcDbVertex
100
AcDb2dVertex
 10
658.970703125
 20
928.720703125
 30
0.0
  0
VERTEX
  5
351
330
348
100
AcDbEntity
  8
Ebene 1
370
     0
100
AcDbVertex
100
AcDb2dVertex
 10
658.5732421875
 20
928.0146484375
 30
0.0
  0
VERTEX
  5
352
330
348
100
AcDbEntity
  8
Ebene 1
370
     0
100
AcDbVertex
100
AcDb2dVertex
 10
658.30859375
 20
927.2646484375
 30
0.0
  0
VERTEX
  5
353
330
348
100
AcDbEntity
  8
Ebene 1
370
     0
100
AcDbVertex
100
AcDb2dVertex
 10
658.1328125
 20
926.5146484375
 30
0.0
  0
VERTEX
  5
354
330
348
100
AcDbEntity
  8
Ebene 1
370
     0
100
AcDbVertex
100
AcDb2dVertex
 10
658.087890625
 20
925.720703125
 30
0.0
  0
SEQEND
  5
355
330
348
100
AcDbEntity
  8
Ebene 1
370
     0
  0
POLYLINE
  5
356
330
3C
100
AcDbEntity
  8
Ebene 1
370
     0
100
AcDb2dPolyline
 66
     1
 10
0.0
 20
0.0
 30
0.0
  0
VERTEX
  5
357
330
356
100
AcDbEntity
  8
Ebene 1
370
     0
100
AcDbVertex
100
AcDb2dVertex
 10
663.6025390625
 20
936.75
 30
0.0
  0
VERTEX
  5
358
330
356
100
AcDbEntity
  8
Ebene 1
370
     0
100
AcDbVertex
100
AcDb2dVertex
 10
662.4560546875
 20
936.7060546875
 30
0.0
  0
VERTEX
  5
359
330
356
100
AcDbEntity
  8
Ebene 1
370
     0
100
AcDbVertex
100
AcDb2dVertex
 10
661.30859375
 20
936.529296875
 30
0.0
  0
VERTEX
  5
35A
330
356
100
AcDbEntity
  8
Ebene 1
370
     0
100
AcDbVertex
100
AcDb2dVertex
 10
660.2060546875
 20
936.220703125
 30
0.0
  0
VERTEX
  5
35B
330
356
100
AcDbEntity
  8
Ebene 1
370
     0
100
AcDbVertex
100
AcDb2dVertex
 10
659.1025390625
 20
935.779296875
 30
0.0
  0
VERTEX
  5
35C
330
356
100
AcDbEntity
  8
Ebene 1
370
     0
100
AcDbVertex
100
AcDb2dVertex
 10
658.087890625
 20
935.2939453125
 30
0.0
  0
VERTEX
  5
35D
330
356
100
AcDbEntity
  8
Ebene 1
370
     0
100
AcDbVertex
100
AcDb2dVertex
 10
657.1171875
 20
934.63232421875
 30
0.0
  0
VERTEX
  5
35E
330
356
100
AcDbEntity
  8
Ebene 1
370
     0
100
AcDbVertex
100
AcDb2dVertex
 10
656.2353515625
 20
933.92626953125
 30
0.0
  0
VERTEX
  5
35F
330
356
100
AcDbEntity
  8
Ebene 1
370
     0
100
AcDbVertex
100
AcDb2dVertex
 10
655.3974609375
 20
933.08837890625
 30
0.0
  0
VERTEX
  5
360
330
356
100
AcDbEntity
  8
Ebene 1
370
     0
100
AcDbVertex
100
AcDb2dVertex
 10
654.69140625
 20
932.2060546875
 30
0.0
  0
VERTEX
  5
361
330
356
100
AcDbEntity
  8
Ebene 1
370
     0
100
AcDbVertex
100
AcDb2dVertex
 10
654.029296875
 20
931.2353515625
 30
0.0
  0
VERTEX
  5
362
330
356
100
AcDbEntity
  8
Ebene 1
370
     0
100
AcDbVertex
100
AcDb2dVertex
 10
653.5439453125
 20
930.220703125
 30
0.0
  0
VERTEX
  5
363
330
356
100
AcDbEntity
  8
Ebene 1
370
     0
100
AcDbVertex
100
AcDb2dVertex
 10
653.1025390625
 20
929.1171875
 30
0.0
  0
VERTEX
  5
364
330
356
100
AcDbEntity
  8
Ebene 1
370
     0
100
AcDbVertex
100
AcDb2dVertex
 10
652.7939453125
 20
928.0146484375
 30
0.0
  0
VERTEX
  5
365
330
356
100
AcDbEntity
  8
Ebene 1
370
     0
100
AcDbVertex
100
AcDb2dVertex
 10
652.6171875
 20
926.8671875
 30
0.0
  0
VERTEX
  5
366
330
356
100
AcDbEntity
  8
Ebene 1
370
     0
100
AcDbVertex
100
AcDb2dVertex
 10
652.5732421875
 20
925.720703125
 30
0.0
  0
SEQEND
  5
367
330
356
100
AcDbEntity
  8
Ebene 1
370
     0
  0
POLYLINE
  5
368
330
3C
100
AcDbEntity
  8
Ebene 1
370
     0
100
AcDb2dPolyline
 66
     1
 10
0.0
 20
0.0
 30
0.0
  0
VERTEX
  5
369
330
368
100
AcDbEntity
  8
Ebene 1
370
     0
100
AcDbVertex
100
AcDb2dVertex
 10
767.3232421875
 20
942.30859375
 30
0.0
  0
VERTEX
  5
36A
330
368
100
AcDbEntity
  8
Ebene 1
370
     0
100
AcDbVertex
100
AcDb2dVertex
 10
767.3232421875
 20
961.0146484375
 30
0.0
  0
SEQEND
  5
36B
330
368
100
AcDbEntity
  8
Ebene 1
370
     0
  0
POLYLINE
  5
36C
330
3C
100
AcDbEntity
  8
Ebene 1
370
     0
100
AcDb2dPolyline
 66
     1
 10
0.0
 20
0.0
 30
0.0
  0
VERTEX
  5
36D
330
36C
100
AcDbEntity
  8
Ebene 1
370
     0
100
AcDbVertex
100
AcDb2dVertex
 10
772.8828125
 20
942.30859375
 30
0.0
  0
VERTEX
  5
36E
330
36C
100
AcDbEntity
  8
Ebene 1
370
     0
100
AcDbVertex
100
AcDb2dVertex
 10
772.8828125
 20
961.0146484375
 30
0.0
  0
SEQEND
  5
36F
330
36C
100
AcDbEntity
  8
Ebene 1
370
     0
  0
POLYLINE
  5
370
330
3C
100
AcDbEntity
  8
Ebene 1
370
     0
100
AcDb2dPolyline
 66
     1
 10
0.0
 20
0.0
 30
0.0
  0
VERTEX
  5
371
330
370
100
AcDbEntity
  8
Ebene 1
370
     0
100
AcDbVertex
100
AcDb2dVertex
 10
761.80859375
 20
936.7939453125
 30
0.0
  0
VERTEX
  5
372
330
370
100
AcDbEntity
  8
Ebene 1
370
     0
100
AcDbVertex
100
AcDb2dVertex
 10
762.6025390625
 20
936.83837890625
 30
0.0
  0
VERTEX
  5
373
330
370
100
AcDbEntity
  8
Ebene 1
370
     0
100
AcDbVertex
100
AcDb2dVertex
 10
763.3525390625
 20
937.0146484375
 30
0.0
  0
VERTEX
  5
374
330
370
100
AcDbEntity
  8
Ebene 1
370
     0
100
AcDbVertex
100
AcDb2dVertex
 10
764.1025390625
 20
937.279296875
 30
0.0
  0
VERTEX
  5
375
330
370
100
AcDbEntity
  8
Ebene 1
370
     0
100
AcDbVertex
100
AcDb2dVertex
 10
764.80859375
 20
937.67626953125
 30
0.0
  0
VERTEX
  5
376
330
370
100
AcDbEntity
  8
Ebene 1
370
     0
100
AcDbVertex
100
AcDb2dVertex
 10
765.4267578125
 20
938.16162109375
 30
0.0
  0
VERTEX
  5
377
330
370
100
AcDbEntity
  8
Ebene 1
370
     0
100
AcDbVertex
100
AcDb2dVertex
 10
765.9560546875
 20
938.69140625
 30
0.0
  0
VERTEX
  5
378
330
370
100
AcDbEntity
  8
Ebene 1
370
     0
100
AcDbVertex
100
AcDb2dVertex
 10
766.44140625
 20
939.30859375
 30
0.0
  0
VERTEX
  5
379
330
370
100
AcDbEntity
  8
Ebene 1
370
     0
100
AcDbVertex
100
AcDb2dVertex
 10
766.837890625
 20
940.0146484375
 30
0.0
  0
VERTEX
  5
37A
330
370
100
AcDbEntity
  8
Ebene 1
370
     0
100
AcDbVertex
100
AcDb2dVertex
 10
767.1025390625
 20
940.7646484375
 30
0.0
  0
VERTEX
  5
37B
330
370
100
AcDbEntity
  8
Ebene 1
370
     0
100
AcDbVertex
100
AcDb2dVertex
 10
767.279296875
 20
941.5146484375
 30
0.0
  0
VERTEX
  5
37C
330
370
100
AcDbEntity
  8
Ebene 1
370
     0
100
AcDbVertex
100
AcDb2dVertex
 10
767.3232421875
 20
942.30859375
 30
0.0
  0
SEQEND
  5
37D
330
370
100
AcDbEntity
  8
Ebene 1
370
     0
  0
POLYLINE
  5
37E
330
3C
100
AcDbEntity
  8
Ebene 1
370
     0
100
AcDb2dPolyline
 66
     1
 10
0.0
 20
0.0
 30
0.0
  0
VERTEX
  5
37F
330
37E
100
AcDbEntity
  8
Ebene 1
370
     0
100
AcDbVertex
100
AcDb2dVertex
 10
761.80859375
 20
931.279296875
 30
0.0
  0
VERTEX
  5
380
330
37E
100
AcDbEntity
  8
Ebene 1
370
     0
100
AcDbVertex
100
AcDb2dVertex
 10
762.9560546875
 20
931.3232421875
 30
0.0
  0
VERTEX
  5
381
330
37E
100
AcDbEntity
  8
Ebene 1
370
     0
100
AcDbVertex
100
AcDb2dVertex
 10
764.1025390625
 20
931.5
 30
0.0
  0
VERTEX
  5
382
330
37E
100
AcDbEntity
  8
Ebene 1
370
     0
100
AcDbVertex
100
AcDb2dVertex
 10
765.2060546875
 20
931.80859375
 30
0.0
  0
VERTEX
  5
383
330
37E
100
AcDbEntity
  8
Ebene 1
370
     0
100
AcDbVertex
100
AcDb2dVertex
 10
766.30859375
 20
932.25
 30
0.0
  0
VERTEX
  5
384
330
37E
100
AcDbEntity
  8
Ebene 1
370
     0
100
AcDbVertex
100
AcDb2dVertex
 10
767.3232421875
 20
932.7353515625
 30
0.0
  0
VERTEX
  5
385
330
37E
100
AcDbEntity
  8
Ebene 1
370
     0
100
AcDbVertex
100
AcDb2dVertex
 10
768.2939453125
 20
933.39697265625
 30
0.0
  0
VERTEX
  5
386
330
37E
100
AcDbEntity
  8
Ebene 1
370
     0
100
AcDbVertex
100
AcDb2dVertex
 10
769.1767578125
 20
934.10302734375
 30
0.0
  0
VERTEX
  5
387
330
37E
100
AcDbEntity
  8
Ebene 1
370
     0
100
AcDbVertex
100
AcDb2dVertex
 10
770.0146484375
 20
934.94140625
 30
0.0
  0
VERTEX
  5
388
330
37E
100
AcDbEntity
  8
Ebene 1
370
     0
100
AcDbVertex
100
AcDb2dVertex
 10
770.720703125
 20
935.82373046875
 30
0.0
  0
VERTEX
  5
389
330
37E
100
AcDbEntity
  8
Ebene 1
370
     0
100
AcDbVertex
100
AcDb2dVertex
 10
771.3828125
 20
936.7939453125
 30
0.0
  0
VERTEX
  5
38A
330
37E
100
AcDbEntity
  8
Ebene 1
370
     0
100
AcDbVertex
100
AcDb2dVertex
 10
771.8671875
 20
937.80859375
 30
0.0
  0
VERTEX
  5
38B
330
37E
100
AcDbEntity
  8
Ebene 1
370
     0
100
AcDbVertex
100
AcDb2dVertex
 10
772.30859375
 20
938.91162109375
 30
0.0
  0
VERTEX
  5
38C
330
37E
100
AcDbEntity
  8
Ebene 1
370
     0
100
AcDbVertex
100
AcDb2dVertex
 10
772.6171875
 20
940.0146484375
 30
0.0
  0
VERTEX
  5
38D
330
37E
100
AcDbEntity
  8
Ebene 1
370
     0
100
AcDbVertex
100
AcDb2dVertex
 10
772.7939453125
 20
941.16162109375
 30
0.0
  0
VERTEX
  5
38E
330
37E
100
AcDbEntity
  8
Ebene 1
370
     0
100
AcDbVertex
100
AcDb2dVertex
 10
772.837890625
 20
942.30859375
 30
0.0
  0
SEQEND
  5
38F
330
37E
100
AcDbEntity
  8
Ebene 1
370
     0
  0
POLYLINE
  5
390
330
3C
100
AcDbEntity
  8
Ebene 1
370
     0
100
AcDb2dPolyline
 66
     1
 10
0.0
 20
0.0
 30
0.0
  0
VERTEX
  5
391
330
390
100
AcDbEntity
  8
Ebene 1
370
     0
100
AcDbVertex
100
AcDb2dVertex
 10
652.529296875
 20
891.5732421875
 30
0.0
  0
VERTEX
  5
392
330
390
100
AcDbEntity
  8
Ebene 1
370
     0
100
AcDbVertex
100
AcDb2dVertex
 10
658.087890625
 20
891.5732421875
 30
0.0
  0
SEQEND
  5
393
330
390
100
AcDbEntity
  8
Ebene 1
370
     0
  0
POLYLINE
  5
394
330
3C
100
AcDbEntity
  8
Ebene 1
370
     0
100
AcDb2dPolyline
 66
     1
 10
0.0
 20
0.0
 30
0.0
  0
VERTEX
  5
395
330
394
100
AcDbEntity
  8
Ebene 1
370
     0
100
AcDbVertex
100
AcDb2dVertex
 10
652.529296875
 20
898.94140625
 30
0.0
  0
VERTEX
  5
396
330
394
100
AcDbEntity
  8
Ebene 1
370
     0
100
AcDbVertex
100
AcDb2dVertex
 10
658.087890625
 20
898.94140625
 30
0.0
  0
SEQEND
  5
397
330
394
100
AcDbEntity
  8
Ebene 1
370
     0
  0
POLYLINE
  5
398
330
3C
100
AcDbEntity
  8
Ebene 1
370
     0
100
AcDb2dPolyline
 66
     1
 10
0.0
 20
0.0
 30
0.0
  0
VERTEX
  5
399
330
398
100
AcDbEntity
  8
Ebene 1
370
     0
100
AcDbVertex
100
AcDb2dVertex
 10
652.529296875
 20
915.1328125
 30
0.0
  0
VERTEX
  5
39A
330
398
100
AcDbEntity
  8
Ebene 1
370
     0
100
AcDbVertex
100
AcDb2dVertex
 10
658.087890625
 20
915.1328125
 30
0.0
  0
SEQEND
  5
39B
330
398
100
AcDbEntity
  8
Ebene 1
370
     0
  0
POLYLINE
  5
39C
330
3C
100
AcDbEntity
  8
Ebene 1
370
     0
100
AcDb2dPolyline
 66
     1
 10
0.0
 20
0.0
 30
0.0
  0
VERTEX
  5
39D
330
39C
100
AcDbEntity
  8
Ebene 1
370
     0
100
AcDbVertex
100
AcDb2dVertex
 10
652.529296875
 20
922.4560546875
 30
0.0
  0
VERTEX
  5
39E
330
39C
100
AcDbEntity
  8
Ebene 1
370
     0
100
AcDbVertex
100
AcDb2dVertex
 10
658.087890625
 20
922.4560546875
 30
0.0
  0
SEQEND
  5
39F
330
39C
100
AcDbEntity
  8
Ebene 1
370
     0
  0
POLYLINE
  5
3A0
330
3C
100
AcDbEntity
  8
Ebene 1
370
     0
100
AcDb2dPolyline
 66
     1
 10
0.0
 20
0.0
 30
0.0
  0
VERTEX
  5
3A1
330
3A0
100
AcDbEntity
  8
Ebene 1
370
     0
100
AcDbVertex
100
AcDb2dVertex
 10
652.529296875
 20
881.4267578125
 30
0.0
  0
VERTEX
  5
3A2
330
3A0
100
AcDbEntity
  8
Ebene 1
370
     0
100
AcDbVertex
100
AcDb2dVertex
 10
658.087890625
 20
881.4267578125
 30
0.0
  0
SEQEND
  5
3A3
330
3A0
100
AcDbEntity
  8
Ebene 1
370
     0
  0
POLYLINE
  5
3A4
330
3C
100
AcDbEntity
  8
Ebene 1
370
     0
100
AcDb2dPolyline
 66
     1
 10
0.0
 20
0.0
 30
0.0
  0
VERTEX
  5
3A5
330
3A4
100
AcDbEntity
  8
Ebene 1
370
     0
100
AcDbVertex
100
AcDb2dVertex
 10
645.25
 20
918.7939453125
 30
0.0
  0
VERTEX
  5
3A6
330
3A4
100
AcDbEntity
  8
Ebene 1
370
     0
100
AcDbVertex
100
AcDb2dVertex
 10
645.6025390625
 20
918.7939453125
 30
0.0
  0
SEQEND
  5
3A7
330
3A4
100
AcDbEntity
  8
Ebene 1
370
     0
  0
POLYLINE
  5
3A8
330
3C
100
AcDbEntity
  8
Ebene 1
370
     0
100
AcDb2dPolyline
 66
     1
 10
0.0
 20
0.0
 30
0.0
  0
VERTEX
  5
3A9
330
3A8
100
AcDbEntity
  8
Ebene 1
370
     0
100
AcDbVertex
100
AcDb2dVertex
 10
645.779296875
 20
918.7939453125
 30
0.0
  0
VERTEX
  5
3AA
330
3A8
100
AcDbEntity
  8
Ebene 1
370
     0
100
AcDbVertex
100
AcDb2dVertex
 10
646.1328125
 20
918.7939453125
 30
0.0
  0
SEQEND
  5
3AB
330
3A8
100
AcDbEntity
  8
Ebene 1
370
     0
  0
POLYLINE
  5
3AC
330
3C
100
AcDbEntity
  8
Ebene 1
370
     0
100
AcDb2dPolyline
 66
     1
 10
0.0
 20
0.0
 30
0.0
  0
VERTEX
  5
3AD
330
3AC
100
AcDbEntity
  8
Ebene 1
370
     0
100
AcDbVertex
100
AcDb2dVertex
 10
646.30859375
 20
918.7939453125
 30
0.0
  0
VERTEX
  5
3AE
330
3AC
100
AcDbEntity
  8
Ebene 1
370
     0
100
AcDbVertex
100
AcDb2dVertex
 10
646.6171875
 20
918.7939453125
 30
0.0
  0
SEQEND
  5
3AF
330
3AC
100
AcDbEntity
  8
Ebene 1
370
     0
  0
POLYLINE
  5
3B0
330
3C
100
AcDbEntity
  8
Ebene 1
370
     0
100
AcDb2dPolyline
 66
     1
 10
0.0
 20
0.0
 30
0.0
  0
VERTEX
  5
3B1
330
3B0
100
AcDbEntity
  8
Ebene 1
370
     0
100
AcDbVertex
100
AcDb2dVertex
 10
646.7939453125
 20
918.7939453125
 30
0.0
  0
VERTEX
  5
3B2
330
3B0
100
AcDbEntity
  8
Ebene 1
370
     0
100
AcDbVertex
100
AcDb2dVertex
 10
647.1474609375
 20
918.7939453125
 30
0.0
  0
SEQEND
  5
3B3
330
3B0
100
AcDbEntity
  8
Ebene 1
370
     0
  0
POLYLINE
  5
3B4
330
3C
100
AcDbEntity
  8
Ebene 1
370
     0
100
AcDb2dPolyline
 66
     1
 10
0.0
 20
0.0
 30
0.0
  0
VERTEX
  5
3B5
330
3B4
100
AcDbEntity
  8
Ebene 1
370
     0
100
AcDbVertex
100
AcDb2dVertex
 10
647.3232421875
 20
918.7939453125
 30
0.0
  0
VERTEX
  5
3B6
330
3B4
100
AcDbEntity
  8
Ebene 1
370
     0
100
AcDbVertex
100
AcDb2dVertex
 10
647.6767578125
 20
918.7939453125
 30
0.0
  0
SEQEND
  5
3B7
330
3B4
100
AcDbEntity
  8
Ebene 1
370
     0
  0
POLYLINE
  5
3B8
330
3C
100
AcDbEntity
  8
Ebene 1
370
     0
100
AcDb2dPolyline
 66
     1
 10
0.0
 20
0.0
 30
0.0
  0
VERTEX
  5
3B9
330
3B8
100
AcDbEntity
  8
Ebene 1
370
     0
100
AcDbVertex
100
AcDb2dVertex
 10
647.8525390625
 20
918.7939453125
 30
0.0
  0
VERTEX
  5
3BA
330
3B8
100
AcDbEntity
  8
Ebene 1
370
     0
100
AcDbVertex
100
AcDb2dVertex
 10
648.2060546875
 20
918.7939453125
 30
0.0
  0
SEQEND
  5
3BB
330
3B8
100
AcDbEntity
  8
Ebene 1
370
     0
  0
POLYLINE
  5
3BC
330
3C
100
AcDbEntity
  8
Ebene 1
370
     0
100
AcDb2dPolyline
 66
     1
 10
0.0
 20
0.0
 30
0.0
  0
VERTEX
  5
3BD
330
3BC
100
AcDbEntity
  8
Ebene 1
370
     0
100
AcDbVertex
100
AcDb2dVertex
 10
648.3828125
 20
918.7939453125
 30
0.0
  0
VERTEX
  5
3BE
330
3BC
100
AcDbEntity
  8
Ebene 1
370
     0
100
AcDbVertex
100
AcDb2dVertex
 10
648.7353515625
 20
918.7939453125
 30
0.0
  0
SEQEND
  5
3BF
330
3BC
100
AcDbEntity
  8
Ebene 1
370
     0
  0
POLYLINE
  5
3C0
330
3C
100
AcDbEntity
  8
Ebene 1
370
     0
100
AcDb2dPolyline
 66
     1
 10
0.0
 20
0.0
 30
0.0
  0
VERTEX
  5
3C1
330
3C0
100
AcDbEntity
  8
Ebene 1
370
     0
100
AcDbVertex
100
AcDb2dVertex
 10
648.8671875
 20
918.7939453125
 30
0.0
  0
VERTEX
  5
3C2
330
3C0
100
AcDbEntity
  8
Ebene 1
370
     0
100
AcDbVertex
100
AcDb2dVertex
 10
649.220703125
 20
918.7939453125
 30
0.0
  0
SEQEND
  5
3C3
330
3C0
100
AcDbEntity
  8
Ebene 1
370
     0
  0
POLYLINE
  5
3C4
330
3C
100
AcDbEntity
  8
Ebene 1
370
     0
100
AcDb2dPolyline
 66
     1
 10
0.0
 20
0.0
 30
0.0
  0
VERTEX
  5
3C5
330
3C4
100
AcDbEntity
  8
Ebene 1
370
     0
100
AcDbVertex
100
AcDb2dVertex
 10
649.3974609375
 20
918.7939453125
 30
0.0
  0
VERTEX
  5
3C6
330
3C4
100
AcDbEntity
  8
Ebene 1
370
     0
100
AcDbVertex
100
AcDb2dVertex
 10
649.75
 20
918.7939453125
 30
0.0
  0
SEQEND
  5
3C7
330
3C4
100
AcDbEntity
  8
Ebene 1
370
     0
  0
POLYLINE
  5
3C8
330
3C
100
AcDbEntity
  8
Ebene 1
370
     0
100
AcDb2dPolyline
 66
     1
 10
0.0
 20
0.0
 30
0.0
  0
VERTEX
  5
3C9
330
3C8
100
AcDbEntity
  8
Ebene 1
370
     0
100
AcDbVertex
100
AcDb2dVertex
 10
649.9267578125
 20
918.7939453125
 30
0.0
  0
VERTEX
  5
3CA
330
3C8
100
AcDbEntity
  8
Ebene 1
370
     0
100
AcDbVertex
100
AcDb2dVertex
 10
650.279296875
 20
918.7939453125
 30
0.0
  0
SEQEND
  5
3CB
330
3C8
100
AcDbEntity
  8
Ebene 1
370
     0
  0
POLYLINE
  5
3CC
330
3C
100
AcDbEntity
  8
Ebene 1
370
     0
100
AcDb2dPolyline
 66
     1
 10
0.0
 20
0.0
 30
0.0
  0
VERTEX
  5
3CD
330
3CC
100
AcDbEntity
  8
Ebene 1
370
     0
100
AcDbVertex
100
AcDb2dVertex
 10
650.4560546875
 20
918.7939453125
 30
0.0
  0
VERTEX
  5
3CE
330
3CC
100
AcDbEntity
  8
Ebene 1
370
     0
100
AcDbVertex
100
AcDb2dVertex
 10
650.80859375
 20
918.7939453125
 30
0.0
  0
SEQEND
  5
3CF
330
3CC
100
AcDbEntity
  8
Ebene 1
370
     0
  0
POLYLINE
  5
3D0
330
3C
100
AcDbEntity
  8
Ebene 1
370
     0
100
AcDb2dPolyline
 66
     1
 10
0.0
 20
0.0
 30
0.0
  0
VERTEX
  5
3D1
330
3D0
100
AcDbEntity
  8
Ebene 1
370
     0
100
AcDbVertex
100
AcDb2dVertex
 10
650.94140625
 20
918.7939453125
 30
0.0
  0
VERTEX
  5
3D2
330
3D0
100
AcDbEntity
  8
Ebene 1
370
     0
100
AcDbVertex
100
AcDb2dVertex
 10
651.2939453125
 20
918.7939453125
 30
0.0
  0
SEQEND
  5
3D3
330
3D0
100
AcDbEntity
  8
Ebene 1
370
     0
  0
POLYLINE
  5
3D4
330
3C
100
AcDbEntity
  8
Ebene 1
370
     0
100
AcDb2dPolyline
 66
     1
 10
0.0
 20
0.0
 30
0.0
  0
VERTEX
  5
3D5
330
3D4
100
AcDbEntity
  8
Ebene 1
370
     0
100
AcDbVertex
100
AcDb2dVertex
 10
651.470703125
 20
918.7939453125
 30
0.0
  0
VERTEX
  5
3D6
330
3D4
100
AcDbEntity
  8
Ebene 1
370
     0
100
AcDbVertex
100
AcDb2dVertex
 10
651.8232421875
 20
918.7939453125
 30
0.0
  0
SEQEND
  5
3D7
330
3D4
100
AcDbEntity
  8
Ebene 1
370
     0
  0
POLYLINE
  5
3D8
330
3C
100
AcDbEntity
  8
Ebene 1
370
     0
100
AcDb2dPolyline
 66
     1
 10
0.0
 20
0.0
 30
0.0
  0
VERTEX
  5
3D9
330
3D8
100
AcDbEntity
  8
Ebene 1
370
     0
100
AcDbVertex
100
AcDb2dVertex
 10
652.0
 20
918.7939453125
 30
0.0
  0
VERTEX
  5
3DA
330
3D8
100
AcDbEntity
  8
Ebene 1
370
     0
100
AcDbVertex
100
AcDb2dVertex
 10
652.3525390625
 20
918.7939453125
 30
0.0
  0
SEQEND
  5
3DB
330
3D8
100
AcDbEntity
  8
Ebene 1
370
     0
  0
POLYLINE
  5
3DC
330
3C
100
AcDbEntity
  8
Ebene 1
370
     0
100
AcDb2dPolyline
 66
     1
 10
0.0
 20
0.0
 30
0.0
  0
VERTEX
  5
3DD
330
3DC
100
AcDbEntity
  8
Ebene 1
370
     0
100
AcDbVertex
100
AcDb2dVertex
 10
652.529296875
 20
918.7939453125
 30
0.0
  0
VERTEX
  5
3DE
330
3DC
100
AcDbEntity
  8
Ebene 1
370
     0
100
AcDbVertex
100
AcDb2dVertex
 10
652.8828125
 20
918.7939453125
 30
0.0
  0
SEQEND
  5
3DF
330
3DC
100
AcDbEntity
  8
Ebene 1
370
     0
  0
POLYLINE
  5
3E0
330
3C
100
AcDbEntity
  8
Ebene 1
370
     0
100
AcDb2dPolyline
 66
     1
 10
0.0
 20
0.0
 30
0.0
  0
VERTEX
  5
3E1
330
3E0
100
AcDbEntity
  8
Ebene 1
370
     0
100
AcDbVertex
100
AcDb2dVertex
 10
653.0146484375
 20
918.7939453125
 30
0.0
  0
VERTEX
  5
3E2
330
3E0
100
AcDbEntity
  8
Ebene 1
370
     0
100
AcDbVertex
100
AcDb2dVertex
 10
653.3671875
 20
918.7939453125
 30
0.0
  0
SEQEND
  5
3E3
330
3E0
100
AcDbEntity
  8
Ebene 1
370
     0
  0
POLYLINE
  5
3E4
330
3C
100
AcDbEntity
  8
Ebene 1
370
     0
100
AcDb2dPolyline
 66
     1
 10
0.0
 20
0.0
 30
0.0
  0
VERTEX
  5
3E5
330
3E4
100
AcDbEntity
  8
Ebene 1
370
     0
100
AcDbVertex
100
AcDb2dVertex
 10
653.5439453125
 20
918.7939453125
 30
0.0
  0
VERTEX
  5
3E6
330
3E4
100
AcDbEntity
  8
Ebene 1
370
     0
100
AcDbVertex
100
AcDb2dVertex
 10
653.8974609375
 20
918.7939453125
 30
0.0
  0
SEQEND
  5
3E7
330
3E4
100
AcDbEntity
  8
Ebene 1
370
     0
  0
POLYLINE
  5
3E8
330
3C
100
AcDbEntity
  8
Ebene 1
370
     0
100
AcDb2dPolyline
 66
     1
 10
0.0
 20
0.0
 30
0.0
  0
VERTEX
  5
3E9
330
3E8
100
AcDbEntity
  8
Ebene 1
370
     0
100
AcDbVertex
100
AcDb2dVertex
 10
654.0732421875
 20
918.7939453125
 30
0.0
  0
VERTEX
  5
3EA
330
3E8
100
AcDbEntity
  8
Ebene 1
370
     0
100
AcDbVertex
100
AcDb2dVertex
 10
654.4267578125
 20
918.7939453125
 30
0.0
  0
SEQEND
  5
3EB
330
3E8
100
AcDbEntity
  8
Ebene 1
370
     0
  0
POLYLINE
  5
3EC
330
3C
100
AcDbEntity
  8
Ebene 1
370
     0
100
AcDb2dPolyline
 66
     1
 10
0.0
 20
0.0
 30
0.0
  0
VERTEX
  5
3ED
330
3EC
100
AcDbEntity
  8
Ebene 1
370
     0
100
AcDbVertex
100
AcDb2dVertex
 10
654.6025390625
 20
918.7939453125
 30
0.0
  0
VERTEX
  5
3EE
330
3EC
100
AcDbEntity
  8
Ebene 1
370
     0
100
AcDbVertex
100
AcDb2dVertex
 10
654.9560546875
 20
918.7939453125
 30
0.0
  0
SEQEND
  5
3EF
330
3EC
100
AcDbEntity
  8
Ebene 1
370
     0
  0
POLYLINE
  5
3F0
330
3C
100
AcDbEntity
  8
Ebene 1
370
     0
100
AcDb2dPolyline
 66
     1
 10
0.0
 20
0.0
 30
0.0
  0
VERTEX
  5
3F1
330
3F0
100
AcDbEntity
  8
Ebene 1
370
     0
100
AcDbVertex
100
AcDb2dVertex
 10
655.087890625
 20
918.7939453125
 30
0.0
  0
VERTEX
  5
3F2
330
3F0
100
AcDbEntity
  8
Ebene 1
370
     0
100
AcDbVertex
100
AcDb2dVertex
 10
655.44140625
 20
918.7939453125
 30
0.0
  0
SEQEND
  5
3F3
330
3F0
100
AcDbEntity
  8
Ebene 1
370
     0
  0
POLYLINE
  5
3F4
330
3C
100
AcDbEntity
  8
Ebene 1
370
     0
100
AcDb2dPolyline
 66
     1
 10
0.0
 20
0.0
 30
0.0
  0
VERTEX
  5
3F5
330
3F4
100
AcDbEntity
  8
Ebene 1
370
     0
100
AcDbVertex
100
AcDb2dVertex
 10
655.6171875
 20
918.7939453125
 30
0.0
  0
VERTEX
  5
3F6
330
3F4
100
AcDbEntity
  8
Ebene 1
370
     0
100
AcDbVertex
100
AcDb2dVertex
 10
655.970703125
 20
918.7939453125
 30
0.0
  0
SEQEND
  5
3F7
330
3F4
100
AcDbEntity
  8
Ebene 1
370
     0
  0
POLYLINE
  5
3F8
330
3C
100
AcDbEntity
  8
Ebene 1
370
     0
100
AcDb2dPolyline
 66
     1
 10
0.0
 20
0.0
 30
0.0
  0
VERTEX
  5
3F9
330
3F8
100
AcDbEntity
  8
Ebene 1
370
     0
100
AcDbVertex
100
AcDb2dVertex
 10
656.1474609375
 20
918.7939453125
 30
0.0
  0
VERTEX
  5
3FA
330
3F8
100
AcDbEntity
  8
Ebene 1
370
     0
100
AcDbVertex
100
AcDb2dVertex
 10
656.5
 20
918.7939453125
 30
0.0
  0
SEQEND
  5
3FB
330
3F8
100
AcDbEntity
  8
Ebene 1
370
     0
  0
POLYLINE
  5
3FC
330
3C
100
AcDbEntity
  8
Ebene 1
370
     0
100
AcDb2dPolyline
 66
     1
 10
0.0
 20
0.0
 30
0.0
  0
VERTEX
  5
3FD
330
3FC
100
AcDbEntity
  8
Ebene 1
370
     0
100
AcDbVertex
100
AcDb2dVertex
 10
656.6767578125
 20
918.7939453125
 30
0.0
  0
VERTEX
  5
3FE
330
3FC
100
AcDbEntity
  8
Ebene 1
370
     0
100
AcDbVertex
100
AcDb2dVertex
 10
657.029296875
 20
918.7939453125
 30
0.0
  0
SEQEND
  5
3FF
330
3FC
100
AcDbEntity
  8
Ebene 1
370
     0
  0
POLYLINE
  5
400
330
3C
100
AcDbEntity
  8
Ebene 1
370
     0
100
AcDb2dPolyline
 66
     1
 10
0.0
 20
0.0
 30
0.0
  0
VERTEX
  5
401
330
400
100
AcDbEntity
  8
Ebene 1
370
     0
100
AcDbVertex
100
AcDb2dVertex
 10
657.2060546875
 20
918.7939453125
 30
0.0
  0
VERTEX
  5
402
330
400
100
AcDbEntity
  8
Ebene 1
370
     0
100
AcDbVertex
100
AcDb2dVertex
 10
657.5146484375
 20
918.7939453125
 30
0.0
  0
SEQEND
  5
403
330
400
100
AcDbEntity
  8
Ebene 1
370
     0
  0
POLYLINE
  5
404
330
3C
100
AcDbEntity
  8
Ebene 1
370
     0
100
AcDb2dPolyline
 66
     1
 10
0.0
 20
0.0
 30
0.0
  0
VERTEX
  5
405
330
404
100
AcDbEntity
  8
Ebene 1
370
     0
100
AcDbVertex
100
AcDb2dVertex
 10
657.69140625
 20
918.7939453125
 30
0.0
  0
VERTEX
  5
406
330
404
100
AcDbEntity
  8
Ebene 1
370
     0
100
AcDbVertex
100
AcDb2dVertex
 10
658.0439453125
 20
918.7939453125
 30
0.0
  0
SEQEND
  5
407
330
404
100
AcDbEntity
  8
Ebene 1
370
     0
  0
POLYLINE
  5
408
330
3C
100
AcDbEntity
  8
Ebene 1
370
     0
100
AcDb2dPolyline
 66
     1
 10
0.0
 20
0.0
 30
0.0
  0
VERTEX
  5
409
330
408
100
AcDbEntity
  8
Ebene 1
370
     0
100
AcDbVertex
100
AcDb2dVertex
 10
658.220703125
 20
918.7939453125
 30
0.0
  0
VERTEX
  5
40A
330
408
100
AcDbEntity
  8
Ebene 1
370
     0
100
AcDbVertex
100
AcDb2dVertex
 10
658.5732421875
 20
918.7939453125
 30
0.0
  0
SEQEND
  5
40B
330
408
100
AcDbEntity
  8
Ebene 1
370
     0
  0
POLYLINE
  5
40C
330
3C
100
AcDbEntity
  8
Ebene 1
370
     0
100
AcDb2dPolyline
 66
     1
 10
0.0
 20
0.0
 30
0.0
  0
VERTEX
  5
40D
330
40C
100
AcDbEntity
  8
Ebene 1
370
     0
100
AcDbVertex
100
AcDb2dVertex
 10
658.75
 20
918.7939453125
 30
0.0
  0
VERTEX
  5
40E
330
40C
100
AcDbEntity
  8
Ebene 1
370
     0
100
AcDbVertex
100
AcDb2dVertex
 10
659.1025390625
 20
918.7939453125
 30
0.0
  0
SEQEND
  5
40F
330
40C
100
AcDbEntity
  8
Ebene 1
370
     0
  0
POLYLINE
  5
410
330
3C
100
AcDbEntity
  8
Ebene 1
370
     0
100
AcDb2dPolyline
 66
     1
 10
0.0
 20
0.0
 30
0.0
  0
VERTEX
  5
411
330
410
100
AcDbEntity
  8
Ebene 1
370
     0
100
AcDbVertex
100
AcDb2dVertex
 10
659.279296875
 20
918.7939453125
 30
0.0
  0
VERTEX
  5
412
330
410
100
AcDbEntity
  8
Ebene 1
370
     0
100
AcDbVertex
100
AcDb2dVertex
 10
659.587890625
 20
918.7939453125
 30
0.0
  0
SEQEND
  5
413
330
410
100
AcDbEntity
  8
Ebene 1
370
     0
  0
POLYLINE
  5
414
330
3C
100
AcDbEntity
  8
Ebene 1
370
     0
100
AcDb2dPolyline
 66
     1
 10
0.0
 20
0.0
 30
0.0
  0
VERTEX
  5
415
330
414
100
AcDbEntity
  8
Ebene 1
370
     0
100
AcDbVertex
100
AcDb2dVertex
 10
659.7646484375
 20
918.7939453125
 30
0.0
  0
VERTEX
  5
416
330
414
100
AcDbEntity
  8
Ebene 1
370
     0
100
AcDbVertex
100
AcDb2dVertex
 10
660.1171875
 20
918.7939453125
 30
0.0
  0
SEQEND
  5
417
330
414
100
AcDbEntity
  8
Ebene 1
370
     0
  0
POLYLINE
  5
418
330
3C
100
AcDbEntity
  8
Ebene 1
370
     0
100
AcDb2dPolyline
 66
     1
 10
0.0
 20
0.0
 30
0.0
  0
VERTEX
  5
419
330
418
100
AcDbEntity
  8
Ebene 1
370
     0
100
AcDbVertex
100
AcDb2dVertex
 10
660.2939453125
 20
918.7939453125
 30
0.0
  0
VERTEX
  5
41A
330
418
100
AcDbEntity
  8
Ebene 1
370
     0
100
AcDbVertex
100
AcDb2dVertex
 10
660.6474609375
 20
918.7939453125
 30
0.0
  0
SEQEND
  5
41B
330
418
100
AcDbEntity
  8
Ebene 1
370
     0
  0
POLYLINE
  5
41C
330
3C
100
AcDbEntity
  8
Ebene 1
370
     0
100
AcDb2dPolyline
 66
     1
 10
0.0
 20
0.0
 30
0.0
  0
VERTEX
  5
41D
330
41C
100
AcDbEntity
  8
Ebene 1
370
     0
100
AcDbVertex
100
AcDb2dVertex
 10
660.8232421875
 20
918.7939453125
 30
0.0
  0
VERTEX
  5
41E
330
41C
100
AcDbEntity
  8
Ebene 1
370
     0
100
AcDbVertex
100
AcDb2dVertex
 10
661.1767578125
 20
918.7939453125
 30
0.0
  0
SEQEND
  5
41F
330
41C
100
AcDbEntity
  8
Ebene 1
370
     0
  0
POLYLINE
  5
420
330
3C
100
AcDbEntity
  8
Ebene 1
370
     0
100
AcDb2dPolyline
 66
     1
 10
0.0
 20
0.0
 30
0.0
  0
VERTEX
  5
421
330
420
100
AcDbEntity
  8
Ebene 1
370
     0
100
AcDbVertex
100
AcDb2dVertex
 10
661.3525390625
 20
918.7939453125
 30
0.0
  0
VERTEX
  5
422
330
420
100
AcDbEntity
  8
Ebene 1
370
     0
100
AcDbVertex
100
AcDb2dVertex
 10
661.662109375
 20
918.7939453125
 30
0.0
  0
SEQEND
  5
423
330
420
100
AcDbEntity
  8
Ebene 1
370
     0
  0
POLYLINE
  5
424
330
3C
100
AcDbEntity
  8
Ebene 1
370
     0
100
AcDb2dPolyline
 66
     1
 10
0.0
 20
0.0
 30
0.0
  0
VERTEX
  5
425
330
424
100
AcDbEntity
  8
Ebene 1
370
     0
100
AcDbVertex
100
AcDb2dVertex
 10
661.837890625
 20
918.7939453125
 30
0.0
  0
VERTEX
  5
426
330
424
100
AcDbEntity
  8
Ebene 1
370
     0
100
AcDbVertex
100
AcDb2dVertex
 10
662.19140625
 20
918.7939453125
 30
0.0
  0
SEQEND
  5
427
330
424
100
AcDbEntity
  8
Ebene 1
370
     0
  0
POLYLINE
  5
428
330
3C
100
AcDbEntity
  8
Ebene 1
370
     0
100
AcDb2dPolyline
 66
     1
 10
0.0
 20
0.0
 30
0.0
  0
VERTEX
  5
429
330
428
100
AcDbEntity
  8
Ebene 1
370
     0
100
AcDbVertex
100
AcDb2dVertex
 10
662.3671875
 20
918.7939453125
 30
0.0
  0
VERTEX
  5
42A
330
428
100
AcDbEntity
  8
Ebene 1
370
     0
100
AcDbVertex
100
AcDb2dVertex
 10
662.720703125
 20
918.7939453125
 30
0.0
  0
SEQEND
  5
42B
330
428
100
AcDbEntity
  8
Ebene 1
370
     0
  0
POLYLINE
  5
42C
330
3C
100
AcDbEntity
  8
Ebene 1
370
     0
100
AcDb2dPolyline
 66
     1
 10
0.0
 20
0.0
 30
0.0
  0
VERTEX
  5
42D
330
42C
100
AcDbEntity
  8
Ebene 1
370
     0
100
AcDbVertex
100
AcDb2dVertex
 10
662.8974609375
 20
918.7939453125
 30
0.0
  0
VERTEX
  5
42E
330
42C
100
AcDbEntity
  8
Ebene 1
370
     0
100
AcDbVertex
100
AcDb2dVertex
 10
663.25
 20
918.7939453125
 30
0.0
  0
SEQEND
  5
42F
330
42C
100
AcDbEntity
  8
Ebene 1
370
     0
  0
POLYLINE
  5
430
330
3C
100
AcDbEntity
  8
Ebene 1
370
     0
100
AcDb2dPolyline
 66
     1
 10
0.0
 20
0.0
 30
0.0
  0
VERTEX
  5
431
330
430
100
AcDbEntity
  8
Ebene 1
370
     0
100
AcDbVertex
100
AcDb2dVertex
 10
663.4267578125
 20
918.7939453125
 30
0.0
  0
VERTEX
  5
432
330
430
100
AcDbEntity
  8
Ebene 1
370
     0
100
AcDbVertex
100
AcDb2dVertex
 10
663.7353515625
 20
918.7939453125
 30
0.0
  0
SEQEND
  5
433
330
430
100
AcDbEntity
  8
Ebene 1
370
     0
  0
POLYLINE
  5
434
330
3C
100
AcDbEntity
  8
Ebene 1
370
     0
100
AcDb2dPolyline
 66
     1
 10
0.0
 20
0.0
 30
0.0
  0
VERTEX
  5
435
330
434
100
AcDbEntity
  8
Ebene 1
370
     0
100
AcDbVertex
100
AcDb2dVertex
 10
663.912109375
 20
918.7939453125
 30
0.0
  0
VERTEX
  5
436
330
434
100
AcDbEntity
  8
Ebene 1
370
     0
100
AcDbVertex
100
AcDb2dVertex
 10
664.2646484375
 20
918.7939453125
 30
0.0
  0
SEQEND
  5
437
330
434
100
AcDbEntity
  8
Ebene 1
370
     0
  0
POLYLINE
  5
438
330
3C
100
AcDbEntity
  8
Ebene 1
370
     0
100
AcDb2dPolyline
 66
     1
 10
0.0
 20
0.0
 30
0.0
  0
VERTEX
  5
439
330
438
100
AcDbEntity
  8
Ebene 1
370
     0
100
AcDbVertex
100
AcDb2dVertex
 10
664.44140625
 20
918.7939453125
 30
0.0
  0
VERTEX
  5
43A
330
438
100
AcDbEntity
  8
Ebene 1
370
     0
100
AcDbVertex
100
AcDb2dVertex
 10
664.7939453125
 20
918.7939453125
 30
0.0
  0
SEQEND
  5
43B
330
438
100
AcDbEntity
  8
Ebene 1
370
     0
  0
POLYLINE
  5
43C
330
3C
100
AcDbEntity
  8
Ebene 1
370
     0
100
AcDb2dPolyline
 66
     1
 10
0.0
 20
0.0
 30
0.0
  0
VERTEX
  5
43D
330
43C
100
AcDbEntity
  8
Ebene 1
370
     0
100
AcDbVertex
100
AcDb2dVertex
 10
664.970703125
 20
918.7939453125
 30
0.0
  0
VERTEX
  5
43E
330
43C
100
AcDbEntity
  8
Ebene 1
370
     0
100
AcDbVertex
100
AcDb2dVertex
 10
665.3232421875
 20
918.7939453125
 30
0.0
  0
SEQEND
  5
43F
330
43C
100
AcDbEntity
  8
Ebene 1
370
     0
  0
POLYLINE
  5
440
330
3C
100
AcDbEntity
  8
Ebene 1
370
     0
100
AcDb2dPolyline
 66
     1
 10
0.0
 20
0.0
 30
0.0
  0
VERTEX
  5
441
330
440
100
AcDbEntity
  8
Ebene 1
370
     0
100
AcDbVertex
100
AcDb2dVertex
 10
645.25
 20
895.279296875
 30
0.0
  0
VERTEX
  5
442
330
440
100
AcDbEntity
  8
Ebene 1
370
     0
100
AcDbVertex
100
AcDb2dVertex
 10
645.6025390625
 20
895.279296875
 30
0.0
  0
SEQEND
  5
443
330
440
100
AcDbEntity
  8
Ebene 1
370
     0
  0
POLYLINE
  5
444
330
3C
100
AcDbEntity
  8
Ebene 1
370
     0
100
AcDb2dPolyline
 66
     1
 10
0.0
 20
0.0
 30
0.0
  0
VERTEX
  5
445
330
444
100
AcDbEntity
  8
Ebene 1
370
     0
100
AcDbVertex
100
AcDb2dVertex
 10
645.779296875
 20
895.279296875
 30
0.0
  0
VERTEX
  5
446
330
444
100
AcDbEntity
  8
Ebene 1
370
     0
100
AcDbVertex
100
AcDb2dVertex
 10
646.1328125
 20
895.279296875
 30
0.0
  0
SEQEND
  5
447
330
444
100
AcDbEntity
  8
Ebene 1
370
     0
  0
POLYLINE
  5
448
330
3C
100
AcDbEntity
  8
Ebene 1
370
     0
100
AcDb2dPolyline
 66
     1
 10
0.0
 20
0.0
 30
0.0
  0
VERTEX
  5
449
330
448
100
AcDbEntity
  8
Ebene 1
370
     0
100
AcDbVertex
100
AcDb2dVertex
 10
646.30859375
 20
895.279296875
 30
0.0
  0
VERTEX
  5
44A
330
448
100
AcDbEntity
  8
Ebene 1
370
     0
100
AcDbVertex
100
AcDb2dVertex
 10
646.6171875
 20
895.279296875
 30
0.0
  0
SEQEND
  5
44B
330
448
100
AcDbEntity
  8
Ebene 1
370
     0
  0
POLYLINE
  5
44C
330
3C
100
AcDbEntity
  8
Ebene 1
370
     0
100
AcDb2dPolyline
 66
     1
 10
0.0
 20
0.0
 30
0.0
  0
VERTEX
  5
44D
330
44C
100
AcDbEntity
  8
Ebene 1
370
     0
100
AcDbVertex
100
AcDb2dVertex
 10
646.7939453125
 20
895.279296875
 30
0.0
  0
VERTEX
  5
44E
330
44C
100
AcDbEntity
  8
Ebene 1
370
     0
100
AcDbVertex
100
AcDb2dVertex
 10
647.1474609375
 20
895.279296875
 30
0.0
  0
SEQEND
  5
44F
330
44C
100
AcDbEntity
  8
Ebene 1
370
     0
  0
POLYLINE
  5
450
330
3C
100
AcDbEntity
  8
Ebene 1
370
     0
100
AcDb2dPolyline
 66
     1
 10
0.0
 20
0.0
 30
0.0
  0
VERTEX
  5
451
330
450
100
AcDbEntity
  8
Ebene 1
370
     0
100
AcDbVertex
100
AcDb2dVertex
 10
647.3232421875
 20
895.279296875
 30
0.0
  0
VERTEX
  5
452
330
450
100
AcDbEntity
  8
Ebene 1
370
     0
100
AcDbVertex
100
AcDb2dVertex
 10
647.6767578125
 20
895.279296875
 30
0.0
  0
SEQEND
  5
453
330
450
100
AcDbEntity
  8
Ebene 1
370
     0
  0
POLYLINE
  5
454
330
3C
100
AcDbEntity
  8
Ebene 1
370
     0
100
AcDb2dPolyline
 66
     1
 10
0.0
 20
0.0
 30
0.0
  0
VERTEX
  5
455
330
454
100
AcDbEntity
  8
Ebene 1
370
     0
100
AcDbVertex
100
AcDb2dVertex
 10
647.8525390625
 20
895.279296875
 30
0.0
  0
VERTEX
  5
456
330
454
100
AcDbEntity
  8
Ebene 1
370
     0
100
AcDbVertex
100
AcDb2dVertex
 10
648.2060546875
 20
895.279296875
 30
0.0
  0
SEQEND
  5
457
330
454
100
AcDbEntity
  8
Ebene 1
370
     0
  0
POLYLINE
  5
458
330
3C
100
AcDbEntity
  8
Ebene 1
370
     0
100
AcDb2dPolyline
 66
     1
 10
0.0
 20
0.0
 30
0.0
  0
VERTEX
  5
459
330
458
100
AcDbEntity
  8
Ebene 1
370
     0
100
AcDbVertex
100
AcDb2dVertex
 10
648.3828125
 20
895.279296875
 30
0.0
  0
VERTEX
  5
45A
330
458
100
AcDbEntity
  8
Ebene 1
370
     0
100
AcDbVertex
100
AcDb2dVertex
 10
648.7353515625
 20
895.279296875
 30
0.0
  0
SEQEND
  5
45B
330
458
100
AcDbEntity
  8
Ebene 1
370
     0
  0
POLYLINE
  5
45C
330
3C
100
AcDbEntity
  8
Ebene 1
370
     0
100
AcDb2dPolyline
 66
     1
 10
0.0
 20
0.0
 30
0.0
  0
VERTEX
  5
45D
330
45C
100
AcDbEntity
  8
Ebene 1
370
     0
100
AcDbVertex
100
AcDb2dVertex
 10
648.8671875
 20
895.279296875
 30
0.0
  0
VERTEX
  5
45E
330
45C
100
AcDbEntity
  8
Ebene 1
370
     0
100
AcDbVertex
100
AcDb2dVertex
 10
649.220703125
 20
895.279296875
 30
0.0
  0
SEQEND
  5
45F
330
45C
100
AcDbEntity
  8
Ebene 1
370
     0
  0
POLYLINE
  5
460
330
3C
100
AcDbEntity
  8
Ebene 1
370
     0
100
AcDb2dPolyline
 66
     1
 10
0.0
 20
0.0
 30
0.0
  0
VERTEX
  5
461
330
460
100
AcDbEntity
  8
Ebene 1
370
     0
100
AcDbVertex
100
AcDb2dVertex
 10
649.3974609375
 20
895.279296875
 30
0.0
  0
VERTEX
  5
462
330
460
100
AcDbEntity
  8
Ebene 1
370
     0
100
AcDbVertex
100
AcDb2dVertex
 10
649.75
 20
895.279296875
 30
0.0
  0
SEQEND
  5
463
330
460
100
AcDbEntity
  8
Ebene 1
370
     0
  0
POLYLINE
  5
464
330
3C
100
AcDbEntity
  8
Ebene 1
370
     0
100
AcDb2dPolyline
 66
     1
 10
0.0
 20
0.0
 30
0.0
  0
VERTEX
  5
465
330
464
100
AcDbEntity
  8
Ebene 1
370
     0
100
AcDbVertex
100
AcDb2dVertex
 10
649.9267578125
 20
895.279296875
 30
0.0
  0
VERTEX
  5
466
330
464
100
AcDbEntity
  8
Ebene 1
370
     0
100
AcDbVertex
100
AcDb2dVertex
 10
650.279296875
 20
895.279296875
 30
0.0
  0
SEQEND
  5
467
330
464
100
AcDbEntity
  8
Ebene 1
370
     0
  0
POLYLINE
  5
468
330
3C
100
AcDbEntity
  8
Ebene 1
370
     0
100
AcDb2dPolyline
 66
     1
 10
0.0
 20
0.0
 30
0.0
  0
VERTEX
  5
469
330
468
100
AcDbEntity
  8
Ebene 1
370
     0
100
AcDbVertex
100
AcDb2dVertex
 10
650.4560546875
 20
895.279296875
 30
0.0
  0
VERTEX
  5
46A
330
468
100
AcDbEntity
  8
Ebene 1
370
     0
100
AcDbVertex
100
AcDb2dVertex
 10
650.80859375
 20
895.279296875
 30
0.0
  0
SEQEND
  5
46B
330
468
100
AcDbEntity
  8
Ebene 1
370
     0
  0
POLYLINE
  5
46C
330
3C
100
AcDbEntity
  8
Ebene 1
370
     0
100
AcDb2dPolyline
 66
     1
 10
0.0
 20
0.0
 30
0.0
  0
VERTEX
  5
46D
330
46C
100
AcDbEntity
  8
Ebene 1
370
     0
100
AcDbVertex
100
AcDb2dVertex
 10
650.94140625
 20
895.279296875
 30
0.0
  0
VERTEX
  5
46E
330
46C
100
AcDbEntity
  8
Ebene 1
370
     0
100
AcDbVertex
100
AcDb2dVertex
 10
651.2939453125
 20
895.279296875
 30
0.0
  0
SEQEND
  5
46F
330
46C
100
AcDbEntity
  8
Ebene 1
370
     0
  0
POLYLINE
  5
470
330
3C
100
AcDbEntity
  8
Ebene 1
370
     0
100
AcDb2dPolyline
 66
     1
 10
0.0
 20
0.0
 30
0.0
  0
VERTEX
  5
471
330
470
100
AcDbEntity
  8
Ebene 1
370
     0
100
AcDbVertex
100
AcDb2dVertex
 10
651.470703125
 20
895.279296875
 30
0.0
  0
VERTEX
  5
472
330
470
100
AcDbEntity
  8
Ebene 1
370
     0
100
AcDbVertex
100
AcDb2dVertex
 10
651.8232421875
 20
895.279296875
 30
0.0
  0
SEQEND
  5
473
330
470
100
AcDbEntity
  8
Ebene 1
370
     0
  0
POLYLINE
  5
474
330
3C
100
AcDbEntity
  8
Ebene 1
370
     0
100
AcDb2dPolyline
 66
     1
 10
0.0
 20
0.0
 30
0.0
  0
VERTEX
  5
475
330
474
100
AcDbEntity
  8
Ebene 1
370
     0
100
AcDbVertex
100
AcDb2dVertex
 10
652.0
 20
895.279296875
 30
0.0
  0
VERTEX
  5
476
330
474
100
AcDbEntity
  8
Ebene 1
370
     0
100
AcDbVertex
100
AcDb2dVertex
 10
652.3525390625
 20
895.279296875
 30
0.0
  0
SEQEND
  5
477
330
474
100
AcDbEntity
  8
Ebene 1
370
     0
  0
POLYLINE
  5
478
330
3C
100
AcDbEntity
  8
Ebene 1
370
     0
100
AcDb2dPolyline
 66
     1
 10
0.0
 20
0.0
 30
0.0
  0
VERTEX
  5
479
330
478
100
AcDbEntity
  8
Ebene 1
370
     0
100
AcDbVertex
100
AcDb2dVertex
 10
652.529296875
 20
895.279296875
 30
0.0
  0
VERTEX
  5
47A
330
478
100
AcDbEntity
  8
Ebene 1
370
     0
100
AcDbVertex
100
AcDb2dVertex
 10
652.8828125
 20
895.279296875
 30
0.0
  0
SEQEND
  5
47B
330
478
100
AcDbEntity
  8
Ebene 1
370
     0
  0
POLYLINE
  5
47C
330
3C
100
AcDbEntity
  8
Ebene 1
370
     0
100
AcDb2dPolyline
 66
     1
 10
0.0
 20
0.0
 30
0.0
  0
VERTEX
  5
47D
330
47C
100
AcDbEntity
  8
Ebene 1
370
     0
100
AcDbVertex
100
AcDb2dVertex
 10
653.0146484375
 20
895.279296875
 30
0.0
  0
VERTEX
  5
47E
330
47C
100
AcDbEntity
  8
Ebene 1
370
     0
100
AcDbVertex
100
AcDb2dVertex
 10
653.3671875
 20
895.279296875
 30
0.0
  0
SEQEND
  5
47F
330
47C
100
AcDbEntity
  8
Ebene 1
370
     0
  0
POLYLINE
  5
480
330
3C
100
AcDbEntity
  8
Ebene 1
370
     0
100
AcDb2dPolyline
 66
     1
 10
0.0
 20
0.0
 30
0.0
  0
VERTEX
  5
481
330
480
100
AcDbEntity
  8
Ebene 1
370
     0
100
AcDbVertex
100
AcDb2dVertex
 10
653.5439453125
 20
895.279296875
 30
0.0
  0
VERTEX
  5
482
330
480
100
AcDbEntity
  8
Ebene 1
370
     0
100
AcDbVertex
100
AcDb2dVertex
 10
653.8974609375
 20
895.279296875
 30
0.0
  0
SEQEND
  5
483
330
480
100
AcDbEntity
  8
Ebene 1
370
     0
  0
POLYLINE
  5
484
330
3C
100
AcDbEntity
  8
Ebene 1
370
     0
100
AcDb2dPolyline
 66
     1
 10
0.0
 20
0.0
 30
0.0
  0
VERTEX
  5
485
330
484
100
AcDbEntity
  8
Ebene 1
370
     0
100
AcDbVertex
100
AcDb2dVertex
 10
654.0732421875
 20
895.279296875
 30
0.0
  0
VERTEX
  5
486
330
484
100
AcDbEntity
  8
Ebene 1
370
     0
100
AcDbVertex
100
AcDb2dVertex
 10
654.4267578125
 20
895.279296875
 30
0.0
  0
SEQEND
  5
487
330
484
100
AcDbEntity
  8
Ebene 1
370
     0
  0
POLYLINE
  5
488
330
3C
100
AcDbEntity
  8
Ebene 1
370
     0
100
AcDb2dPolyline
 66
     1
 10
0.0
 20
0.0
 30
0.0
  0
VERTEX
  5
489
330
488
100
AcDbEntity
  8
Ebene 1
370
     0
100
AcDbVertex
100
AcDb2dVertex
 10
654.6025390625
 20
895.279296875
 30
0.0
  0
VERTEX
  5
48A
330
488
100
AcDbEntity
  8
Ebene 1
370
     0
100
AcDbVertex
100
AcDb2dVertex
 10
654.9560546875
 20
895.279296875
 30
0.0
  0
SEQEND
  5
48B
330
488
100
AcDbEntity
  8
Ebene 1
370
     0
  0
POLYLINE
  5
48C
330
3C
100
AcDbEntity
  8
Ebene 1
370
     0
100
AcDb2dPolyline
 66
     1
 10
0.0
 20
0.0
 30
0.0
  0
VERTEX
  5
48D
330
48C
100
AcDbEntity
  8
Ebene 1
370
     0
100
AcDbVertex
100
AcDb2dVertex
 10
655.087890625
 20
895.279296875
 30
0.0
  0
VERTEX
  5
48E
330
48C
100
AcDbEntity
  8
Ebene 1
370
     0
100
AcDbVertex
100
AcDb2dVertex
 10
655.44140625
 20
895.279296875
 30
0.0
  0
SEQEND
  5
48F
330
48C
100
AcDbEntity
  8
Ebene 1
370
     0
  0
POLYLINE
  5
490
330
3C
100
AcDbEntity
  8
Ebene 1
370
     0
100
AcDb2dPolyline
 66
     1
 10
0.0
 20
0.0
 30
0.0
  0
VERTEX
  5
491
330
490
100
AcDbEntity
  8
Ebene 1
370
     0
100
AcDbVertex
100
AcDb2dVertex
 10
655.6171875
 20
895.279296875
 30
0.0
  0
VERTEX
  5
492
330
490
100
AcDbEntity
  8
Ebene 1
370
     0
100
AcDbVertex
100
AcDb2dVertex
 10
655.970703125
 20
895.279296875
 30
0.0
  0
SEQEND
  5
493
330
490
100
AcDbEntity
  8
Ebene 1
370
     0
  0
POLYLINE
  5
494
330
3C
100
AcDbEntity
  8
Ebene 1
370
     0
100
AcDb2dPolyline
 66
     1
 10
0.0
 20
0.0
 30
0.0
  0
VERTEX
  5
495
330
494
100
AcDbEntity
  8
Ebene 1
370
     0
100
AcDbVertex
100
AcDb2dVertex
 10
656.1474609375
 20
895.279296875
 30
0.0
  0
VERTEX
  5
496
330
494
100
AcDbEntity
  8
Ebene 1
370
     0
100
AcDbVertex
100
AcDb2dVertex
 10
656.5
 20
895.279296875
 30
0.0
  0
SEQEND
  5
497
330
494
100
AcDbEntity
  8
Ebene 1
370
     0
  0
POLYLINE
  5
498
330
3C
100
AcDbEntity
  8
Ebene 1
370
     0
100
AcDb2dPolyline
 66
     1
 10
0.0
 20
0.0
 30
0.0
  0
VERTEX
  5
499
330
498
100
AcDbEntity
  8
Ebene 1
370
     0
100
AcDbVertex
100
AcDb2dVertex
 10
656.6767578125
 20
895.279296875
 30
0.0
  0
VERTEX
  5
49A
330
498
100
AcDbEntity
  8
Ebene 1
370
     0
100
AcDbVertex
100
AcDb2dVertex
 10
657.029296875
 20
895.279296875
 30
0.0
  0
SEQEND
  5
49B
330
498
100
AcDbEntity
  8
Ebene 1
370
     0
  0
POLYLINE
  5
49C
330
3C
100
AcDbEntity
  8
Ebene 1
370
     0
100
AcDb2dPolyline
 66
     1
 10
0.0
 20
0.0
 30
0.0
  0
VERTEX
  5
49D
330
49C
100
AcDbEntity
  8
Ebene 1
370
     0
100
AcDbVertex
100
AcDb2dVertex
 10
657.2060546875
 20
895.279296875
 30
0.0
  0
VERTEX
  5
49E
330
49C
100
AcDbEntity
  8
Ebene 1
370
     0
100
AcDbVertex
100
AcDb2dVertex
 10
657.5146484375
 20
895.279296875
 30
0.0
  0
SEQEND
  5
49F
330
49C
100
AcDbEntity
  8
Ebene 1
370
     0
  0
POLYLINE
  5
4A0
330
3C
100
AcDbEntity
  8
Ebene 1
370
     0
100
AcDb2dPolyline
 66
     1
 10
0.0
 20
0.0
 30
0.0
  0
VERTEX
  5
4A1
330
4A0
100
AcDbEntity
  8
Ebene 1
370
     0
100
AcDbVertex
100
AcDb2dVertex
 10
657.69140625
 20
895.279296875
 30
0.0
  0
VERTEX
  5
4A2
330
4A0
100
AcDbEntity
  8
Ebene 1
370
     0
100
AcDbVertex
100
AcDb2dVertex
 10
658.0439453125
 20
895.279296875
 30
0.0
  0
SEQEND
  5
4A3
330
4A0
100
AcDbEntity
  8
Ebene 1
370
     0
  0
POLYLINE
  5
4A4
330
3C
100
AcDbEntity
  8
Ebene 1
370
     0
100
AcDb2dPolyline
 66
     1
 10
0.0
 20
0.0
 30
0.0
  0
VERTEX
  5
4A5
330
4A4
100
AcDbEntity
  8
Ebene 1
370
     0
100
AcDbVertex
100
AcDb2dVertex
 10
658.220703125
 20
895.279296875
 30
0.0
  0
VERTEX
  5
4A6
330
4A4
100
AcDbEntity
  8
Ebene 1
370
     0
100
AcDbVertex
100
AcDb2dVertex
 10
658.5732421875
 20
895.279296875
 30
0.0
  0
SEQEND
  5
4A7
330
4A4
100
AcDbEntity
  8
Ebene 1
370
     0
  0
POLYLINE
  5
4A8
330
3C
100
AcDbEntity
  8
Ebene 1
370
     0
100
AcDb2dPolyline
 66
     1
 10
0.0
 20
0.0
 30
0.0
  0
VERTEX
  5
4A9
330
4A8
100
AcDbEntity
  8
Ebene 1
370
     0
100
AcDbVertex
100
AcDb2dVertex
 10
658.75
 20
895.279296875
 30
0.0
  0
VERTEX
  5
4AA
330
4A8
100
AcDbEntity
  8
Ebene 1
370
     0
100
AcDbVertex
100
AcDb2dVertex
 10
659.1025390625
 20
895.279296875
 30
0.0
  0
SEQEND
  5
4AB
330
4A8
100
AcDbEntity
  8
Ebene 1
370
     0
  0
POLYLINE
  5
4AC
330
3C
100
AcDbEntity
  8
Ebene 1
370
     0
100
AcDb2dPolyline
 66
     1
 10
0.0
 20
0.0
 30
0.0
  0
VERTEX
  5
4AD
330
4AC
100
AcDbEntity
  8
Ebene 1
370
     0
100
AcDbVertex
100
AcDb2dVertex
 10
659.279296875
 20
895.279296875
 30
0.0
  0
VERTEX
  5
4AE
330
4AC
100
AcDbEntity
  8
Ebene 1
370
     0
100
AcDbVertex
100
AcDb2dVertex
 10
659.587890625
 20
895.279296875
 30
0.0
  0
SEQEND
  5
4AF
330
4AC
100
AcDbEntity
  8
Ebene 1
370
     0
  0
POLYLINE
  5
4B0
330
3C
100
AcDbEntity
  8
Ebene 1
370
     0
100
AcDb2dPolyline
 66
     1
 10
0.0
 20
0.0
 30
0.0
  0
VERTEX
  5
4B1
330
4B0
100
AcDbEntity
  8
Ebene 1
370
     0
100
AcDbVertex
100
AcDb2dVertex
 10
659.7646484375
 20
895.279296875
 30
0.0
  0
VERTEX
  5
4B2
330
4B0
100
AcDbEntity
  8
Ebene 1
370
     0
100
AcDbVertex
100
AcDb2dVertex
 10
660.1171875
 20
895.279296875
 30
0.0
  0
SEQEND
  5
4B3
330
4B0
100
AcDbEntity
  8
Ebene 1
370
     0
  0
POLYLINE
  5
4B4
330
3C
100
AcDbEntity
  8
Ebene 1
370
     0
100
AcDb2dPolyline
 66
     1
 10
0.0
 20
0.0
 30
0.0
  0
VERTEX
  5
4B5
330
4B4
100
AcDbEntity
  8
Ebene 1
370
     0
100
AcDbVertex
100
AcDb2dVertex
 10
660.2939453125
 20
895.279296875
 30
0.0
  0
VERTEX
  5
4B6
330
4B4
100
AcDbEntity
  8
Ebene 1
370
     0
100
AcDbVertex
100
AcDb2dVertex
 10
660.6474609375
 20
895.279296875
 30
0.0
  0
SEQEND
  5
4B7
330
4B4
100
AcDbEntity
  8
Ebene 1
370
     0
  0
POLYLINE
  5
4B8
330
3C
100
AcDbEntity
  8
Ebene 1
370
     0
100
AcDb2dPolyline
 66
     1
 10
0.0
 20
0.0
 30
0.0
  0
VERTEX
  5
4B9
330
4B8
100
AcDbEntity
  8
Ebene 1
370
     0
100
AcDbVertex
100
AcDb2dVertex
 10
660.8232421875
 20
895.279296875
 30
0.0
  0
VERTEX
  5
4BA
330
4B8
100
AcDbEntity
  8
Ebene 1
370
     0
100
AcDbVertex
100
AcDb2dVertex
 10
661.1767578125
 20
895.279296875
 30
0.0
  0
SEQEND
  5
4BB
330
4B8
100
AcDbEntity
  8
Ebene 1
370
     0
  0
POLYLINE
  5
4BC
330
3C
100
AcDbEntity
  8
Ebene 1
370
     0
100
AcDb2dPolyline
 66
     1
 10
0.0
 20
0.0
 30
0.0
  0
VERTEX
  5
4BD
330
4BC
100
AcDbEntity
  8
Ebene 1
370
     0
100
AcDbVertex
100
AcDb2dVertex
 10
661.3525390625
 20
895.279296875
 30
0.0
  0
VERTEX
  5
4BE
330
4BC
100
AcDbEntity
  8
Ebene 1
370
     0
100
AcDbVertex
100
AcDb2dVertex
 10
661.662109375
 20
895.279296875
 30
0.0
  0
SEQEND
  5
4BF
330
4BC
100
AcDbEntity
  8
Ebene 1
370
     0
  0
POLYLINE
  5
4C0
330
3C
100
AcDbEntity
  8
Ebene 1
370
     0
100
AcDb2dPolyline
 66
     1
 10
0.0
 20
0.0
 30
0.0
  0
VERTEX
  5
4C1
330
4C0
100
AcDbEntity
  8
Ebene 1
370
     0
100
AcDbVertex
100
AcDb2dVertex
 10
661.837890625
 20
895.279296875
 30
0.0
  0
VERTEX
  5
4C2
330
4C0
100
AcDbEntity
  8
Ebene 1
370
     0
100
AcDbVertex
100
AcDb2dVertex
 10
662.19140625
 20
895.279296875
 30
0.0
  0
SEQEND
  5
4C3
330
4C0
100
AcDbEntity
  8
Ebene 1
370
     0
  0
POLYLINE
  5
4C4
330
3C
100
AcDbEntity
  8
Ebene 1
370
     0
100
AcDb2dPolyline
 66
     1
 10
0.0
 20
0.0
 30
0.0
  0
VERTEX
  5
4C5
330
4C4
100
AcDbEntity
  8
Ebene 1
370
     0
100
AcDbVertex
100
AcDb2dVertex
 10
662.3671875
 20
895.279296875
 30
0.0
  0
VERTEX
  5
4C6
330
4C4
100
AcDbEntity
  8
Ebene 1
370
     0
100
AcDbVertex
100
AcDb2dVertex
 10
662.720703125
 20
895.279296875
 30
0.0
  0
SEQEND
  5
4C7
330
4C4
100
AcDbEntity
  8
Ebene 1
370
     0
  0
POLYLINE
  5
4C8
330
3C
100
AcDbEntity
  8
Ebene 1
370
     0
100
AcDb2dPolyline
 66
     1
 10
0.0
 20
0.0
 30
0.0
  0
VERTEX
  5
4C9
330
4C8
100
AcDbEntity
  8
Ebene 1
370
     0
100
AcDbVertex
100
AcDb2dVertex
 10
662.8974609375
 20
895.279296875
 30
0.0
  0
VERTEX
  5
4CA
330
4C8
100
AcDbEntity
  8
Ebene 1
370
     0
100
AcDbVertex
100
AcDb2dVertex
 10
663.25
 20
895.279296875
 30
0.0
  0
SEQEND
  5
4CB
330
4C8
100
AcDbEntity
  8
Ebene 1
370
     0
  0
POLYLINE
  5
4CC
330
3C
100
AcDbEntity
  8
Ebene 1
370
     0
100
AcDb2dPolyline
 66
     1
 10
0.0
 20
0.0
 30
0.0
  0
VERTEX
  5
4CD
330
4CC
100
AcDbEntity
  8
Ebene 1
370
     0
100
AcDbVertex
100
AcDb2dVertex
 10
663.4267578125
 20
895.279296875
 30
0.0
  0
VERTEX
  5
4CE
330
4CC
100
AcDbEntity
  8
Ebene 1
370
     0
100
AcDbVertex
100
AcDb2dVertex
 10
663.7353515625
 20
895.279296875
 30
0.0
  0
SEQEND
  5
4CF
330
4CC
100
AcDbEntity
  8
Ebene 1
370
     0
  0
POLYLINE
  5
4D0
330
3C
100
AcDbEntity
  8
Ebene 1
370
     0
100
AcDb2dPolyline
 66
     1
 10
0.0
 20
0.0
 30
0.0
  0
VERTEX
  5
4D1
330
4D0
100
AcDbEntity
  8
Ebene 1
370
     0
100
AcDbVertex
100
AcDb2dVertex
 10
663.912109375
 20
895.279296875
 30
0.0
  0
VERTEX
  5
4D2
330
4D0
100
AcDbEntity
  8
Ebene 1
370
     0
100
AcDbVertex
100
AcDb2dVertex
 10
664.2646484375
 20
895.279296875
 30
0.0
  0
SEQEND
  5
4D3
330
4D0
100
AcDbEntity
  8
Ebene 1
370
     0
  0
POLYLINE
  5
4D4
330
3C
100
AcDbEntity
  8
Ebene 1
370
     0
100
AcDb2dPolyline
 66
     1
 10
0.0
 20
0.0
 30
0.0
  0
VERTEX
  5
4D5
330
4D4
100
AcDbEntity
  8
Ebene 1
370
     0
100
AcDbVertex
100
AcDb2dVertex
 10
664.44140625
 20
895.279296875
 30
0.0
  0
VERTEX
  5
4D6
330
4D4
100
AcDbEntity
  8
Ebene 1
370
     0
100
AcDbVertex
100
AcDb2dVertex
 10
664.7939453125
 20
895.279296875
 30
0.0
  0
SEQEND
  5
4D7
330
4D4
100
AcDbEntity
  8
Ebene 1
370
     0
  0
POLYLINE
  5
4D8
330
3C
100
AcDbEntity
  8
Ebene 1
370
     0
100
AcDb2dPolyline
 66
     1
 10
0.0
 20
0.0
 30
0.0
  0
VERTEX
  5
4D9
330
4D8
100
AcDbEntity
  8
Ebene 1
370
     0
100
AcDbVertex
100
AcDb2dVertex
 10
664.970703125
 20
895.279296875
 30
0.0
  0
VERTEX
  5
4DA
330
4D8
100
AcDbEntity
  8
Ebene 1
370
     0
100
AcDbVertex
100
AcDb2dVertex
 10
665.3232421875
 20
895.279296875
 30
0.0
  0
SEQEND
  5
4DB
330
4D8
100
AcDbEntity
  8
Ebene 1
370
     0
  0
POLYLINE
  5
4DC
330
3C
100
AcDbEntity
  8
Ebene 1
370
     0
100
AcDb2dPolyline
 66
     1
 10
0.0
 20
0.0
 30
0.0
  0
VERTEX
  5
4DD
330
4DC
100
AcDbEntity
  8
Ebene 1
370
     0
100
AcDbVertex
100
AcDb2dVertex
 10
713.412109375
 20
972.0439453125
 30
0.0
  0
VERTEX
  5
4DE
330
4DC
100
AcDbEntity
  8
Ebene 1
370
     0
100
AcDbVertex
100
AcDb2dVertex
 10
761.80859375
 20
972.0439453125
 30
0.0
  0
SEQEND
  5
4DF
330
4DC
100
AcDbEntity
  8
Ebene 1
370
     0
  0
POLYLINE
  5
4E0
330
3C
100
AcDbEntity
  8
Ebene 1
370
     0
100
AcDb2dPolyline
 66
     1
 10
0.0
 20
0.0
 30
0.0
  0
VERTEX
  5
4E1
330
4E0
100
AcDbEntity
  8
Ebene 1
370
     0
100
AcDbVertex
100
AcDb2dVertex
 10
713.412109375
 20
966.529296875
 30
0.0
  0
VERTEX
  5
4E2
330
4E0
100
AcDbEntity
  8
Ebene 1
370
     0
100
AcDbVertex
100
AcDb2dVertex
 10
761.80859375
 20
966.529296875
 30
0.0
  0
SEQEND
  5
4E3
330
4E0
100
AcDbEntity
  8
Ebene 1
370
     0
  0
POLYLINE
  5
4E4
330
3C
100
AcDbEntity
  8
Ebene 1
370
     0
100
AcDb2dPolyline
 66
     1
 10
0.0
 20
0.0
 30
0.0
  0
VERTEX
  5
4E5
330
4E4
100
AcDbEntity
  8
Ebene 1
370
     0
100
AcDbVertex
100
AcDb2dVertex
 10
767.3232421875
 20
961.0146484375
 30
0.0
  0
VERTEX
  5
4E6
330
4E4
100
AcDbEntity
  8
Ebene 1
370
     0
100
AcDbVertex
100
AcDb2dVertex
 10
767.279296875
 20
961.80859375
 30
0.0
  0
VERTEX
  5
4E7
330
4E4
100
AcDbEntity
  8
Ebene 1
370
     0
100
AcDbVertex
100
AcDb2dVertex
 10
767.1025390625
 20
962.55859375
 30
0.0
  0
VERTEX
  5
4E8
330
4E4
100
AcDbEntity
  8
Ebene 1
370
     0
100
AcDbVertex
100
AcDb2dVertex
 10
766.837890625
 20
963.30859375
 30
0.0
  0
VERTEX
  5
4E9
330
4E4
100
AcDbEntity
  8
Ebene 1
370
     0
100
AcDbVertex
100
AcDb2dVertex
 10
766.44140625
 20
964.0146484375
 30
0.0
  0
VERTEX
  5
4EA
330
4E4
100
AcDbEntity
  8
Ebene 1
370
     0
100
AcDbVertex
100
AcDb2dVertex
 10
765.9560546875
 20
964.63232421875
 30
0.0
  0
VERTEX
  5
4EB
330
4E4
100
AcDbEntity
  8
Ebene 1
370
     0
100
AcDbVertex
100
AcDb2dVertex
 10
765.4267578125
 20
965.16162109375
 30
0.0
  0
VERTEX
  5
4EC
330
4E4
100
AcDbEntity
  8
Ebene 1
370
     0
100
AcDbVertex
100
AcDb2dVertex
 10
764.80859375
 20
965.64697265625
 30
0.0
  0
VERTEX
  5
4ED
330
4E4
100
AcDbEntity
  8
Ebene 1
370
     0
100
AcDbVertex
100
AcDb2dVertex
 10
764.1025390625
 20
966.0439453125
 30
0.0
  0
VERTEX
  5
4EE
330
4E4
100
AcDbEntity
  8
Ebene 1
370
     0
100
AcDbVertex
100
AcDb2dVertex
 10
763.3525390625
 20
966.30859375
 30
0.0
  0
VERTEX
  5
4EF
330
4E4
100
AcDbEntity
  8
Ebene 1
370
     0
100
AcDbVertex
100
AcDb2dVertex
 10
762.6025390625
 20
966.4853515625
 30
0.0
  0
VERTEX
  5
4F0
330
4E4
100
AcDbEntity
  8
Ebene 1
370
     0
100
AcDbVertex
100
AcDb2dVertex
 10
761.80859375
 20
966.529296875
 30
0.0
  0
SEQEND
  5
4F1
330
4E4
100
AcDbEntity
  8
Ebene 1
370
     0
  0
POLYLINE
  5
4F2
330
3C
100
AcDbEntity
  8
Ebene 1
370
     0
100
AcDb2dPolyline
 66
     1
 10
0.0
 20
0.0
 30
0.0
  0
VERTEX
  5
4F3
330
4F2
100
AcDbEntity
  8
Ebene 1
370
     0
100
AcDbVertex
100
AcDb2dVertex
 10
772.837890625
 20
961.0146484375
 30
0.0
  0
VERTEX
  5
4F4
330
4F2
100
AcDbEntity
  8
Ebene 1
370
     0
100
AcDbVertex
100
AcDb2dVertex
 10
772.7939453125
 20
962.16162109375
 30
0.0
  0
VERTEX
  5
4F5
330
4F2
100
AcDbEntity
  8
Ebene 1
370
     0
100
AcDbVertex
100
AcDb2dVertex
 10
772.6171875
 20
963.30859375
 30
0.0
  0
VERTEX
  5
4F6
330
4F2
100
AcDbEntity
  8
Ebene 1
370
     0
100
AcDbVertex
100
AcDb2dVertex
 10
772.30859375
 20
964.41162109375
 30
0.0
  0
VERTEX
  5
4F7
330
4F2
100
AcDbEntity
  8
Ebene 1
370
     0
100
AcDbVertex
100
AcDb2dVertex
 10
771.8671875
 20
965.5146484375
 30
0.0
  0
VERTEX
  5
4F8
330
4F2
100
AcDbEntity
  8
Ebene 1
370
     0
100
AcDbVertex
100
AcDb2dVertex
 10
771.3828125
 20
966.529296875
 30
0.0
  0
VERTEX
  5
4F9
330
4F2
100
AcDbEntity
  8
Ebene 1
370
     0
100
AcDbVertex
100
AcDb2dVertex
 10
770.720703125
 20
967.5
 30
0.0
  0
VERTEX
  5
4FA
330
4F2
100
AcDbEntity
  8
Ebene 1
370
     0
100
AcDbVertex
100
AcDb2dVertex
 10
770.0146484375
 20
968.38232421875
 30
0.0
  0
VERTEX
  5
4FB
330
4F2
100
AcDbEntity
  8
Ebene 1
370
     0
100
AcDbVertex
100
AcDb2dVertex
 10
769.1767578125
 20
969.220703125
 30
0.0
  0
VERTEX
  5
4FC
330
4F2
100
AcDbEntity
  8
Ebene 1
370
     0
100
AcDbVertex
100
AcDb2dVertex
 10
768.2939453125
 20
969.92626953125
 30
0.0
  0
VERTEX
  5
4FD
330
4F2
100
AcDbEntity
  8
Ebene 1
370
     0
100
AcDbVertex
100
AcDb2dVertex
 10
767.3232421875
 20
970.58837890625
 30
0.0
  0
VERTEX
  5
4FE
330
4F2
100
AcDbEntity
  8
Ebene 1
370
     0
100
AcDbVertex
100
AcDb2dVertex
 10
766.30859375
 20
971.07373046875
 30
0.0
  0
VERTEX
  5
4FF
330
4F2
100
AcDbEntity
  8
Ebene 1
370
     0
100
AcDbVertex
100
AcDb2dVertex
 10
765.2060546875
 20
971.5146484375
 30
0.0
  0
VERTEX
  5
500
330
4F2
100
AcDbEntity
  8
Ebene 1
370
     0
100
AcDbVertex
100
AcDb2dVertex
 10
764.1025390625
 20
971.82373046875
 30
0.0
  0
VERTEX
  5
501
330
4F2
100
AcDbEntity
  8
Ebene 1
370
     0
100
AcDbVertex
100
AcDb2dVertex
 10
762.9560546875
 20
972.0
 30
0.0
  0
VERTEX
  5
502
330
4F2
100
AcDbEntity
  8
Ebene 1
370
     0
100
AcDbVertex
100
AcDb2dVertex
 10
761.80859375
 20
972.0439453125
 30
0.0
  0
SEQEND
  5
503
330
4F2
100
AcDbEntity
  8
Ebene 1
370
     0
  0
POLYLINE
  5
504
330
3C
100
AcDbEntity
  8
Ebene 1
370
     0
100
AcDb2dPolyline
 66
     1
 10
0.0
 20
0.0
 30
0.0
  0
VERTEX
  5
505
330
504
100
AcDbEntity
  8
Ebene 1
370
     0
100
AcDbVertex
100
AcDb2dVertex
 10
713.412109375
 20
966.529296875
 30
0.0
  0
VERTEX
  5
506
330
504
100
AcDbEntity
  8
Ebene 1
370
     0
100
AcDbVertex
100
AcDb2dVertex
 10
713.412109375
 20
972.0439453125
 30
0.0
  0
SEQEND
  5
507
330
504
100
AcDbEntity
  8
Ebene 1
370
     0
  0
POLYLINE
  5
508
330
3C
100
AcDbEntity
  8
Ebene 1
370
     0
100
AcDb2dPolyline
 66
     1
 10
0.0
 20
0.0
 30
0.0
  0
VERTEX
  5
509
330
508
100
AcDbEntity
  8
Ebene 1
370
     0
100
AcDbVertex
100
AcDb2dVertex
 10
734.1474609375
 20
972.0439453125
 30
0.0
  0
VERTEX
  5
50A
330
508
100
AcDbEntity
  8
Ebene 1
370
     0
100
AcDbVertex
100
AcDb2dVertex
 10
734.1474609375
 20
966.529296875
 30
0.0
  0
SEQEND
  5
50B
330
508
100
AcDbEntity
  8
Ebene 1
370
     0
  0
POLYLINE
  5
50C
330
3C
100
AcDbEntity
  8
Ebene 1
370
     0
100
AcDb2dPolyline
 66
     1
 10
0.0
 20
0.0
 30
0.0
  0
VERTEX
  5
50D
330
50C
100
AcDbEntity
  8
Ebene 1
370
     0
100
AcDbVertex
100
AcDb2dVertex
 10
750.7353515625
 20
972.0439453125
 30
0.0
  0
VERTEX
  5
50E
330
50C
100
AcDbEntity
  8
Ebene 1
370
     0
100
AcDbVertex
100
AcDb2dVertex
 10
750.7353515625
 20
966.529296875
 30
0.0
  0
SEQEND
  5
50F
330
50C
100
AcDbEntity
  8
Ebene 1
370
     0
  0
POLYLINE
  5
510
330
3C
100
AcDbEntity
  8
Ebene 1
370
     0
100
AcDb2dPolyline
 66
     1
 10
0.0
 20
0.0
 30
0.0
  0
VERTEX
  5
511
330
510
100
AcDbEntity
  8
Ebene 1
370
     0
100
AcDbVertex
100
AcDb2dVertex
 10
393.82421875
 20
881.4267578125
 30
0.0
  0
VERTEX
  5
512
330
510
100
AcDbEntity
  8
Ebene 1
370
     0
100
AcDbVertex
100
AcDb2dVertex
 10
252.91162109375
 20
881.4267578125
 30
0.0
  0
SEQEND
  5
513
330
510
100
AcDbEntity
  8
Ebene 1
370
     0
  0
POLYLINE
  5
514
330
3C
100
AcDbEntity
  8
Ebene 1
370
     0
100
AcDb2dPolyline
 66
     1
 10
0.0
 20
0.0
 30
0.0
  0
VERTEX
  5
515
330
514
100
AcDbEntity
  8
Ebene 1
370
     0
100
AcDbVertex
100
AcDb2dVertex
 10
290.10302734375
 20
972.0439453125
 30
0.0
  0
VERTEX
  5
516
330
514
100
AcDbEntity
  8
Ebene 1
370
     0
100
AcDbVertex
100
AcDb2dVertex
 10
252.91162109375
 20
972.0439453125
 30
0.0
  0
SEQEND
  5
517
330
514
100
AcDbEntity
  8
Ebene 1
370
     0
  0
POLYLINE
  5
518
330
3C
100
AcDbEntity
  8
Ebene 1
370
     0
100
AcDb2dPolyline
 66
     1
 10
0.0
 20
0.0
 30
0.0
  0
VERTEX
  5
519
330
518
100
AcDbEntity
  8
Ebene 1
370
     0
100
AcDbVertex
100
AcDb2dVertex
 10
258.42626953125
 20
888.3525390625
 30
0.0
  0
VERTEX
  5
51A
330
518
100
AcDbEntity
  8
Ebene 1
370
     0
100
AcDbVertex
100
AcDb2dVertex
 10
258.42626953125
 20
965.16162109375
 30
0.0
  0
SEQEND
  5
51B
330
518
100
AcDbEntity
  8
Ebene 1
370
     0
  0
POLYLINE
  5
51C
330
3C
100
AcDbEntity
  8
Ebene 1
370
     0
100
AcDb2dPolyline
 66
     1
 10
0.0
 20
0.0
 30
0.0
  0
VERTEX
  5
51D
330
51C
100
AcDbEntity
  8
Ebene 1
370
     0
100
AcDbVertex
100
AcDb2dVertex
 10
257.279296875
 20
888.3525390625
 30
0.0
  0
VERTEX
  5
51E
330
51C
100
AcDbEntity
  8
Ebene 1
370
     0
100
AcDbVertex
100
AcDb2dVertex
 10
259.57373046875
 20
888.3525390625
 30
0.0
  0
VERTEX
  5
51F
330
51C
100
AcDbEntity
  8
Ebene 1
370
     0
100
AcDbVertex
100
AcDb2dVertex
 10
258.42626953125
 20
881.4267578125
 30
0.0
  0
VERTEX
  5
520
330
51C
100
AcDbEntity
  8
Ebene 1
370
     0
100
AcDbVertex
100
AcDb2dVertex
 10
257.279296875
 20
888.3525390625
 30
0.0
  0
SEQEND
  5
521
330
51C
100
AcDbEntity
  8
Ebene 1
370
     0
  0
HATCH
  5
522
330
3C
100
AcDbEntity
  8
Ebene 1
 62
   251
420
  6710886
100
AcDbHatch
 10
0.0
 20
0.0
 30
0.0
210
0.0
220
0.0
230
1.0
  2
SOLID
 70
     1
 71
     0
 91
        1
 92
        1
 93
        3
 72
     1
 10
257.279296875
 20
888.3525390625
 11
259.57373046875
 21
888.3525390625
 72
     1
 10
259.57373046875
 20
888.3525390625
 11
258.42626953125
 21
881.4267578125
 72
     1
 10
258.42626953125
 20
881.4267578125
 11
257.279296875
 21
888.3525390625
 97
        0
 75
     0
 76
     1
 98
        0
  0
POLYLINE
  5
523
330
3C
100
AcDbEntity
  8
Ebene 1
370
     0
100
AcDb2dPolyline
 66
     1
 10
0.0
 20
0.0
 30
0.0
  0
VERTEX
  5
524
330
523
100
AcDbEntity
  8
Ebene 1
370
     0
100
AcDbVertex
100
AcDb2dVertex
 10
257.279296875
 20
965.16162109375
 30
0.0
  0
VERTEX
  5
525
330
523
100
AcDbEntity
  8
Ebene 1
370
     0
100
AcDbVertex
100
AcDb2dVertex
 10
259.57373046875
 20
965.16162109375
 30
0.0
  0
VERTEX
  5
526
330
523
100
AcDbEntity
  8
Ebene 1
370
     0
100
AcDbVertex
100
AcDb2dVertex
 10
258.42626953125
 20
972.0439453125
 30
0.0
  0
VERTEX
  5
527
330
523
100
AcDbEntity
  8
Ebene 1
370
     0
100
AcDbVertex
100
AcDb2dVertex
 10
257.279296875
 20
965.16162109375
 30
0.0
  0
SEQEND
  5
528
330
523
100
AcDbEntity
  8
Ebene 1
370
     0
  0
HATCH
  5
529
330
3C
100
AcDbEntity
  8
Ebene 1
 62
   251
420
  6710886
100
AcDbHatch
 10
0.0
 20
0.0
 30
0.0
210
0.0
220
0.0
230
1.0
  2
SOLID
 70
     1
 71
     0
 91
        1
 92
        1
 93
        3
 72
     1
 10
257.279296875
 20
965.16162109375
 11
259.57373046875
 21
965.16162109375
 72
     1
 10
259.57373046875
 20
965.16162109375
 11
258.42626953125
 21
972.0439453125
 72
     1
 10
258.42626953125
 20
972.0439453125
 11
257.279296875
 21
965.16162109375
 97
        0
 75
     0
 76
     1
 98
        0
  0
POLYLINE
  5
52A
330
3C
100
AcDbEntity
  8
Ebene 1
370
     0
100
AcDb2dPolyline
 66
     1
 10
0.0
 20
0.0
 30
0.0
  0
VERTEX
  5
52B
330
52A
100
AcDbEntity
  8
Ebene 1
370
     0
100
AcDbVertex
100
AcDb2dVertex
 10
248.5439453125
 20
920.55859375
 30
0.0
  0
VERTEX
  5
52C
330
52A
100
AcDbEntity
  8
Ebene 1
370
     0
100
AcDbVertex
100
AcDb2dVertex
 10
247.75
 20
920.25
 30
0.0
  0
VERTEX
  5
52D
330
52A
100
AcDbEntity
  8
Ebene 1
370
     0
100
AcDbVertex
100
AcDb2dVertex
 10
247.39697265625
 20
919.3232421875
 30
0.0
  0
VERTEX
  5
52E
330
52A
100
AcDbEntity
  8
Ebene 1
370
     0
100
AcDbVertex
100
AcDb2dVertex
 10
247.39697265625
 20
918.662109375
 30
0.0
  0
VERTEX
  5
52F
330
52A
100
AcDbEntity
  8
Ebene 1
370
     0
100
AcDbVertex
100
AcDb2dVertex
 10
247.75
 20
917.7353515625
 30
0.0
  0
VERTEX
  5
530
330
52A
100
AcDbEntity
  8
Ebene 1
370
     0
100
AcDbVertex
100
AcDb2dVertex
 10
248.94140625
 20
917.0732421875
 30
0.0
  0
VERTEX
  5
531
330
52A
100
AcDbEntity
  8
Ebene 1
370
     0
100
AcDbVertex
100
AcDb2dVertex
 10
250.92626953125
 20
916.7646484375
 30
0.0
  0
VERTEX
  5
532
330
52A
100
AcDbEntity
  8
Ebene 1
370
     0
100
AcDbVertex
100
AcDb2dVertex
 10
252.91162109375
 20
916.7646484375
 30
0.0
  0
VERTEX
  5
533
330
52A
100
AcDbEntity
  8
Ebene 1
370
     0
100
AcDbVertex
100
AcDb2dVertex
 10
254.5
 20
917.0732421875
 30
0.0
  0
VERTEX
  5
534
330
52A
100
AcDbEntity
  8
Ebene 1
370
     0
100
AcDbVertex
100
AcDb2dVertex
 10
255.2939453125
 20
917.7353515625
 30
0.0
  0
VERTEX
  5
535
330
52A
100
AcDbEntity
  8
Ebene 1
370
     0
100
AcDbVertex
100
AcDb2dVertex
 10
255.69140625
 20
918.662109375
 30
0.0
  0
VERTEX
  5
536
330
52A
100
AcDbEntity
  8
Ebene 1
370
     0
100
AcDbVertex
100
AcDb2dVertex
 10
255.69140625
 20
919.0146484375
 30
0.0
  0
VERTEX
  5
537
330
52A
100
AcDbEntity
  8
Ebene 1
370
     0
100
AcDbVertex
100
AcDb2dVertex
 10
255.2939453125
 20
919.94140625
 30
0.0
  0
VERTEX
  5
538
330
52A
100
AcDbEntity
  8
Ebene 1
370
     0
100
AcDbVertex
100
AcDb2dVertex
 10
254.5
 20
920.55859375
 30
0.0
  0
VERTEX
  5
539
330
52A
100
AcDbEntity
  8
Ebene 1
370
     0
100
AcDbVertex
100
AcDb2dVertex
 10
253.30859375
 20
920.912109375
 30
0.0
  0
VERTEX
  5
53A
330
52A
100
AcDbEntity
  8
Ebene 1
370
     0
100
AcDbVertex
100
AcDb2dVertex
 10
252.91162109375
 20
920.912109375
 30
0.0
  0
VERTEX
  5
53B
330
52A
100
AcDbEntity
  8
Ebene 1
370
     0
100
AcDbVertex
100
AcDb2dVertex
 10
251.720703125
 20
920.55859375
 30
0.0
  0
VERTEX
  5
53C
330
52A
100
AcDbEntity
  8
Ebene 1
370
     0
100
AcDbVertex
100
AcDb2dVertex
 10
250.92626953125
 20
919.94140625
 30
0.0
  0
VERTEX
  5
53D
330
52A
100
AcDbEntity
  8
Ebene 1
370
     0
100
AcDbVertex
100
AcDb2dVertex
 10
250.529296875
 20
919.0146484375
 30
0.0
  0
VERTEX
  5
53E
330
52A
100
AcDbEntity
  8
Ebene 1
370
     0
100
AcDbVertex
100
AcDb2dVertex
 10
250.529296875
 20
918.662109375
 30
0.0
  0
VERTEX
  5
53F
330
52A
100
AcDbEntity
  8
Ebene 1
370
     0
100
AcDbVertex
100
AcDb2dVertex
 10
250.92626953125
 20
917.7353515625
 30
0.0
  0
VERTEX
  5
540
330
52A
100
AcDbEntity
  8
Ebene 1
370
     0
100
AcDbVertex
100
AcDb2dVertex
 10
251.720703125
 20
917.0732421875
 30
0.0
  0
VERTEX
  5
541
330
52A
100
AcDbEntity
  8
Ebene 1
370
     0
100
AcDbVertex
100
AcDb2dVertex
 10
252.91162109375
 20
916.7646484375
 30
0.0
  0
SEQEND
  5
542
330
52A
100
AcDbEntity
  8
Ebene 1
370
     0
  0
POLYLINE
  5
543
330
3C
100
AcDbEntity
  8
Ebene 1
370
     0
100
AcDb2dPolyline
 66
     1
 10
0.0
 20
0.0
 30
0.0
  0
VERTEX
  5
544
330
543
100
AcDbEntity
  8
Ebene 1
370
     0
100
AcDbVertex
100
AcDb2dVertex
 10
247.39697265625
 20
926.6025390625
 30
0.0
  0
VERTEX
  5
545
330
543
100
AcDbEntity
  8
Ebene 1
370
     0
100
AcDbVertex
100
AcDb2dVertex
 10
247.39697265625
 20
923.4267578125
 30
0.0
  0
VERTEX
  5
546
330
543
100
AcDbEntity
  8
Ebene 1
370
     0
100
AcDbVertex
100
AcDb2dVertex
 10
250.92626953125
 20
923.1171875
 30
0.0
  0
VERTEX
  5
547
330
543
100
AcDbEntity
  8
Ebene 1
370
     0
100
AcDbVertex
100
AcDb2dVertex
 10
250.529296875
 20
923.4267578125
 30
0.0
  0
VERTEX
  5
548
330
543
100
AcDbEntity
  8
Ebene 1
370
     0
100
AcDbVertex
100
AcDb2dVertex
 10
250.13232421875
 20
924.3525390625
 30
0.0
  0
VERTEX
  5
549
330
543
100
AcDbEntity
  8
Ebene 1
370
     0
100
AcDbVertex
100
AcDb2dVertex
 10
250.13232421875
 20
925.3232421875
 30
0.0
  0
VERTEX
  5
54A
330
543
100
AcDbEntity
  8
Ebene 1
370
     0
100
AcDbVertex
100
AcDb2dVertex
 10
250.529296875
 20
926.25
 30
0.0
  0
VERTEX
  5
54B
330
543
100
AcDbEntity
  8
Ebene 1
370
     0
100
AcDbVertex
100
AcDb2dVertex
 10
251.32373046875
 20
926.912109375
 30
0.0
  0
VERTEX
  5
54C
330
543
100
AcDbEntity
  8
Ebene 1
370
     0
100
AcDbVertex
100
AcDb2dVertex
 10
252.5146484375
 20
927.220703125
 30
0.0
  0
VERTEX
  5
54D
330
543
100
AcDbEntity
  8
Ebene 1
370
     0
100
AcDbVertex
100
AcDb2dVertex
 10
253.30859375
 20
927.220703125
 30
0.0
  0
VERTEX
  5
54E
330
543
100
AcDbEntity
  8
Ebene 1
370
     0
100
AcDbVertex
100
AcDb2dVertex
 10
254.5
 20
926.912109375
 30
0.0
  0
VERTEX
  5
54F
330
543
100
AcDbEntity
  8
Ebene 1
370
     0
100
AcDbVertex
100
AcDb2dVertex
 10
255.2939453125
 20
926.25
 30
0.0
  0
VERTEX
  5
550
330
543
100
AcDbEntity
  8
Ebene 1
370
     0
100
AcDbVertex
100
AcDb2dVertex
 10
255.69140625
 20
925.3232421875
 30
0.0
  0
VERTEX
  5
551
330
543
100
AcDbEntity
  8
Ebene 1
370
     0
100
AcDbVertex
100
AcDb2dVertex
 10
255.69140625
 20
924.3525390625
 30
0.0
  0
VERTEX
  5
552
330
543
100
AcDbEntity
  8
Ebene 1
370
     0
100
AcDbVertex
100
AcDb2dVertex
 10
255.2939453125
 20
923.4267578125
 30
0.0
  0
VERTEX
  5
553
330
543
100
AcDbEntity
  8
Ebene 1
370
     0
100
AcDbVertex
100
AcDb2dVertex
 10
254.89697265625
 20
923.1171875
 30
0.0
  0
VERTEX
  5
554
330
543
100
AcDbEntity
  8
Ebene 1
370
     0
100
AcDbVertex
100
AcDb2dVertex
 10
254.10302734375
 20
922.80859375
 30
0.0
  0
SEQEND
  5
555
330
543
100
AcDbEntity
  8
Ebene 1
370
     0
  0
POLYLINE
  5
556
330
3C
100
AcDbEntity
  8
Ebene 1
370
     0
100
AcDb2dPolyline
 66
     1
 10
0.0
 20
0.0
 30
0.0
  0
VERTEX
  5
557
330
556
100
AcDbEntity
  8
Ebene 1
370
     0
100
AcDbVertex
100
AcDb2dVertex
 10
254.89697265625
 20
929.7353515625
 30
0.0
  0
VERTEX
  5
558
330
556
100
AcDbEntity
  8
Ebene 1
370
     0
100
AcDbVertex
100
AcDb2dVertex
 10
255.2939453125
 20
929.4267578125
 30
0.0
  0
VERTEX
  5
559
330
556
100
AcDbEntity
  8
Ebene 1
370
     0
100
AcDbVertex
100
AcDb2dVertex
 10
255.69140625
 20
929.7353515625
 30
0.0
  0
VERTEX
  5
55A
330
556
100
AcDbEntity
  8
Ebene 1
370
     0
100
AcDbVertex
100
AcDb2dVertex
 10
255.2939453125
 20
930.0439453125
 30
0.0
  0
VERTEX
  5
55B
330
556
100
AcDbEntity
  8
Ebene 1
370
     0
100
AcDbVertex
100
AcDb2dVertex
 10
254.89697265625
 20
929.7353515625
 30
0.0
  0
VERTEX
  5
55C
330
556
100
AcDbEntity
  8
Ebene 1
370
     0
100
AcDbVertex
100
AcDb2dVertex
 10
254.89697265625
 20
929.7353515625
 30
0.0
  0
SEQEND
  5
55D
330
556
100
AcDbEntity
  8
Ebene 1
370
     0
  0
POLYLINE
  5
55E
330
3C
100
AcDbEntity
  8
Ebene 1
370
     0
100
AcDb2dPolyline
 66
     1
 10
0.0
 20
0.0
 30
0.0
  0
VERTEX
  5
55F
330
55E
100
AcDbEntity
  8
Ebene 1
370
     0
100
AcDbVertex
100
AcDb2dVertex
 10
-161.0
 20
-199.1025390625
 30
0.0
  0
VERTEX
  5
560
330
55E
100
AcDbEntity
  8
Ebene 1
370
     0
100
AcDbVertex
100
AcDb2dVertex
 10
-161.0
 20
-199.1025390625
 30
0.0
  0
SEQEND
  5
561
330
55E
100
AcDbEntity
  8
Ebene 1
370
     0
  0
POLYLINE
  5
562
330
3C
100
AcDbEntity
  8
Ebene 1
370
     0
100
AcDb2dPolyline
 66
     1
 10
0.0
 20
0.0
 30
0.0
  0
VERTEX
  5
563
330
562
100
AcDbEntity
  8
Ebene 1
370
     0
100
AcDbVertex
100
AcDb2dVertex
 10
-161.0
 20
-199.1025390625
 30
0.0
  0
VERTEX
  5
564
330
562
100
AcDbEntity
  8
Ebene 1
370
     0
100
AcDbVertex
100
AcDb2dVertex
 10
-161.0
 20
-199.1025390625
 30
0.0
  0
SEQEND
  5
565
330
562
100
AcDbEntity
  8
Ebene 1
370
     0
  0
POLYLINE
  5
566
330
3C
100
AcDbEntity
  8
Ebene 1
370
     0
100
AcDb2dPolyline
 66
     1
 10
0.0
 20
0.0
 30
0.0
  0
VERTEX
  5
567
330
566
100
AcDbEntity
  8
Ebene 1
370
     0
100
AcDbVertex
100
AcDb2dVertex
 10
-161.0
 20
-199.1025390625
 30
0.0
  0
VERTEX
  5
568
330
566
100
AcDbEntity
  8
Ebene 1
370
     0
100
AcDbVertex
100
AcDb2dVertex
 10
-161.0
 20
-199.1025390625
 30
0.0
  0
SEQEND
  5
569
330
566
100
AcDbEntity
  8
Ebene 1
370
     0
  0
POLYLINE
  5
56A
330
3C
100
AcDbEntity
  8
Ebene 1
370
     0
100
AcDb2dPolyline
 66
     1
 10
0.0
 20
0.0
 30
0.0
  0
VERTEX
  5
56B
330
56A
100
AcDbEntity
  8
Ebene 1
370
     0
100
AcDbVertex
100
AcDb2dVertex
 10
247.39697265625
 20
936.08837890625
 30
0.0
  0
VERTEX
  5
56C
330
56A
100
AcDbEntity
  8
Ebene 1
370
     0
100
AcDbVertex
100
AcDb2dVertex
 10
247.39697265625
 20
932.91162109375
 30
0.0
  0
VERTEX
  5
56D
330
56A
100
AcDbEntity
  8
Ebene 1
370
     0
100
AcDbVertex
100
AcDb2dVertex
 10
250.92626953125
 20
932.60302734375
 30
0.0
  0
VERTEX
  5
56E
330
56A
100
AcDbEntity
  8
Ebene 1
370
     0
100
AcDbVertex
100
AcDb2dVertex
 10
250.529296875
 20
932.91162109375
 30
0.0
  0
VERTEX
  5
56F
330
56A
100
AcDbEntity
  8
Ebene 1
370
     0
100
AcDbVertex
100
AcDb2dVertex
 10
250.13232421875
 20
933.83837890625
 30
0.0
  0
VERTEX
  5
570
330
56A
100
AcDbEntity
  8
Ebene 1
370
     0
100
AcDbVertex
100
AcDb2dVertex
 10
250.13232421875
 20
934.80859375
 30
0.0
  0
VERTEX
  5
571
330
56A
100
AcDbEntity
  8
Ebene 1
370
     0
100
AcDbVertex
100
AcDb2dVertex
 10
250.529296875
 20
935.779296875
 30
0.0
  0
VERTEX
  5
572
330
56A
100
AcDbEntity
  8
Ebene 1
370
     0
100
AcDbVertex
100
AcDb2dVertex
 10
251.32373046875
 20
936.39697265625
 30
0.0
  0
VERTEX
  5
573
330
56A
100
AcDbEntity
  8
Ebene 1
370
     0
100
AcDbVertex
100
AcDb2dVertex
 10
252.5146484375
 20
936.7060546875
 30
0.0
  0
VERTEX
  5
574
330
56A
100
AcDbEntity
  8
Ebene 1
370
     0
100
AcDbVertex
100
AcDb2dVertex
 10
253.30859375
 20
936.7060546875
 30
0.0
  0
VERTEX
  5
575
330
56A
100
AcDbEntity
  8
Ebene 1
370
     0
100
AcDbVertex
100
AcDb2dVertex
 10
254.5
 20
936.39697265625
 30
0.0
  0
VERTEX
  5
576
330
56A
100
AcDbEntity
  8
Ebene 1
370
     0
100
AcDbVertex
100
AcDb2dVertex
 10
255.2939453125
 20
935.779296875
 30
0.0
  0
VERTEX
  5
577
330
56A
100
AcDbEntity
  8
Ebene 1
370
     0
100
AcDbVertex
100
AcDb2dVertex
 10
255.69140625
 20
934.80859375
 30
0.0
  0
VERTEX
  5
578
330
56A
100
AcDbEntity
  8
Ebene 1
370
     0
100
AcDbVertex
100
AcDb2dVertex
 10
255.69140625
 20
933.83837890625
 30
0.0
  0
VERTEX
  5
579
330
56A
100
AcDbEntity
  8
Ebene 1
370
     0
100
AcDbVertex
100
AcDb2dVertex
 10
255.2939453125
 20
932.91162109375
 30
0.0
  0
VERTEX
  5
57A
330
56A
100
AcDbEntity
  8
Ebene 1
370
     0
100
AcDbVertex
100
AcDb2dVertex
 10
254.89697265625
 20
932.60302734375
 30
0.0
  0
VERTEX
  5
57B
330
56A
100
AcDbEntity
  8
Ebene 1
370
     0
100
AcDbVertex
100
AcDb2dVertex
 10
254.10302734375
 20
932.2939453125
 30
0.0
  0
SEQEND
  5
57C
330
56A
100
AcDbEntity
  8
Ebene 1
370
     0
  0
POLYLINE
  5
57D
330
3C
100
AcDbEntity
  8
Ebene 1
370
     0
100
AcDb2dPolyline
 66
     1
 10
0.0
 20
0.0
 30
0.0
  0
VERTEX
  5
57E
330
57D
100
AcDbEntity
  8
Ebene 1
370
     0
100
AcDbVertex
100
AcDb2dVertex
 10
402.162109375
 20
928.4560546875
 30
0.0
  0
VERTEX
  5
57F
330
57D
100
AcDbEntity
  8
Ebene 1
370
     0
100
AcDbVertex
100
AcDb2dVertex
 10
402.162109375
 20
984.4853515625
 30
0.0
  0
SEQEND
  5
580
330
57D
100
AcDbEntity
  8
Ebene 1
370
     0
  0
POLYLINE
  5
581
330
3C
100
AcDbEntity
  8
Ebene 1
370
     0
100
AcDb2dPolyline
 66
     1
 10
0.0
 20
0.0
 30
0.0
  0
VERTEX
  5
582
330
581
100
AcDbEntity
  8
Ebene 1
370
     0
100
AcDbVertex
100
AcDb2dVertex
 10
281.80859375
 20
963.75
 30
0.0
  0
VERTEX
  5
583
330
581
100
AcDbEntity
  8
Ebene 1
370
     0
100
AcDbVertex
100
AcDb2dVertex
 10
281.80859375
 20
984.4853515625
 30
0.0
  0
SEQEND
  5
584
330
581
100
AcDbEntity
  8
Ebene 1
370
     0
  0
POLYLINE
  5
585
330
3C
100
AcDbEntity
  8
Ebene 1
370
     0
100
AcDb2dPolyline
 66
     1
 10
0.0
 20
0.0
 30
0.0
  0
VERTEX
  5
586
330
585
100
AcDbEntity
  8
Ebene 1
370
     0
100
AcDbVertex
100
AcDb2dVertex
 10
395.2353515625
 20
978.92626953125
 30
0.0
  0
VERTEX
  5
587
330
585
100
AcDbEntity
  8
Ebene 1
370
     0
100
AcDbVertex
100
AcDb2dVertex
 10
288.7353515625
 20
978.92626953125
 30
0.0
  0
SEQEND
  5
588
330
585
100
AcDbEntity
  8
Ebene 1
370
     0
  0
POLYLINE
  5
589
330
3C
100
AcDbEntity
  8
Ebene 1
370
     0
100
AcDb2dPolyline
 66
     1
 10
0.0
 20
0.0
 30
0.0
  0
VERTEX
  5
58A
330
589
100
AcDbEntity
  8
Ebene 1
370
     0
100
AcDbVertex
100
AcDb2dVertex
 10
395.2353515625
 20
980.07373046875
 30
0.0
  0
VERTEX
  5
58B
330
589
100
AcDbEntity
  8
Ebene 1
370
     0
100
AcDbVertex
100
AcDb2dVertex
 10
395.2353515625
 20
977.779296875
 30
0.0
  0
VERTEX
  5
58C
330
589
100
AcDbEntity
  8
Ebene 1
370
     0
100
AcDbVertex
100
AcDb2dVertex
 10
402.162109375
 20
978.92626953125
 30
0.0
  0
VERTEX
  5
58D
330
589
100
AcDbEntity
  8
Ebene 1
370
     0
100
AcDbVertex
100
AcDb2dVertex
 10
395.2353515625
 20
980.07373046875
 30
0.0
  0
SEQEND
  5
58E
330
589
100
AcDbEntity
  8
Ebene 1
370
     0
  0
HATCH
  5
58F
330
3C
100
AcDbEntity
  8
Ebene 1
 62
   251
420
  6710886
100
AcDbHatch
 10
0.0
 20
0.0
 30
0.0
210
0.0
220
0.0
230
1.0
  2
SOLID
 70
     1
 71
     0
 91
        1
 92
        1
 93
        3
 72
     1
 10
395.2353515625
 20
980.07373046875
 11
395.2353515625
 21
977.779296875
 72
     1
 10
395.2353515625
 20
977.779296875
 11
402.162109375
 21
978.92626953125
 72
     1
 10
402.162109375
 20
978.92626953125
 11
395.2353515625
 21
980.07373046875
 97
        0
 75
     0
 76
     1
 98
        0
  0
POLYLINE
  5
590
330
3C
100
AcDbEntity
  8
Ebene 1
370
     0
100
AcDb2dPolyline
 66
     1
 10
0.0
 20
0.0
 30
0.0
  0
VERTEX
  5
591
330
590
100
AcDbEntity
  8
Ebene 1
370
     0
100
AcDbVertex
100
AcDb2dVertex
 10
288.7353515625
 20
980.07373046875
 30
0.0
  0
VERTEX
  5
592
330
590
100
AcDbEntity
  8
Ebene 1
370
     0
100
AcDbVertex
100
AcDb2dVertex
 10
288.7353515625
 20
977.779296875
 30
0.0
  0
VERTEX
  5
593
330
590
100
AcDbEntity
  8
Ebene 1
370
     0
100
AcDbVertex
100
AcDb2dVertex
 10
281.80859375
 20
978.92626953125
 30
0.0
  0
VERTEX
  5
594
330
590
100
AcDbEntity
  8
Ebene 1
370
     0
100
AcDbVertex
100
AcDb2dVertex
 10
288.7353515625
 20
980.07373046875
 30
0.0
  0
SEQEND
  5
595
330
590
100
AcDbEntity
  8
Ebene 1
370
     0
  0
HATCH
  5
596
330
3C
100
AcDbEntity
  8
Ebene 1
 62
   251
420
  6710886
100
AcDbHatch
 10
0.0
 20
0.0
 30
0.0
210
0.0
220
0.0
230
1.0
  2
SOLID
 70
     1
 71
     0
 91
        1
 92
        1
 93
        3
 72
     1
 10
288.7353515625
 20
980.07373046875
 11
288.7353515625
 21
977.779296875
 72
     1
 10
288.7353515625
 20
977.779296875
 11
281.80859375
 21
978.92626953125
 72
     1
 10
281.80859375
 20
978.92626953125
 11
288.7353515625
 21
980.07373046875
 97
        0
 75
     0
 76
     1
 98
        0
  0
POLYLINE
  5
597
330
3C
100
AcDbEntity
  8
Ebene 1
370
     0
100
AcDb2dPolyline
 66
     1
 10
0.0
 20
0.0
 30
0.0
  0
VERTEX
  5
598
330
597
100
AcDbEntity
  8
Ebene 1
370
     0
100
AcDbVertex
100
AcDb2dVertex
 10
338.19140625
 20
990.0
 30
0.0
  0
VERTEX
  5
599
330
597
100
AcDbEntity
  8
Ebene 1
370
     0
100
AcDbVertex
100
AcDb2dVertex
 10
337.220703125
 20
989.60302734375
 30
0.0
  0
VERTEX
  5
59A
330
597
100
AcDbEntity
  8
Ebene 1
370
     0
100
AcDbVertex
100
AcDb2dVertex
 10
336.912109375
 20
988.80859375
 30
0.0
  0
VERTEX
  5
59B
330
597
100
AcDbEntity
  8
Ebene 1
370
     0
100
AcDbVertex
100
AcDb2dVertex
 10
336.912109375
 20
988.0146484375
 30
0.0
  0
VERTEX
  5
59C
330
597
100
AcDbEntity
  8
Ebene 1
370
     0
100
AcDbVertex
100
AcDb2dVertex
 10
337.220703125
 20
987.220703125
 30
0.0
  0
VERTEX
  5
59D
330
597
100
AcDbEntity
  8
Ebene 1
370
     0
100
AcDbVertex
100
AcDb2dVertex
 10
337.8828125
 20
986.82373046875
 30
0.0
  0
VERTEX
  5
59E
330
597
100
AcDbEntity
  8
Ebene 1
370
     0
100
AcDbVertex
100
AcDb2dVertex
 10
339.1171875
 20
986.42626953125
 30
0.0
  0
VERTEX
  5
59F
330
597
100
AcDbEntity
  8
Ebene 1
370
     0
100
AcDbVertex
100
AcDb2dVertex
 10
340.087890625
 20
986.029296875
 30
0.0
  0
VERTEX
  5
5A0
330
597
100
AcDbEntity
  8
Ebene 1
370
     0
100
AcDbVertex
100
AcDb2dVertex
 10
340.7060546875
 20
985.2353515625
 30
0.0
  0
VERTEX
  5
5A1
330
597
100
AcDbEntity
  8
Ebene 1
370
     0
100
AcDbVertex
100
AcDb2dVertex
 10
341.0146484375
 20
984.4853515625
 30
0.0
  0
VERTEX
  5
5A2
330
597
100
AcDbEntity
  8
Ebene 1
370
     0
100
AcDbVertex
100
AcDb2dVertex
 10
341.0146484375
 20
983.2939453125
 30
0.0
  0
VERTEX
  5
5A3
330
597
100
AcDbEntity
  8
Ebene 1
370
     0
100
AcDbVertex
100
AcDb2dVertex
 10
340.7060546875
 20
982.5
 30
0.0
  0
VERTEX
  5
5A4
330
597
100
AcDbEntity
  8
Ebene 1
370
     0
100
AcDbVertex
100
AcDb2dVertex
 10
340.396484375
 20
982.10302734375
 30
0.0
  0
VERTEX
  5
5A5
330
597
100
AcDbEntity
  8
Ebene 1
370
     0
100
AcDbVertex
100
AcDb2dVertex
 10
339.470703125
 20
981.7060546875
 30
0.0
  0
VERTEX
  5
5A6
330
597
100
AcDbEntity
  8
Ebene 1
370
     0
100
AcDbVertex
100
AcDb2dVertex
 10
338.19140625
 20
981.7060546875
 30
0.0
  0
VERTEX
  5
5A7
330
597
100
AcDbEntity
  8
Ebene 1
370
     0
100
AcDbVertex
100
AcDb2dVertex
 10
337.220703125
 20
982.10302734375
 30
0.0
  0
VERTEX
  5
5A8
330
597
100
AcDbEntity
  8
Ebene 1
370
     0
100
AcDbVertex
100
AcDb2dVertex
 10
336.912109375
 20
982.5
 30
0.0
  0
VERTEX
  5
5A9
330
597
100
AcDbEntity
  8
Ebene 1
370
     0
100
AcDbVertex
100
AcDb2dVertex
 10
336.603515625
 20
983.2939453125
 30
0.0
  0
VERTEX
  5
5AA
330
597
100
AcDbEntity
  8
Ebene 1
370
     0
100
AcDbVertex
100
AcDb2dVertex
 10
336.603515625
 20
984.4853515625
 30
0.0
  0
VERTEX
  5
5AB
330
597
100
AcDbEntity
  8
Ebene 1
370
     0
100
AcDbVertex
100
AcDb2dVertex
 10
336.912109375
 20
985.2353515625
 30
0.0
  0
VERTEX
  5
5AC
330
597
100
AcDbEntity
  8
Ebene 1
370
     0
100
AcDbVertex
100
AcDb2dVertex
 10
337.57421875
 20
986.029296875
 30
0.0
  0
VERTEX
  5
5AD
330
597
100
AcDbEntity
  8
Ebene 1
370
     0
100
AcDbVertex
100
AcDb2dVertex
 10
338.5
 20
986.42626953125
 30
0.0
  0
VERTEX
  5
5AE
330
597
100
AcDbEntity
  8
Ebene 1
370
     0
100
AcDbVertex
100
AcDb2dVertex
 10
339.779296875
 20
986.82373046875
 30
0.0
  0
VERTEX
  5
5AF
330
597
100
AcDbEntity
  8
Ebene 1
370
     0
100
AcDbVertex
100
AcDb2dVertex
 10
340.396484375
 20
987.220703125
 30
0.0
  0
VERTEX
  5
5B0
330
597
100
AcDbEntity
  8
Ebene 1
370
     0
100
AcDbVertex
100
AcDb2dVertex
 10
340.7060546875
 20
988.0146484375
 30
0.0
  0
VERTEX
  5
5B1
330
597
100
AcDbEntity
  8
Ebene 1
370
     0
100
AcDbVertex
100
AcDb2dVertex
 10
340.7060546875
 20
988.80859375
 30
0.0
  0
VERTEX
  5
5B2
330
597
100
AcDbEntity
  8
Ebene 1
370
     0
100
AcDbVertex
100
AcDb2dVertex
 10
340.396484375
 20
989.60302734375
 30
0.0
  0
VERTEX
  5
5B3
330
597
100
AcDbEntity
  8
Ebene 1
370
     0
100
AcDbVertex
100
AcDb2dVertex
 10
339.470703125
 20
990.0
 30
0.0
  0
VERTEX
  5
5B4
330
597
100
AcDbEntity
  8
Ebene 1
370
     0
100
AcDbVertex
100
AcDb2dVertex
 10
338.19140625
 20
990.0
 30
0.0
  0
VERTEX
  5
5B5
330
597
100
AcDbEntity
  8
Ebene 1
370
     0
100
AcDbVertex
100
AcDb2dVertex
 10
338.19140625
 20
990.0
 30
0.0
  0
SEQEND
  5
5B6
330
597
100
AcDbEntity
  8
Ebene 1
370
     0
  0
POLYLINE
  5
5B7
330
3C
100
AcDbEntity
  8
Ebene 1
370
     0
100
AcDb2dPolyline
 66
     1
 10
0.0
 20
0.0
 30
0.0
  0
VERTEX
  5
5B8
330
5B7
100
AcDbEntity
  8
Ebene 1
370
     0
100
AcDbVertex
100
AcDb2dVertex
 10
-161.0
 20
-199.1025390625
 30
0.0
  0
VERTEX
  5
5B9
330
5B7
100
AcDbEntity
  8
Ebene 1
370
     0
100
AcDbVertex
100
AcDb2dVertex
 10
-161.0
 20
-199.1025390625
 30
0.0
  0
SEQEND
  5
5BA
330
5B7
100
AcDbEntity
  8
Ebene 1
370
     0
  0
POLYLINE
  5
5BB
330
3C
100
AcDbEntity
  8
Ebene 1
370
     0
100
AcDb2dPolyline
 66
     1
 10
0.0
 20
0.0
 30
0.0
  0
VERTEX
  5
5BC
330
5BB
100
AcDbEntity
  8
Ebene 1
370
     0
100
AcDbVertex
100
AcDb2dVertex
 10
-161.0
 20
-199.1025390625
 30
0.0
  0
VERTEX
  5
5BD
330
5BB
100
AcDbEntity
  8
Ebene 1
370
     0
100
AcDbVertex
100
AcDb2dVertex
 10
-161.0
 20
-199.1025390625
 30
0.0
  0
SEQEND
  5
5BE
330
5BB
100
AcDbEntity
  8
Ebene 1
370
     0
  0
POLYLINE
  5
5BF
330
3C
100
AcDbEntity
  8
Ebene 1
370
     0
100
AcDb2dPolyline
 66
     1
 10
0.0
 20
0.0
 30
0.0
  0
VERTEX
  5
5C0
330
5BF
100
AcDbEntity
  8
Ebene 1
370
     0
100
AcDbVertex
100
AcDb2dVertex
 10
-161.0
 20
-199.1025390625
 30
0.0
  0
VERTEX
  5
5C1
330
5BF
100
AcDbEntity
  8
Ebene 1
370
     0
100
AcDbVertex
100
AcDb2dVertex
 10
-161.0
 20
-199.1025390625
 30
0.0
  0
SEQEND
  5
5C2
330
5BF
100
AcDbEntity
  8
Ebene 1
370
     0
  0
POLYLINE
  5
5C3
330
3C
100
AcDbEntity
  8
Ebene 1
370
     0
100
AcDb2dPolyline
 66
     1
 10
0.0
 20
0.0
 30
0.0
  0
VERTEX
  5
5C4
330
5C3
100
AcDbEntity
  8
Ebene 1
370
     0
100
AcDbVertex
100
AcDb2dVertex
 10
347.3671875
 20
990.0
 30
0.0
  0
VERTEX
  5
5C5
330
5C3
100
AcDbEntity
  8
Ebene 1
370
     0
100
AcDbVertex
100
AcDb2dVertex
 10
344.19140625
 20
981.7060546875
 30
0.0
  0
SEQEND
  5
5C6
330
5C3
100
AcDbEntity
  8
Ebene 1
370
     0
  0
POLYLINE
  5
5C7
330
3C
100
AcDbEntity
  8
Ebene 1
370
     0
100
AcDb2dPolyline
 66
     1
 10
0.0
 20
0.0
 30
0.0
  0
VERTEX
  5
5C8
330
5C7
100
AcDbEntity
  8
Ebene 1
370
     0
100
AcDbVertex
100
AcDb2dVertex
 10
342.912109375
 20
990.0
 30
0.0
  0
VERTEX
  5
5C9
330
5C7
100
AcDbEntity
  8
Ebene 1
370
     0
100
AcDbVertex
100
AcDb2dVertex
 10
347.3671875
 20
990.0
 30
0.0
  0
SEQEND
  5
5CA
330
5C7
100
AcDbEntity
  8
Ebene 1
370
     0
  0
POLYLINE
  5
5CB
330
3C
100
AcDbEntity
  8
Ebene 1
370
     0
100
AcDb2dPolyline
 66
     1
 10
0.0
 20
0.0
 30
0.0
  0
VERTEX
  5
5CC
330
5CB
100
AcDbEntity
  8
Ebene 1
370
     0
100
AcDbVertex
100
AcDb2dVertex
 10
412.220703125
 20
918.7939453125
 30
0.0
  0
VERTEX
  5
5CD
330
5CB
100
AcDbEntity
  8
Ebene 1
370
     0
100
AcDbVertex
100
AcDb2dVertex
 10
427.7939453125
 20
918.7939453125
 30
0.0
  0
SEQEND
  5
5CE
330
5CB
100
AcDbEntity
  8
Ebene 1
370
     0
  0
POLYLINE
  5
5CF
330
3C
100
AcDbEntity
  8
Ebene 1
370
     0
100
AcDb2dPolyline
 66
     1
 10
0.0
 20
0.0
 30
0.0
  0
VERTEX
  5
5D0
330
5CF
100
AcDbEntity
  8
Ebene 1
370
     0
100
AcDbVertex
100
AcDb2dVertex
 10
393.82421875
 20
936.7939453125
 30
0.0
  0
VERTEX
  5
5D1
330
5CF
100
AcDbEntity
  8
Ebene 1
370
     0
100
AcDbVertex
100
AcDb2dVertex
 10
427.7939453125
 20
936.7939453125
 30
0.0
  0
SEQEND
  5
5D2
330
5CF
100
AcDbEntity
  8
Ebene 1
370
     0
  0
POLYLINE
  5
5D3
330
3C
100
AcDbEntity
  8
Ebene 1
370
     0
100
AcDb2dPolyline
 66
     1
 10
0.0
 20
0.0
 30
0.0
  0
VERTEX
  5
5D4
330
5D3
100
AcDbEntity
  8
Ebene 1
370
     0
100
AcDbVertex
100
AcDb2dVertex
 10
422.2353515625
 20
911.8671875
 30
0.0
  0
VERTEX
  5
5D5
330
5D3
100
AcDbEntity
  8
Ebene 1
370
     0
100
AcDbVertex
100
AcDb2dVertex
 10
422.2353515625
 20
904.94140625
 30
0.0
  0
SEQEND
  5
5D6
330
5D3
100
AcDbEntity
  8
Ebene 1
370
     0
  0
POLYLINE
  5
5D7
330
3C
100
AcDbEntity
  8
Ebene 1
370
     0
100
AcDb2dPolyline
 66
     1
 10
0.0
 20
0.0
 30
0.0
  0
VERTEX
  5
5D8
330
5D7
100
AcDbEntity
  8
Ebene 1
370
     0
100
AcDbVertex
100
AcDb2dVertex
 10
422.2353515625
 20
943.67626953125
 30
0.0
  0
VERTEX
  5
5D9
330
5D7
100
AcDbEntity
  8
Ebene 1
370
     0
100
AcDbVertex
100
AcDb2dVertex
 10
422.2353515625
 20
965.9560546875
 30
0.0
  0
SEQEND
  5
5DA
330
5D7
100
AcDbEntity
  8
Ebene 1
370
     0
  0
POLYLINE
  5
5DB
330
3C
100
AcDbEntity
  8
Ebene 1
370
     0
100
AcDb2dPolyline
 66
     1
 10
0.0
 20
0.0
 30
0.0
  0
VERTEX
  5
5DC
330
5DB
100
AcDbEntity
  8
Ebene 1
370
     0
100
AcDbVertex
100
AcDb2dVertex
 10
422.2353515625
 20
918.7939453125
 30
0.0
  0
VERTEX
  5
5DD
330
5DB
100
AcDbEntity
  8
Ebene 1
370
     0
100
AcDbVertex
100
AcDb2dVertex
 10
422.2353515625
 20
936.7939453125
 30
0.0
  0
SEQEND
  5
5DE
330
5DB
100
AcDbEntity
  8
Ebene 1
370
     0
  0
POLYLINE
  5
5DF
330
3C
100
AcDbEntity
  8
Ebene 1
370
     0
100
AcDb2dPolyline
 66
     1
 10
0.0
 20
0.0
 30
0.0
  0
VERTEX
  5
5E0
330
5DF
100
AcDbEntity
  8
Ebene 1
370
     0
100
AcDbVertex
100
AcDb2dVertex
 10
421.087890625
 20
911.8671875
 30
0.0
  0
VERTEX
  5
5E1
330
5DF
100
AcDbEntity
  8
Ebene 1
370
     0
100
AcDbVertex
100
AcDb2dVertex
 10
423.3828125
 20
911.8671875
 30
0.0
  0
VERTEX
  5
5E2
330
5DF
100
AcDbEntity
  8
Ebene 1
370
     0
100
AcDbVertex
100
AcDb2dVertex
 10
422.2353515625
 20
918.7939453125
 30
0.0
  0
VERTEX
  5
5E3
330
5DF
100
AcDbEntity
  8
Ebene 1
370
     0
100
AcDbVertex
100
AcDb2dVertex
 10
421.087890625
 20
911.8671875
 30
0.0
  0
SEQEND
  5
5E4
330
5DF
100
AcDbEntity
  8
Ebene 1
370
     0
  0
HATCH
  5
5E5
330
3C
100
AcDbEntity
  8
Ebene 1
 62
   251
420
  6710886
100
AcDbHatch
 10
0.0
 20
0.0
 30
0.0
210
0.0
220
0.0
230
1.0
  2
SOLID
 70
     1
 71
     0
 91
        1
 92
        1
 93
        3
 72
     1
 10
421.087890625
 20
911.8671875
 11
423.3828125
 21
911.8671875
 72
     1
 10
423.3828125
 20
911.8671875
 11
422.2353515625
 21
918.7939453125
 72
     1
 10
422.2353515625
 20
918.7939453125
 11
421.087890625
 21
911.8671875
 97
        0
 75
     0
 76
     1
 98
        0
  0
POLYLINE
  5
5E6
330
3C
100
AcDbEntity
  8
Ebene 1
370
     0
100
AcDb2dPolyline
 66
     1
 10
0.0
 20
0.0
 30
0.0
  0
VERTEX
  5
5E7
330
5E6
100
AcDbEntity
  8
Ebene 1
370
     0
100
AcDbVertex
100
AcDb2dVertex
 10
421.087890625
 20
943.67626953125
 30
0.0
  0
VERTEX
  5
5E8
330
5E6
100
AcDbEntity
  8
Ebene 1
370
     0
100
AcDbVertex
100
AcDb2dVertex
 10
423.3828125
 20
943.67626953125
 30
0.0
  0
VERTEX
  5
5E9
330
5E6
100
AcDbEntity
  8
Ebene 1
370
     0
100
AcDbVertex
100
AcDb2dVertex
 10
422.2353515625
 20
936.7939453125
 30
0.0
  0
VERTEX
  5
5EA
330
5E6
100
AcDbEntity
  8
Ebene 1
370
     0
100
AcDbVertex
100
AcDb2dVertex
 10
421.087890625
 20
943.67626953125
 30
0.0
  0
SEQEND
  5
5EB
330
5E6
100
AcDbEntity
  8
Ebene 1
370
     0
  0
HATCH
  5
5EC
330
3C
100
AcDbEntity
  8
Ebene 1
 62
   251
420
  6710886
100
AcDbHatch
 10
0.0
 20
0.0
 30
0.0
210
0.0
220
0.0
230
1.0
  2
SOLID
 70
     1
 71
     0
 91
        1
 92
        1
 93
        3
 72
     1
 10
421.087890625
 20
943.67626953125
 11
423.3828125
 21
943.67626953125
 72
     1
 10
423.3828125
 20
943.67626953125
 11
422.2353515625
 21
936.7939453125
 72
     1
 10
422.2353515625
 20
936.7939453125
 11
421.087890625
 21
943.67626953125
 97
        0
 75
     0
 76
     1
 98
        0
  0
POLYLINE
  5
5ED
330
3C
100
AcDbEntity
  8
Ebene 1
370
     0
100
AcDb2dPolyline
 66
     1
 10
0.0
 20
0.0
 30
0.0
  0
VERTEX
  5
5EE
330
5ED
100
AcDbEntity
  8
Ebene 1
370
     0
100
AcDbVertex
100
AcDb2dVertex
 10
-161.0
 20
-199.1025390625
 30
0.0
  0
VERTEX
  5
5EF
330
5ED
100
AcDbEntity
  8
Ebene 1
370
     0
100
AcDbVertex
100
AcDb2dVertex
 10
-161.0
 20
-199.1025390625
 30
0.0
  0
SEQEND
  5
5F0
330
5ED
100
AcDbEntity
  8
Ebene 1
370
     0
  0
POLYLINE
  5
5F1
330
3C
100
AcDbEntity
  8
Ebene 1
370
     0
100
AcDb2dPolyline
 66
     1
 10
0.0
 20
0.0
 30
0.0
  0
VERTEX
  5
5F2
330
5F1
100
AcDbEntity
  8
Ebene 1
370
     0
100
AcDbVertex
100
AcDb2dVertex
 10
-161.0
 20
-199.1025390625
 30
0.0
  0
VERTEX
  5
5F3
330
5F1
100
AcDbEntity
  8
Ebene 1
370
     0
100
AcDbVertex
100
AcDb2dVertex
 10
-161.0
 20
-199.1025390625
 30
0.0
  0
SEQEND
  5
5F4
330
5F1
100
AcDbEntity
  8
Ebene 1
370
     0
  0
POLYLINE
  5
5F5
330
3C
100
AcDbEntity
  8
Ebene 1
370
     0
100
AcDb2dPolyline
 66
     1
 10
0.0
 20
0.0
 30
0.0
  0
VERTEX
  5
5F6
330
5F5
100
AcDbEntity
  8
Ebene 1
370
     0
100
AcDbVertex
100
AcDb2dVertex
 10
-161.0
 20
-199.1025390625
 30
0.0
  0
VERTEX
  5
5F7
330
5F5
100
AcDbEntity
  8
Ebene 1
370
     0
100
AcDbVertex
100
AcDb2dVertex
 10
-161.0
 20
-199.1025390625
 30
0.0
  0
SEQEND
  5
5F8
330
5F5
100
AcDbEntity
  8
Ebene 1
370
     0
  0
POLYLINE
  5
5F9
330
3C
100
AcDbEntity
  8
Ebene 1
370
     0
100
AcDb2dPolyline
 66
     1
 10
0.0
 20
0.0
 30
0.0
  0
VERTEX
  5
5FA
330
5F9
100
AcDbEntity
  8
Ebene 1
370
     0
100
AcDbVertex
100
AcDb2dVertex
 10
412.75
 20
953.38232421875
 30
0.0
  0
VERTEX
  5
5FB
330
5F9
100
AcDbEntity
  8
Ebene 1
370
     0
100
AcDbVertex
100
AcDb2dVertex
 10
412.353515625
 20
954.0
 30
0.0
  0
VERTEX
  5
5FC
330
5F9
100
AcDbEntity
  8
Ebene 1
370
     0
100
AcDbVertex
100
AcDb2dVertex
 10
411.162109375
 20
954.970703125
 30
0.0
  0
VERTEX
  5
5FD
330
5F9
100
AcDbEntity
  8
Ebene 1
370
     0
100
AcDbVertex
100
AcDb2dVertex
 10
419.5
 20
954.970703125
 30
0.0
  0
SEQEND
  5
5FE
330
5F9
100
AcDbEntity
  8
Ebene 1
370
     0
  0
POLYLINE
  5
5FF
330
3C
100
AcDbEntity
  8
Ebene 1
370
     0
100
AcDb2dPolyline
 66
     1
 10
0.0
 20
0.0
 30
0.0
  0
VERTEX
  5
600
330
5FF
100
AcDbEntity
  8
Ebene 1
370
     0
100
AcDbVertex
100
AcDb2dVertex
 10
411.162109375
 20
959.38232421875
 30
0.0
  0
VERTEX
  5
601
330
5FF
100
AcDbEntity
  8
Ebene 1
370
     0
100
AcDbVertex
100
AcDb2dVertex
 10
411.162109375
 20
962.86767578125
 30
0.0
  0
VERTEX
  5
602
330
5FF
100
AcDbEntity
  8
Ebene 1
370
     0
100
AcDbVertex
100
AcDb2dVertex
 10
414.337890625
 20
960.970703125
 30
0.0
  0
VERTEX
  5
603
330
5FF
100
AcDbEntity
  8
Ebene 1
370
     0
100
AcDbVertex
100
AcDb2dVertex
 10
414.337890625
 20
961.94140625
 30
0.0
  0
VERTEX
  5
604
330
5FF
100
AcDbEntity
  8
Ebene 1
370
     0
100
AcDbVertex
100
AcDb2dVertex
 10
414.7353515625
 20
962.55859375
 30
0.0
  0
VERTEX
  5
605
330
5FF
100
AcDbEntity
  8
Ebene 1
370
     0
100
AcDbVertex
100
AcDb2dVertex
 10
415.1328125
 20
962.86767578125
 30
0.0
  0
VERTEX
  5
606
330
5FF
100
AcDbEntity
  8
Ebene 1
370
     0
100
AcDbVertex
100
AcDb2dVertex
 10
416.32421875
 20
963.17626953125
 30
0.0
  0
VERTEX
  5
607
330
5FF
100
AcDbEntity
  8
Ebene 1
370
     0
100
AcDbVertex
100
AcDb2dVertex
 10
417.1171875
 20
963.17626953125
 30
0.0
  0
VERTEX
  5
608
330
5FF
100
AcDbEntity
  8
Ebene 1
370
     0
100
AcDbVertex
100
AcDb2dVertex
 10
418.30859375
 20
962.86767578125
 30
0.0
  0
VERTEX
  5
609
330
5FF
100
AcDbEntity
  8
Ebene 1
370
     0
100
AcDbVertex
100
AcDb2dVertex
 10
419.103515625
 20
962.25
 30
0.0
  0
VERTEX
  5
60A
330
5FF
100
AcDbEntity
  8
Ebene 1
370
     0
100
AcDbVertex
100
AcDb2dVertex
 10
419.5
 20
961.279296875
 30
0.0
  0
VERTEX
  5
60B
330
5FF
100
AcDbEntity
  8
Ebene 1
370
     0
100
AcDbVertex
100
AcDb2dVertex
 10
419.5
 20
960.35302734375
 30
0.0
  0
VERTEX
  5
60C
330
5FF
100
AcDbEntity
  8
Ebene 1
370
     0
100
AcDbVertex
100
AcDb2dVertex
 10
419.103515625
 20
959.38232421875
 30
0.0
  0
VERTEX
  5
60D
330
5FF
100
AcDbEntity
  8
Ebene 1
370
     0
100
AcDbVertex
100
AcDb2dVertex
 10
418.7060546875
 20
959.07373046875
 30
0.0
  0
VERTEX
  5
60E
330
5FF
100
AcDbEntity
  8
Ebene 1
370
     0
100
AcDbVertex
100
AcDb2dVertex
 10
417.912109375
 20
958.7646484375
 30
0.0
  0
SEQEND
  5
60F
330
5FF
100
AcDbEntity
  8
Ebene 1
370
     0
  0
POLYLINE
  5
610
330
3C
100
AcDbEntity
  8
Ebene 1
370
     0
100
AcDb2dPolyline
 66
     1
 10
0.0
 20
0.0
 30
0.0
  0
VERTEX
  5
611
330
610
100
AcDbEntity
  8
Ebene 1
370
     0
100
AcDbVertex
100
AcDb2dVertex
 10
548.7646484375
 20
918.7939453125
 30
0.0
  0
VERTEX
  5
612
330
610
100
AcDbEntity
  8
Ebene 1
370
     0
100
AcDbVertex
100
AcDb2dVertex
 10
456.2939453125
 20
918.7939453125
 30
0.0
  0
SEQEND
  5
613
330
610
100
AcDbEntity
  8
Ebene 1
370
     0
  0
POLYLINE
  5
614
330
3C
100
AcDbEntity
  8
Ebene 1
370
     0
100
AcDb2dPolyline
 66
     1
 10
0.0
 20
0.0
 30
0.0
  0
VERTEX
  5
615
330
614
100
AcDbEntity
  8
Ebene 1
370
     0
100
AcDbVertex
100
AcDb2dVertex
 10
480.337890625
 20
895.279296875
 30
0.0
  0
VERTEX
  5
616
330
614
100
AcDbEntity
  8
Ebene 1
370
     0
100
AcDbVertex
100
AcDb2dVertex
 10
456.2939453125
 20
895.279296875
 30
0.0
  0
SEQEND
  5
617
330
614
100
AcDbEntity
  8
Ebene 1
370
     0
  0
POLYLINE
  5
618
330
3C
100
AcDbEntity
  8
Ebene 1
370
     0
100
AcDb2dPolyline
 66
     1
 10
0.0
 20
0.0
 30
0.0
  0
VERTEX
  5
619
330
618
100
AcDbEntity
  8
Ebene 1
370
     0
100
AcDbVertex
100
AcDb2dVertex
 10
461.80859375
 20
911.8671875
 30
0.0
  0
VERTEX
  5
61A
330
618
100
AcDbEntity
  8
Ebene 1
370
     0
100
AcDbVertex
100
AcDb2dVertex
 10
461.80859375
 20
902.162109375
 30
0.0
  0
SEQEND
  5
61B
330
618
100
AcDbEntity
  8
Ebene 1
370
     0
  0
POLYLINE
  5
61C
330
3C
100
AcDbEntity
  8
Ebene 1
370
     0
100
AcDb2dPolyline
 66
     1
 10
0.0
 20
0.0
 30
0.0
  0
VERTEX
  5
61D
330
61C
100
AcDbEntity
  8
Ebene 1
370
     0
100
AcDbVertex
100
AcDb2dVertex
 10
460.662109375
 20
911.8671875
 30
0.0
  0
VERTEX
  5
61E
330
61C
100
AcDbEntity
  8
Ebene 1
370
     0
100
AcDbVertex
100
AcDb2dVertex
 10
463.0
 20
911.8671875
 30
0.0
  0
VERTEX
  5
61F
330
61C
100
AcDbEntity
  8
Ebene 1
370
     0
100
AcDbVertex
100
AcDb2dVertex
 10
461.80859375
 20
918.7939453125
 30
0.0
  0
VERTEX
  5
620
330
61C
100
AcDbEntity
  8
Ebene 1
370
     0
100
AcDbVertex
100
AcDb2dVertex
 10
460.662109375
 20
911.8671875
 30
0.0
  0
SEQEND
  5
621
330
61C
100
AcDbEntity
  8
Ebene 1
370
     0
  0
HATCH
  5
622
330
3C
100
AcDbEntity
  8
Ebene 1
 62
   251
420
  6710886
100
AcDbHatch
 10
0.0
 20
0.0
 30
0.0
210
0.0
220
0.0
230
1.0
  2
SOLID
 70
     1
 71
     0
 91
        1
 92
        1
 93
        3
 72
     1
 10
460.662109375
 20
911.8671875
 11
463.0
 21
911.8671875
 72
     1
 10
463.0
 20
911.8671875
 11
461.80859375
 21
918.7939453125
 72
     1
 10
461.80859375
 20
918.7939453125
 11
460.662109375
 21
911.8671875
 97
        0
 75
     0
 76
     1
 98
        0
  0
POLYLINE
  5
623
330
3C
100
AcDbEntity
  8
Ebene 1
370
     0
100
AcDb2dPolyline
 66
     1
 10
0.0
 20
0.0
 30
0.0
  0
VERTEX
  5
624
330
623
100
AcDbEntity
  8
Ebene 1
370
     0
100
AcDbVertex
100
AcDb2dVertex
 10
460.662109375
 20
902.162109375
 30
0.0
  0
VERTEX
  5
625
330
623
100
AcDbEntity
  8
Ebene 1
370
     0
100
AcDbVertex
100
AcDb2dVertex
 10
463.0
 20
902.162109375
 30
0.0
  0
VERTEX
  5
626
330
623
100
AcDbEntity
  8
Ebene 1
370
     0
100
AcDbVertex
100
AcDb2dVertex
 10
461.80859375
 20
895.279296875
 30
0.0
  0
VERTEX
  5
627
330
623
100
AcDbEntity
  8
Ebene 1
370
     0
100
AcDbVertex
100
AcDb2dVertex
 10
460.662109375
 20
902.162109375
 30
0.0
  0
SEQEND
  5
628
330
623
100
AcDbEntity
  8
Ebene 1
370
     0
  0
HATCH
  5
629
330
3C
100
AcDbEntity
  8
Ebene 1
 62
   251
420
  6710886
100
AcDbHatch
 10
0.0
 20
0.0
 30
0.0
210
0.0
220
0.0
230
1.0
  2
SOLID
 70
     1
 71
     0
 91
        1
 92
        1
 93
        3
 72
     1
 10
460.662109375
 20
902.162109375
 11
463.0
 21
902.162109375
 72
     1
 10
463.0
 20
902.162109375
 11
461.80859375
 21
895.279296875
 72
     1
 10
461.80859375
 20
895.279296875
 11
460.662109375
 21
902.162109375
 97
        0
 75
     0
 76
     1
 98
        0
  0
POLYLINE
  5
62A
330
3C
100
AcDbEntity
  8
Ebene 1
370
     0
100
AcDb2dPolyline
 66
     1
 10
0.0
 20
0.0
 30
0.0
  0
VERTEX
  5
62B
330
62A
100
AcDbEntity
  8
Ebene 1
370
     0
100
AcDbVertex
100
AcDb2dVertex
 10
-161.0
 20
-199.1025390625
 30
0.0
  0
VERTEX
  5
62C
330
62A
100
AcDbEntity
  8
Ebene 1
370
     0
100
AcDbVertex
100
AcDb2dVertex
 10
-161.0
 20
-199.1025390625
 30
0.0
  0
SEQEND
  5
62D
330
62A
100
AcDbEntity
  8
Ebene 1
370
     0
  0
POLYLINE
  5
62E
330
3C
100
AcDbEntity
  8
Ebene 1
370
     0
100
AcDb2dPolyline
 66
     1
 10
0.0
 20
0.0
 30
0.0
  0
VERTEX
  5
62F
330
62E
100
AcDbEntity
  8
Ebene 1
370
     0
100
AcDbVertex
100
AcDb2dVertex
 10
-161.0
 20
-199.1025390625
 30
0.0
  0
VERTEX
  5
630
330
62E
100
AcDbEntity
  8
Ebene 1
370
     0
100
AcDbVertex
100
AcDb2dVertex
 10
-161.0
 20
-199.1025390625
 30
0.0
  0
SEQEND
  5
631
330
62E
100
AcDbEntity
  8
Ebene 1
370
     0
  0
POLYLINE
  5
632
330
3C
100
AcDbEntity
  8
Ebene 1
370
     0
100
AcDb2dPolyline
 66
     1
 10
0.0
 20
0.0
 30
0.0
  0
VERTEX
  5
633
330
632
100
AcDbEntity
  8
Ebene 1
370
     0
100
AcDbVertex
100
AcDb2dVertex
 10
-161.0
 20
-199.1025390625
 30
0.0
  0
VERTEX
  5
634
330
632
100
AcDbEntity
  8
Ebene 1
370
     0
100
AcDbVertex
100
AcDb2dVertex
 10
-161.0
 20
-199.1025390625
 30
0.0
  0
SEQEND
  5
635
330
632
100
AcDbEntity
  8
Ebene 1
370
     0
  0
POLYLINE
  5
636
330
3C
100
AcDbEntity
  8
Ebene 1
370
     0
100
AcDb2dPolyline
 66
     1
 10
0.0
 20
0.0
 30
0.0
  0
VERTEX
  5
637
330
636
100
AcDbEntity
  8
Ebene 1
370
     0
100
AcDbVertex
100
AcDb2dVertex
 10
452.32421875
 20
902.1171875
 30
0.0
  0
VERTEX
  5
638
330
636
100
AcDbEntity
  8
Ebene 1
370
     0
100
AcDbVertex
100
AcDb2dVertex
 10
451.92578125
 20
902.7353515625
 30
0.0
  0
VERTEX
  5
639
330
636
100
AcDbEntity
  8
Ebene 1
370
     0
100
AcDbVertex
100
AcDb2dVertex
 10
450.779296875
 20
903.7060546875
 30
0.0
  0
VERTEX
  5
63A
330
636
100
AcDbEntity
  8
Ebene 1
370
     0
100
AcDbVertex
100
AcDb2dVertex
 10
459.07421875
 20
903.7060546875
 30
0.0
  0
SEQEND
  5
63B
330
636
100
AcDbEntity
  8
Ebene 1
370
     0
  0
POLYLINE
  5
63C
330
3C
100
AcDbEntity
  8
Ebene 1
370
     0
100
AcDb2dPolyline
 66
     1
 10
0.0
 20
0.0
 30
0.0
  0
VERTEX
  5
63D
330
63C
100
AcDbEntity
  8
Ebene 1
370
     0
100
AcDbVertex
100
AcDb2dVertex
 10
450.779296875
 20
911.912109375
 30
0.0
  0
VERTEX
  5
63E
330
63C
100
AcDbEntity
  8
Ebene 1
370
     0
100
AcDbVertex
100
AcDb2dVertex
 10
459.07421875
 20
908.779296875
 30
0.0
  0
SEQEND
  5
63F
330
63C
100
AcDbEntity
  8
Ebene 1
370
     0
  0
POLYLINE
  5
640
330
3C
100
AcDbEntity
  8
Ebene 1
370
     0
100
AcDb2dPolyline
 66
     1
 10
0.0
 20
0.0
 30
0.0
  0
VERTEX
  5
641
330
640
100
AcDbEntity
  8
Ebene 1
370
     0
100
AcDbVertex
100
AcDb2dVertex
 10
450.779296875
 20
907.5
 30
0.0
  0
VERTEX
  5
642
330
640
100
AcDbEntity
  8
Ebene 1
370
     0
100
AcDbVertex
100
AcDb2dVertex
 10
450.779296875
 20
911.912109375
 30
0.0
  0
SEQEND
  5
643
330
640
100
AcDbEntity
  8
Ebene 1
370
     0
  0
POLYLINE
  5
644
330
3C
100
AcDbEntity
  8
Ebene 1
370
     0
100
AcDb2dPolyline
 66
     1
 10
0.0
 20
0.0
 30
0.0
  0
VERTEX
  5
645
330
644
100
AcDbEntity
  8
Ebene 1
370
     0
100
AcDbVertex
100
AcDb2dVertex
 10
469.92578125
 20
878.6474609375
 30
0.0
  0
VERTEX
  5
646
330
644
100
AcDbEntity
  8
Ebene 1
370
     0
100
AcDbVertex
100
AcDb2dVertex
 10
469.92578125
 20
826.3671875
 30
0.0
  0
SEQEND
  5
647
330
644
100
AcDbEntity
  8
Ebene 1
370
     0
  0
POLYLINE
  5
648
330
3C
100
AcDbEntity
  8
Ebene 1
370
     0
100
AcDb2dPolyline
 66
     1
 10
0.0
 20
0.0
 30
0.0
  0
VERTEX
  5
649
330
648
100
AcDbEntity
  8
Ebene 1
370
     0
100
AcDbVertex
100
AcDb2dVertex
 10
488.6328125
 20
886.94140625
 30
0.0
  0
VERTEX
  5
64A
330
648
100
AcDbEntity
  8
Ebene 1
370
     0
100
AcDbVertex
100
AcDb2dVertex
 10
488.6328125
 20
826.3671875
 30
0.0
  0
SEQEND
  5
64B
330
648
100
AcDbEntity
  8
Ebene 1
370
     0
  0
POLYLINE
  5
64C
330
3C
100
AcDbEntity
  8
Ebene 1
370
     0
100
AcDb2dPolyline
 66
     1
 10
0.0
 20
0.0
 30
0.0
  0
VERTEX
  5
64D
330
64C
100
AcDbEntity
  8
Ebene 1
370
     0
100
AcDbVertex
100
AcDb2dVertex
 10
463.0439453125
 20
831.8828125
 30
0.0
  0
VERTEX
  5
64E
330
64C
100
AcDbEntity
  8
Ebene 1
370
     0
100
AcDbVertex
100
AcDb2dVertex
 10
456.1171875
 20
831.8828125
 30
0.0
  0
SEQEND
  5
64F
330
64C
100
AcDbEntity
  8
Ebene 1
370
     0
  0
POLYLINE
  5
650
330
3C
100
AcDbEntity
  8
Ebene 1
370
     0
100
AcDb2dPolyline
 66
     1
 10
0.0
 20
0.0
 30
0.0
  0
VERTEX
  5
651
330
650
100
AcDbEntity
  8
Ebene 1
370
     0
100
AcDbVertex
100
AcDb2dVertex
 10
495.5146484375
 20
831.8828125
 30
0.0
  0
VERTEX
  5
652
330
650
100
AcDbEntity
  8
Ebene 1
370
     0
100
AcDbVertex
100
AcDb2dVertex
 10
527.279296875
 20
831.8828125
 30
0.0
  0
SEQEND
  5
653
330
650
100
AcDbEntity
  8
Ebene 1
370
     0
  0
POLYLINE
  5
654
330
3C
100
AcDbEntity
  8
Ebene 1
370
     0
100
AcDb2dPolyline
 66
     1
 10
0.0
 20
0.0
 30
0.0
  0
VERTEX
  5
655
330
654
100
AcDbEntity
  8
Ebene 1
370
     0
100
AcDbVertex
100
AcDb2dVertex
 10
469.92578125
 20
831.8828125
 30
0.0
  0
VERTEX
  5
656
330
654
100
AcDbEntity
  8
Ebene 1
370
     0
100
AcDbVertex
100
AcDb2dVertex
 10
488.6328125
 20
831.8828125
 30
0.0
  0
SEQEND
  5
657
330
654
100
AcDbEntity
  8
Ebene 1
370
     0
  0
POLYLINE
  5
658
330
3C
100
AcDbEntity
  8
Ebene 1
370
     0
100
AcDb2dPolyline
 66
     1
 10
0.0
 20
0.0
 30
0.0
  0
VERTEX
  5
659
330
658
100
AcDbEntity
  8
Ebene 1
370
     0
100
AcDbVertex
100
AcDb2dVertex
 10
463.0439453125
 20
833.029296875
 30
0.0
  0
VERTEX
  5
65A
330
658
100
AcDbEntity
  8
Ebene 1
370
     0
100
AcDbVertex
100
AcDb2dVertex
 10
463.0439453125
 20
830.7353515625
 30
0.0
  0
VERTEX
  5
65B
330
658
100
AcDbEntity
  8
Ebene 1
370
     0
100
AcDbVertex
100
AcDb2dVertex
 10
469.92578125
 20
831.8828125
 30
0.0
  0
VERTEX
  5
65C
330
658
100
AcDbEntity
  8
Ebene 1
370
     0
100
AcDbVertex
100
AcDb2dVertex
 10
463.0439453125
 20
833.029296875
 30
0.0
  0
SEQEND
  5
65D
330
658
100
AcDbEntity
  8
Ebene 1
370
     0
  0
HATCH
  5
65E
330
3C
100
AcDbEntity
  8
Ebene 1
 62
   251
420
  6710886
100
AcDbHatch
 10
0.0
 20
0.0
 30
0.0
210
0.0
220
0.0
230
1.0
  2
SOLID
 70
     1
 71
     0
 91
        1
 92
        1
 93
        3
 72
     1
 10
463.0439453125
 20
833.029296875
 11
463.0439453125
 21
830.7353515625
 72
     1
 10
463.0439453125
 20
830.7353515625
 11
469.92578125
 21
831.8828125
 72
     1
 10
469.92578125
 20
831.8828125
 11
463.0439453125
 21
833.029296875
 97
        0
 75
     0
 76
     1
 98
        0
  0
POLYLINE
  5
65F
330
3C
100
AcDbEntity
  8
Ebene 1
370
     0
100
AcDb2dPolyline
 66
     1
 10
0.0
 20
0.0
 30
0.0
  0
VERTEX
  5
660
330
65F
100
AcDbEntity
  8
Ebene 1
370
     0
100
AcDbVertex
100
AcDb2dVertex
 10
495.5146484375
 20
833.029296875
 30
0.0
  0
VERTEX
  5
661
330
65F
100
AcDbEntity
  8
Ebene 1
370
     0
100
AcDbVertex
100
AcDb2dVertex
 10
495.5146484375
 20
830.7353515625
 30
0.0
  0
VERTEX
  5
662
330
65F
100
AcDbEntity
  8
Ebene 1
370
     0
100
AcDbVertex
100
AcDb2dVertex
 10
488.6328125
 20
831.8828125
 30
0.0
  0
VERTEX
  5
663
330
65F
100
AcDbEntity
  8
Ebene 1
370
     0
100
AcDbVertex
100
AcDb2dVertex
 10
495.5146484375
 20
833.029296875
 30
0.0
  0
SEQEND
  5
664
330
65F
100
AcDbEntity
  8
Ebene 1
370
     0
  0
HATCH
  5
665
330
3C
100
AcDbEntity
  8
Ebene 1
 62
   251
420
  6710886
100
AcDbHatch
 10
0.0
 20
0.0
 30
0.0
210
0.0
220
0.0
230
1.0
  2
SOLID
 70
     1
 71
     0
 91
        1
 92
        1
 93
        3
 72
     1
 10
495.5146484375
 20
833.029296875
 11
495.5146484375
 21
830.7353515625
 72
     1
 10
495.5146484375
 20
830.7353515625
 11
488.6328125
 21
831.8828125
 72
     1
 10
488.6328125
 20
831.8828125
 11
495.5146484375
 21
833.029296875
 97
        0
 75
     0
 76
     1
 98
        0
  0
POLYLINE
  5
666
330
3C
100
AcDbEntity
  8
Ebene 1
370
     0
100
AcDb2dPolyline
 66
     1
 10
0.0
 20
0.0
 30
0.0
  0
VERTEX
  5
667
330
666
100
AcDbEntity
  8
Ebene 1
370
     0
100
AcDbVertex
100
AcDb2dVertex
 10
505.220703125
 20
841.3671875
 30
0.0
  0
VERTEX
  5
668
330
666
100
AcDbEntity
  8
Ebene 1
370
     0
100
AcDbVertex
100
AcDb2dVertex
 10
505.837890625
 20
841.7646484375
 30
0.0
  0
VERTEX
  5
669
330
666
100
AcDbEntity
  8
Ebene 1
370
     0
100
AcDbVertex
100
AcDb2dVertex
 10
506.80859375
 20
842.9560546875
 30
0.0
  0
VERTEX
  5
66A
330
666
100
AcDbEntity
  8
Ebene 1
370
     0
100
AcDbVertex
100
AcDb2dVertex
 10
506.80859375
 20
834.662109375
 30
0.0
  0
SEQEND
  5
66B
330
666
100
AcDbEntity
  8
Ebene 1
370
     0
  0
POLYLINE
  5
66C
330
3C
100
AcDbEntity
  8
Ebene 1
370
     0
100
AcDb2dPolyline
 66
     1
 10
0.0
 20
0.0
 30
0.0
  0
VERTEX
  5
66D
330
66C
100
AcDbEntity
  8
Ebene 1
370
     0
100
AcDbVertex
100
AcDb2dVertex
 10
511.220703125
 20
842.9560546875
 30
0.0
  0
VERTEX
  5
66E
330
66C
100
AcDbEntity
  8
Ebene 1
370
     0
100
AcDbVertex
100
AcDb2dVertex
 10
514.7060546875
 20
842.9560546875
 30
0.0
  0
VERTEX
  5
66F
330
66C
100
AcDbEntity
  8
Ebene 1
370
     0
100
AcDbVertex
100
AcDb2dVertex
 10
512.80859375
 20
839.779296875
 30
0.0
  0
VERTEX
  5
670
330
66C
100
AcDbEntity
  8
Ebene 1
370
     0
100
AcDbVertex
100
AcDb2dVertex
 10
513.7353515625
 20
839.779296875
 30
0.0
  0
VERTEX
  5
671
330
66C
100
AcDbEntity
  8
Ebene 1
370
     0
100
AcDbVertex
100
AcDb2dVertex
 10
514.396484375
 20
839.4267578125
 30
0.0
  0
VERTEX
  5
672
330
66C
100
AcDbEntity
  8
Ebene 1
370
     0
100
AcDbVertex
100
AcDb2dVertex
 10
514.7060546875
 20
839.029296875
 30
0.0
  0
VERTEX
  5
673
330
66C
100
AcDbEntity
  8
Ebene 1
370
     0
100
AcDbVertex
100
AcDb2dVertex
 10
515.0146484375
 20
837.837890625
 30
0.0
  0
VERTEX
  5
674
330
66C
100
AcDbEntity
  8
Ebene 1
370
     0
100
AcDbVertex
100
AcDb2dVertex
 10
515.0146484375
 20
837.0439453125
 30
0.0
  0
VERTEX
  5
675
330
66C
100
AcDbEntity
  8
Ebene 1
370
     0
100
AcDbVertex
100
AcDb2dVertex
 10
514.7060546875
 20
835.8525390625
 30
0.0
  0
VERTEX
  5
676
330
66C
100
AcDbEntity
  8
Ebene 1
370
     0
100
AcDbVertex
100
AcDb2dVertex
 10
514.0439453125
 20
835.05859375
 30
0.0
  0
VERTEX
  5
677
330
66C
100
AcDbEntity
  8
Ebene 1
370
     0
100
AcDbVertex
100
AcDb2dVertex
 10
513.1171875
 20
834.662109375
 30
0.0
  0
VERTEX
  5
678
330
66C
100
AcDbEntity
  8
Ebene 1
370
     0
100
AcDbVertex
100
AcDb2dVertex
 10
512.146484375
 20
834.662109375
 30
0.0
  0
VERTEX
  5
679
330
66C
100
AcDbEntity
  8
Ebene 1
370
     0
100
AcDbVertex
100
AcDb2dVertex
 10
511.220703125
 20
835.05859375
 30
0.0
  0
VERTEX
  5
67A
330
66C
100
AcDbEntity
  8
Ebene 1
370
     0
100
AcDbVertex
100
AcDb2dVertex
 10
510.912109375
 20
835.4560546875
 30
0.0
  0
VERTEX
  5
67B
330
66C
100
AcDbEntity
  8
Ebene 1
370
     0
100
AcDbVertex
100
AcDb2dVertex
 10
510.603515625
 20
836.25
 30
0.0
  0
SEQEND
  5
67C
330
66C
100
AcDbEntity
  8
Ebene 1
370
     0
  0
POLYLINE
  5
67D
330
3C
100
AcDbEntity
  8
Ebene 1
370
     0
100
AcDb2dPolyline
 66
     1
 10
0.0
 20
0.0
 30
0.0
  0
VERTEX
  5
67E
330
67D
100
AcDbEntity
  8
Ebene 1
370
     0
100
AcDbVertex
100
AcDb2dVertex
 10
517.529296875
 20
835.4560546875
 30
0.0
  0
VERTEX
  5
67F
330
67D
100
AcDbEntity
  8
Ebene 1
370
     0
100
AcDbVertex
100
AcDb2dVertex
 10
517.220703125
 20
835.05859375
 30
0.0
  0
VERTEX
  5
680
330
67D
100
AcDbEntity
  8
Ebene 1
370
     0
100
AcDbVertex
100
AcDb2dVertex
 10
517.529296875
 20
834.662109375
 30
0.0
  0
VERTEX
  5
681
330
67D
100
AcDbEntity
  8
Ebene 1
370
     0
100
AcDbVertex
100
AcDb2dVertex
 10
517.837890625
 20
835.05859375
 30
0.0
  0
VERTEX
  5
682
330
67D
100
AcDbEntity
  8
Ebene 1
370
     0
100
AcDbVertex
100
AcDb2dVertex
 10
517.529296875
 20
835.4560546875
 30
0.0
  0
VERTEX
  5
683
330
67D
100
AcDbEntity
  8
Ebene 1
370
     0
100
AcDbVertex
100
AcDb2dVertex
 10
517.529296875
 20
835.4560546875
 30
0.0
  0
SEQEND
  5
684
330
67D
100
AcDbEntity
  8
Ebene 1
370
     0
  0
POLYLINE
  5
685
330
3C
100
AcDbEntity
  8
Ebene 1
370
     0
100
AcDb2dPolyline
 66
     1
 10
0.0
 20
0.0
 30
0.0
  0
VERTEX
  5
686
330
685
100
AcDbEntity
  8
Ebene 1
370
     0
100
AcDbVertex
100
AcDb2dVertex
 10
-161.0
 20
-199.1025390625
 30
0.0
  0
VERTEX
  5
687
330
685
100
AcDbEntity
  8
Ebene 1
370
     0
100
AcDbVertex
100
AcDb2dVertex
 10
-161.0
 20
-199.1025390625
 30
0.0
  0
SEQEND
  5
688
330
685
100
AcDbEntity
  8
Ebene 1
370
     0
  0
POLYLINE
  5
689
330
3C
100
AcDbEntity
  8
Ebene 1
370
     0
100
AcDb2dPolyline
 66
     1
 10
0.0
 20
0.0
 30
0.0
  0
VERTEX
  5
68A
330
689
100
AcDbEntity
  8
Ebene 1
370
     0
100
AcDbVertex
100
AcDb2dVertex
 10
-161.0
 20
-199.1025390625
 30
0.0
  0
VERTEX
  5
68B
330
689
100
AcDbEntity
  8
Ebene 1
370
     0
100
AcDbVertex
100
AcDb2dVertex
 10
-161.0
 20
-199.1025390625
 30
0.0
  0
SEQEND
  5
68C
330
689
100
AcDbEntity
  8
Ebene 1
370
     0
  0
POLYLINE
  5
68D
330
3C
100
AcDbEntity
  8
Ebene 1
370
     0
100
AcDb2dPolyline
 66
     1
 10
0.0
 20
0.0
 30
0.0
  0
VERTEX
  5
68E
330
68D
100
AcDbEntity
  8
Ebene 1
370
     0
100
AcDbVertex
100
AcDb2dVertex
 10
-161.0
 20
-199.1025390625
 30
0.0
  0
VERTEX
  5
68F
330
68D
100
AcDbEntity
  8
Ebene 1
370
     0
100
AcDbVertex
100
AcDb2dVertex
 10
-161.0
 20
-199.1025390625
 30
0.0
  0
SEQEND
  5
690
330
68D
100
AcDbEntity
  8
Ebene 1
370
     0
  0
POLYLINE
  5
691
330
3C
100
AcDbEntity
  8
Ebene 1
370
     0
100
AcDb2dPolyline
 66
     1
 10
0.0
 20
0.0
 30
0.0
  0
VERTEX
  5
692
330
691
100
AcDbEntity
  8
Ebene 1
370
     0
100
AcDbVertex
100
AcDb2dVertex
 10
523.8828125
 20
842.9560546875
 30
0.0
  0
VERTEX
  5
693
330
691
100
AcDbEntity
  8
Ebene 1
370
     0
100
AcDbVertex
100
AcDb2dVertex
 10
520.7060546875
 20
842.9560546875
 30
0.0
  0
VERTEX
  5
694
330
691
100
AcDbEntity
  8
Ebene 1
370
     0
100
AcDbVertex
100
AcDb2dVertex
 10
520.396484375
 20
839.4267578125
 30
0.0
  0
VERTEX
  5
695
330
691
100
AcDbEntity
  8
Ebene 1
370
     0
100
AcDbVertex
100
AcDb2dVertex
 10
520.7060546875
 20
839.779296875
 30
0.0
  0
VERTEX
  5
696
330
691
100
AcDbEntity
  8
Ebene 1
370
     0
100
AcDbVertex
100
AcDb2dVertex
 10
521.6328125
 20
840.1767578125
 30
0.0
  0
VERTEX
  5
697
330
691
100
AcDbEntity
  8
Ebene 1
370
     0
100
AcDbVertex
100
AcDb2dVertex
 10
522.603515625
 20
840.1767578125
 30
0.0
  0
VERTEX
  5
698
330
691
100
AcDbEntity
  8
Ebene 1
370
     0
100
AcDbVertex
100
AcDb2dVertex
 10
523.529296875
 20
839.779296875
 30
0.0
  0
VERTEX
  5
699
330
691
100
AcDbEntity
  8
Ebene 1
370
     0
100
AcDbVertex
100
AcDb2dVertex
 10
524.19140625
 20
839.029296875
 30
0.0
  0
VERTEX
  5
69A
330
691
100
AcDbEntity
  8
Ebene 1
370
     0
100
AcDbVertex
100
AcDb2dVertex
 10
524.5
 20
837.837890625
 30
0.0
  0
VERTEX
  5
69B
330
691
100
AcDbEntity
  8
Ebene 1
370
     0
100
AcDbVertex
100
AcDb2dVertex
 10
524.5
 20
837.0439453125
 30
0.0
  0
VERTEX
  5
69C
330
691
100
AcDbEntity
  8
Ebene 1
370
     0
100
AcDbVertex
100
AcDb2dVertex
 10
524.19140625
 20
835.8525390625
 30
0.0
  0
VERTEX
  5
69D
330
691
100
AcDbEntity
  8
Ebene 1
370
     0
100
AcDbVertex
100
AcDb2dVertex
 10
523.529296875
 20
835.05859375
 30
0.0
  0
VERTEX
  5
69E
330
691
100
AcDbEntity
  8
Ebene 1
370
     0
100
AcDbVertex
100
AcDb2dVertex
 10
522.603515625
 20
834.662109375
 30
0.0
  0
VERTEX
  5
69F
330
691
100
AcDbEntity
  8
Ebene 1
370
     0
100
AcDbVertex
100
AcDb2dVertex
 10
521.6328125
 20
834.662109375
 30
0.0
  0
VERTEX
  5
6A0
330
691
100
AcDbEntity
  8
Ebene 1
370
     0
100
AcDbVertex
100
AcDb2dVertex
 10
520.7060546875
 20
835.05859375
 30
0.0
  0
VERTEX
  5
6A1
330
691
100
AcDbEntity
  8
Ebene 1
370
     0
100
AcDbVertex
100
AcDb2dVertex
 10
520.396484375
 20
835.4560546875
 30
0.0
  0
VERTEX
  5
6A2
330
691
100
AcDbEntity
  8
Ebene 1
370
     0
100
AcDbVertex
100
AcDb2dVertex
 10
520.087890625
 20
836.25
 30
0.0
  0
SEQEND
  5
6A3
330
691
100
AcDbEntity
  8
Ebene 1
370
     0
  0
POLYLINE
  5
6A4
330
3C
100
AcDbEntity
  8
Ebene 1
370
     0
100
AcDb2dPolyline
 66
     1
 10
0.0
 20
0.0
 30
0.0
  0
VERTEX
  5
6A5
330
6A4
100
AcDbEntity
  8
Ebene 1
370
     0
100
AcDbVertex
100
AcDb2dVertex
 10
488.6328125
 20
886.94140625
 30
0.0
  0
VERTEX
  5
6A6
330
6A4
100
AcDbEntity
  8
Ebene 1
370
     0
100
AcDbVertex
100
AcDb2dVertex
 10
488.6328125
 20
852.2646484375
 30
0.0
  0
SEQEND
  5
6A7
330
6A4
100
AcDbEntity
  8
Ebene 1
370
     0
  0
POLYLINE
  5
6A8
330
3C
100
AcDbEntity
  8
Ebene 1
370
     0
100
AcDb2dPolyline
 66
     1
 10
0.0
 20
0.0
 30
0.0
  0
VERTEX
  5
6A9
330
6A8
100
AcDbEntity
  8
Ebene 1
370
     0
100
AcDbVertex
100
AcDb2dVertex
 10
497.587890625
 20
910.5
 30
0.0
  0
VERTEX
  5
6AA
330
6A8
100
AcDbEntity
  8
Ebene 1
370
     0
100
AcDbVertex
100
AcDb2dVertex
 10
497.587890625
 20
852.2646484375
 30
0.0
  0
SEQEND
  5
6AB
330
6A8
100
AcDbEntity
  8
Ebene 1
370
     0
  0
POLYLINE
  5
6AC
330
3C
100
AcDbEntity
  8
Ebene 1
370
     0
100
AcDb2dPolyline
 66
     1
 10
0.0
 20
0.0
 30
0.0
  0
VERTEX
  5
6AD
330
6AC
100
AcDbEntity
  8
Ebene 1
370
     0
100
AcDbVertex
100
AcDb2dVertex
 10
481.7060546875
 20
857.8232421875
 30
0.0
  0
VERTEX
  5
6AE
330
6AC
100
AcDbEntity
  8
Ebene 1
370
     0
100
AcDbVertex
100
AcDb2dVertex
 10
474.779296875
 20
857.8232421875
 30
0.0
  0
SEQEND
  5
6AF
330
6AC
100
AcDbEntity
  8
Ebene 1
370
     0
  0
POLYLINE
  5
6B0
330
3C
100
AcDbEntity
  8
Ebene 1
370
     0
100
AcDb2dPolyline
 66
     1
 10
0.0
 20
0.0
 30
0.0
  0
VERTEX
  5
6B1
330
6B0
100
AcDbEntity
  8
Ebene 1
370
     0
100
AcDbVertex
100
AcDb2dVertex
 10
504.5146484375
 20
857.8232421875
 30
0.0
  0
VERTEX
  5
6B2
330
6B0
100
AcDbEntity
  8
Ebene 1
370
     0
100
AcDbVertex
100
AcDb2dVertex
 10
530.5439453125
 20
857.8232421875
 30
0.0
  0
SEQEND
  5
6B3
330
6B0
100
AcDbEntity
  8
Ebene 1
370
     0
  0
POLYLINE
  5
6B4
330
3C
100
AcDbEntity
  8
Ebene 1
370
     0
100
AcDb2dPolyline
 66
     1
 10
0.0
 20
0.0
 30
0.0
  0
VERTEX
  5
6B5
330
6B4
100
AcDbEntity
  8
Ebene 1
370
     0
100
AcDbVertex
100
AcDb2dVertex
 10
488.6328125
 20
857.8232421875
 30
0.0
  0
VERTEX
  5
6B6
330
6B4
100
AcDbEntity
  8
Ebene 1
370
     0
100
AcDbVertex
100
AcDb2dVertex
 10
497.587890625
 20
857.8232421875
 30
0.0
  0
SEQEND
  5
6B7
330
6B4
100
AcDbEntity
  8
Ebene 1
370
     0
  0
POLYLINE
  5
6B8
330
3C
100
AcDbEntity
  8
Ebene 1
370
     0
100
AcDb2dPolyline
 66
     1
 10
0.0
 20
0.0
 30
0.0
  0
VERTEX
  5
6B9
330
6B8
100
AcDbEntity
  8
Ebene 1
370
     0
100
AcDbVertex
100
AcDb2dVertex
 10
481.7060546875
 20
858.970703125
 30
0.0
  0
VERTEX
  5
6BA
330
6B8
100
AcDbEntity
  8
Ebene 1
370
     0
100
AcDbVertex
100
AcDb2dVertex
 10
481.7060546875
 20
856.6328125
 30
0.0
  0
VERTEX
  5
6BB
330
6B8
100
AcDbEntity
  8
Ebene 1
370
     0
100
AcDbVertex
100
AcDb2dVertex
 10
488.6328125
 20
857.8232421875
 30
0.0
  0
VERTEX
  5
6BC
330
6B8
100
AcDbEntity
  8
Ebene 1
370
     0
100
AcDbVertex
100
AcDb2dVertex
 10
481.7060546875
 20
858.970703125
 30
0.0
  0
SEQEND
  5
6BD
330
6B8
100
AcDbEntity
  8
Ebene 1
370
     0
  0
HATCH
  5
6BE
330
3C
100
AcDbEntity
  8
Ebene 1
 62
   251
420
  6710886
100
AcDbHatch
 10
0.0
 20
0.0
 30
0.0
210
0.0
220
0.0
230
1.0
  2
SOLID
 70
     1
 71
     0
 91
        1
 92
        1
 93
        3
 72
     1
 10
481.7060546875
 20
858.970703125
 11
481.7060546875
 21
856.6328125
 72
     1
 10
481.7060546875
 20
856.6328125
 11
488.6328125
 21
857.8232421875
 72
     1
 10
488.6328125
 20
857.8232421875
 11
481.7060546875
 21
858.970703125
 97
        0
 75
     0
 76
     1
 98
        0
  0
POLYLINE
  5
6BF
330
3C
100
AcDbEntity
  8
Ebene 1
370
     0
100
AcDb2dPolyline
 66
     1
 10
0.0
 20
0.0
 30
0.0
  0
VERTEX
  5
6C0
330
6BF
100
AcDbEntity
  8
Ebene 1
370
     0
100
AcDbVertex
100
AcDb2dVertex
 10
504.5146484375
 20
858.970703125
 30
0.0
  0
VERTEX
  5
6C1
330
6BF
100
AcDbEntity
  8
Ebene 1
370
     0
100
AcDbVertex
100
AcDb2dVertex
 10
504.5146484375
 20
856.6328125
 30
0.0
  0
VERTEX
  5
6C2
330
6BF
100
AcDbEntity
  8
Ebene 1
370
     0
100
AcDbVertex
100
AcDb2dVertex
 10
497.587890625
 20
857.8232421875
 30
0.0
  0
VERTEX
  5
6C3
330
6BF
100
AcDbEntity
  8
Ebene 1
370
     0
100
AcDbVertex
100
AcDb2dVertex
 10
504.5146484375
 20
858.970703125
 30
0.0
  0
SEQEND
  5
6C4
330
6BF
100
AcDbEntity
  8
Ebene 1
370
     0
  0
HATCH
  5
6C5
330
3C
100
AcDbEntity
  8
Ebene 1
 62
   251
420
  6710886
100
AcDbHatch
 10
0.0
 20
0.0
 30
0.0
210
0.0
220
0.0
230
1.0
  2
SOLID
 70
     1
 71
     0
 91
        1
 92
        1
 93
        3
 72
     1
 10
504.5146484375
 20
858.970703125
 11
504.5146484375
 21
856.6328125
 72
     1
 10
504.5146484375
 20
856.6328125
 11
497.587890625
 21
857.8232421875
 72
     1
 10
497.587890625
 20
857.8232421875
 11
504.5146484375
 21
858.970703125
 97
        0
 75
     0
 76
     1
 98
        0
  0
POLYLINE
  5
6C6
330
3C
100
AcDbEntity
  8
Ebene 1
370
     0
100
AcDb2dPolyline
 66
     1
 10
0.0
 20
0.0
 30
0.0
  0
VERTEX
  5
6C7
330
6C6
100
AcDbEntity
  8
Ebene 1
370
     0
100
AcDbVertex
100
AcDb2dVertex
 10
518.0146484375
 20
867.7060546875
 30
0.0
  0
VERTEX
  5
6C8
330
6C6
100
AcDbEntity
  8
Ebene 1
370
     0
100
AcDbVertex
100
AcDb2dVertex
 10
517.662109375
 20
868.5
 30
0.0
  0
VERTEX
  5
6C9
330
6C6
100
AcDbEntity
  8
Ebene 1
370
     0
100
AcDbVertex
100
AcDb2dVertex
 10
516.7353515625
 20
868.8974609375
 30
0.0
  0
VERTEX
  5
6CA
330
6C6
100
AcDbEntity
  8
Ebene 1
370
     0
100
AcDbVertex
100
AcDb2dVertex
 10
516.1171875
 20
868.8974609375
 30
0.0
  0
VERTEX
  5
6CB
330
6C6
100
AcDbEntity
  8
Ebene 1
370
     0
100
AcDbVertex
100
AcDb2dVertex
 10
515.146484375
 20
868.5
 30
0.0
  0
VERTEX
  5
6CC
330
6C6
100
AcDbEntity
  8
Ebene 1
370
     0
100
AcDbVertex
100
AcDb2dVertex
 10
514.529296875
 20
867.30859375
 30
0.0
  0
VERTEX
  5
6CD
330
6C6
100
AcDbEntity
  8
Ebene 1
370
     0
100
AcDbVertex
100
AcDb2dVertex
 10
514.220703125
 20
865.3232421875
 30
0.0
  0
VERTEX
  5
6CE
330
6C6
100
AcDbEntity
  8
Ebene 1
370
     0
100
AcDbVertex
100
AcDb2dVertex
 10
514.220703125
 20
863.337890625
 30
0.0
  0
VERTEX
  5
6CF
330
6C6
100
AcDbEntity
  8
Ebene 1
370
     0
100
AcDbVertex
100
AcDb2dVertex
 10
514.529296875
 20
861.75
 30
0.0
  0
VERTEX
  5
6D0
330
6C6
100
AcDbEntity
  8
Ebene 1
370
     0
100
AcDbVertex
100
AcDb2dVertex
 10
515.146484375
 20
860.9560546875
 30
0.0
  0
VERTEX
  5
6D1
330
6C6
100
AcDbEntity
  8
Ebene 1
370
     0
100
AcDbVertex
100
AcDb2dVertex
 10
516.1171875
 20
860.55859375
 30
0.0
  0
VERTEX
  5
6D2
330
6C6
100
AcDbEntity
  8
Ebene 1
370
     0
100
AcDbVertex
100
AcDb2dVertex
 10
516.42578125
 20
860.55859375
 30
0.0
  0
VERTEX
  5
6D3
330
6C6
100
AcDbEntity
  8
Ebene 1
370
     0
100
AcDbVertex
100
AcDb2dVertex
 10
517.353515625
 20
860.9560546875
 30
0.0
  0
VERTEX
  5
6D4
330
6C6
100
AcDbEntity
  8
Ebene 1
370
     0
100
AcDbVertex
100
AcDb2dVertex
 10
518.0146484375
 20
861.75
 30
0.0
  0
VERTEX
  5
6D5
330
6C6
100
AcDbEntity
  8
Ebene 1
370
     0
100
AcDbVertex
100
AcDb2dVertex
 10
518.32421875
 20
862.94140625
 30
0.0
  0
VERTEX
  5
6D6
330
6C6
100
AcDbEntity
  8
Ebene 1
370
     0
100
AcDbVertex
100
AcDb2dVertex
 10
518.32421875
 20
863.337890625
 30
0.0
  0
VERTEX
  5
6D7
330
6C6
100
AcDbEntity
  8
Ebene 1
370
     0
100
AcDbVertex
100
AcDb2dVertex
 10
518.0146484375
 20
864.529296875
 30
0.0
  0
VERTEX
  5
6D8
330
6C6
100
AcDbEntity
  8
Ebene 1
370
     0
100
AcDbVertex
100
AcDb2dVertex
 10
517.353515625
 20
865.3232421875
 30
0.0
  0
VERTEX
  5
6D9
330
6C6
100
AcDbEntity
  8
Ebene 1
370
     0
100
AcDbVertex
100
AcDb2dVertex
 10
516.42578125
 20
865.720703125
 30
0.0
  0
VERTEX
  5
6DA
330
6C6
100
AcDbEntity
  8
Ebene 1
370
     0
100
AcDbVertex
100
AcDb2dVertex
 10
516.1171875
 20
865.720703125
 30
0.0
  0
VERTEX
  5
6DB
330
6C6
100
AcDbEntity
  8
Ebene 1
370
     0
100
AcDbVertex
100
AcDb2dVertex
 10
515.146484375
 20
865.3232421875
 30
0.0
  0
VERTEX
  5
6DC
330
6C6
100
AcDbEntity
  8
Ebene 1
370
     0
100
AcDbVertex
100
AcDb2dVertex
 10
514.529296875
 20
864.529296875
 30
0.0
  0
VERTEX
  5
6DD
330
6C6
100
AcDbEntity
  8
Ebene 1
370
     0
100
AcDbVertex
100
AcDb2dVertex
 10
514.220703125
 20
863.337890625
 30
0.0
  0
SEQEND
  5
6DE
330
6C6
100
AcDbEntity
  8
Ebene 1
370
     0
  0
POLYLINE
  5
6DF
330
3C
100
AcDbEntity
  8
Ebene 1
370
     0
100
AcDb2dPolyline
 66
     1
 10
0.0
 20
0.0
 30
0.0
  0
VERTEX
  5
6E0
330
6DF
100
AcDbEntity
  8
Ebene 1
370
     0
100
AcDbVertex
100
AcDb2dVertex
 10
520.837890625
 20
861.3525390625
 30
0.0
  0
VERTEX
  5
6E1
330
6DF
100
AcDbEntity
  8
Ebene 1
370
     0
100
AcDbVertex
100
AcDb2dVertex
 10
520.529296875
 20
860.9560546875
 30
0.0
  0
VERTEX
  5
6E2
330
6DF
100
AcDbEntity
  8
Ebene 1
370
     0
100
AcDbVertex
100
AcDb2dVertex
 10
520.837890625
 20
860.55859375
 30
0.0
  0
VERTEX
  5
6E3
330
6DF
100
AcDbEntity
  8
Ebene 1
370
     0
100
AcDbVertex
100
AcDb2dVertex
 10
521.146484375
 20
860.9560546875
 30
0.0
  0
VERTEX
  5
6E4
330
6DF
100
AcDbEntity
  8
Ebene 1
370
     0
100
AcDbVertex
100
AcDb2dVertex
 10
520.837890625
 20
861.3525390625
 30
0.0
  0
VERTEX
  5
6E5
330
6DF
100
AcDbEntity
  8
Ebene 1
370
     0
100
AcDbVertex
100
AcDb2dVertex
 10
520.837890625
 20
861.3525390625
 30
0.0
  0
SEQEND
  5
6E6
330
6DF
100
AcDbEntity
  8
Ebene 1
370
     0
  0
POLYLINE
  5
6E7
330
3C
100
AcDbEntity
  8
Ebene 1
370
     0
100
AcDb2dPolyline
 66
     1
 10
0.0
 20
0.0
 30
0.0
  0
VERTEX
  5
6E8
330
6E7
100
AcDbEntity
  8
Ebene 1
370
     0
100
AcDbVertex
100
AcDb2dVertex
 10
-161.0
 20
-199.1025390625
 30
0.0
  0
VERTEX
  5
6E9
330
6E7
100
AcDbEntity
  8
Ebene 1
370
     0
100
AcDbVertex
100
AcDb2dVertex
 10
-161.0
 20
-199.1025390625
 30
0.0
  0
SEQEND
  5
6EA
330
6E7
100
AcDbEntity
  8
Ebene 1
370
     0
  0
POLYLINE
  5
6EB
330
3C
100
AcDbEntity
  8
Ebene 1
370
     0
100
AcDb2dPolyline
 66
     1
 10
0.0
 20
0.0
 30
0.0
  0
VERTEX
  5
6EC
330
6EB
100
AcDbEntity
  8
Ebene 1
370
     0
100
AcDbVertex
100
AcDb2dVertex
 10
-161.0
 20
-199.1025390625
 30
0.0
  0
VERTEX
  5
6ED
330
6EB
100
AcDbEntity
  8
Ebene 1
370
     0
100
AcDbVertex
100
AcDb2dVertex
 10
-161.0
 20
-199.1025390625
 30
0.0
  0
SEQEND
  5
6EE
330
6EB
100
AcDbEntity
  8
Ebene 1
370
     0
  0
POLYLINE
  5
6EF
330
3C
100
AcDbEntity
  8
Ebene 1
370
     0
100
AcDb2dPolyline
 66
     1
 10
0.0
 20
0.0
 30
0.0
  0
VERTEX
  5
6F0
330
6EF
100
AcDbEntity
  8
Ebene 1
370
     0
100
AcDbVertex
100
AcDb2dVertex
 10
-161.0
 20
-199.1025390625
 30
0.0
  0
VERTEX
  5
6F1
330
6EF
100
AcDbEntity
  8
Ebene 1
370
     0
100
AcDbVertex
100
AcDb2dVertex
 10
-161.0
 20
-199.1025390625
 30
0.0
  0
SEQEND
  5
6F2
330
6EF
100
AcDbEntity
  8
Ebene 1
370
     0
  0
POLYLINE
  5
6F3
330
3C
100
AcDbEntity
  8
Ebene 1
370
     0
100
AcDb2dPolyline
 66
     1
 10
0.0
 20
0.0
 30
0.0
  0
VERTEX
  5
6F4
330
6F3
100
AcDbEntity
  8
Ebene 1
370
     0
100
AcDbVertex
100
AcDb2dVertex
 10
527.146484375
 20
868.8974609375
 30
0.0
  0
VERTEX
  5
6F5
330
6F3
100
AcDbEntity
  8
Ebene 1
370
     0
100
AcDbVertex
100
AcDb2dVertex
 10
524.0146484375
 20
868.8974609375
 30
0.0
  0
VERTEX
  5
6F6
330
6F3
100
AcDbEntity
  8
Ebene 1
370
     0
100
AcDbVertex
100
AcDb2dVertex
 10
523.7060546875
 20
865.3232421875
 30
0.0
  0
VERTEX
  5
6F7
330
6F3
100
AcDbEntity
  8
Ebene 1
370
     0
100
AcDbVertex
100
AcDb2dVertex
 10
524.0146484375
 20
865.720703125
 30
0.0
  0
VERTEX
  5
6F8
330
6F3
100
AcDbEntity
  8
Ebene 1
370
     0
100
AcDbVertex
100
AcDb2dVertex
 10
524.94140625
 20
866.1171875
 30
0.0
  0
VERTEX
  5
6F9
330
6F3
100
AcDbEntity
  8
Ebene 1
370
     0
100
AcDbVertex
100
AcDb2dVertex
 10
525.912109375
 20
866.1171875
 30
0.0
  0
VERTEX
  5
6FA
330
6F3
100
AcDbEntity
  8
Ebene 1
370
     0
100
AcDbVertex
100
AcDb2dVertex
 10
526.837890625
 20
865.720703125
 30
0.0
  0
VERTEX
  5
6FB
330
6F3
100
AcDbEntity
  8
Ebene 1
370
     0
100
AcDbVertex
100
AcDb2dVertex
 10
527.5
 20
864.9267578125
 30
0.0
  0
VERTEX
  5
6FC
330
6F3
100
AcDbEntity
  8
Ebene 1
370
     0
100
AcDbVertex
100
AcDb2dVertex
 10
527.80859375
 20
863.7353515625
 30
0.0
  0
VERTEX
  5
6FD
330
6F3
100
AcDbEntity
  8
Ebene 1
370
     0
100
AcDbVertex
100
AcDb2dVertex
 10
527.80859375
 20
862.94140625
 30
0.0
  0
VERTEX
  5
6FE
330
6F3
100
AcDbEntity
  8
Ebene 1
370
     0
100
AcDbVertex
100
AcDb2dVertex
 10
527.5
 20
861.75
 30
0.0
  0
VERTEX
  5
6FF
330
6F3
100
AcDbEntity
  8
Ebene 1
370
     0
100
AcDbVertex
100
AcDb2dVertex
 10
526.837890625
 20
860.9560546875
 30
0.0
  0
VERTEX
  5
700
330
6F3
100
AcDbEntity
  8
Ebene 1
370
     0
100
AcDbVertex
100
AcDb2dVertex
 10
525.912109375
 20
860.55859375
 30
0.0
  0
VERTEX
  5
701
330
6F3
100
AcDbEntity
  8
Ebene 1
370
     0
100
AcDbVertex
100
AcDb2dVertex
 10
524.94140625
 20
860.55859375
 30
0.0
  0
VERTEX
  5
702
330
6F3
100
AcDbEntity
  8
Ebene 1
370
     0
100
AcDbVertex
100
AcDb2dVertex
 10
524.0146484375
 20
860.9560546875
 30
0.0
  0
VERTEX
  5
703
330
6F3
100
AcDbEntity
  8
Ebene 1
370
     0
100
AcDbVertex
100
AcDb2dVertex
 10
523.7060546875
 20
861.3525390625
 30
0.0
  0
VERTEX
  5
704
330
6F3
100
AcDbEntity
  8
Ebene 1
370
     0
100
AcDbVertex
100
AcDb2dVertex
 10
523.353515625
 20
862.1474609375
 30
0.0
  0
SEQEND
  5
705
330
6F3
100
AcDbEntity
  8
Ebene 1
370
     0
  0
POLYLINE
  5
706
330
3C
100
AcDbEntity
  8
Ebene 1
370
     0
100
AcDb2dPolyline
 66
     1
 10
0.0
 20
0.0
 30
0.0
  0
VERTEX
  5
707
330
706
100
AcDbEntity
  8
Ebene 1
370
     0
100
AcDbVertex
100
AcDb2dVertex
 10
566.05859375
 20
886.94140625
 30
0.0
  0
VERTEX
  5
708
330
706
100
AcDbEntity
  8
Ebene 1
370
     0
100
AcDbVertex
100
AcDb2dVertex
 10
566.05859375
 20
825.837890625
 30
0.0
  0
SEQEND
  5
709
330
706
100
AcDbEntity
  8
Ebene 1
370
     0
  0
POLYLINE
  5
70A
330
3C
100
AcDbEntity
  8
Ebene 1
370
     0
100
AcDb2dPolyline
 66
     1
 10
0.0
 20
0.0
 30
0.0
  0
VERTEX
  5
70B
330
70A
100
AcDbEntity
  8
Ebene 1
370
     0
100
AcDbVertex
100
AcDb2dVertex
 10
584.720703125
 20
878.6474609375
 30
0.0
  0
VERTEX
  5
70C
330
70A
100
AcDbEntity
  8
Ebene 1
370
     0
100
AcDbVertex
100
AcDb2dVertex
 10
584.720703125
 20
825.837890625
 30
0.0
  0
SEQEND
  5
70D
330
70A
100
AcDbEntity
  8
Ebene 1
370
     0
  0
POLYLINE
  5
70E
330
3C
100
AcDbEntity
  8
Ebene 1
370
     0
100
AcDb2dPolyline
 66
     1
 10
0.0
 20
0.0
 30
0.0
  0
VERTEX
  5
70F
330
70E
100
AcDbEntity
  8
Ebene 1
370
     0
100
AcDbVertex
100
AcDb2dVertex
 10
559.1328125
 20
831.3974609375
 30
0.0
  0
VERTEX
  5
710
330
70E
100
AcDbEntity
  8
Ebene 1
370
     0
100
AcDbVertex
100
AcDb2dVertex
 10
552.25
 20
831.3974609375
 30
0.0
  0
SEQEND
  5
711
330
70E
100
AcDbEntity
  8
Ebene 1
370
     0
  0
POLYLINE
  5
712
330
3C
100
AcDbEntity
  8
Ebene 1
370
     0
100
AcDb2dPolyline
 66
     1
 10
0.0
 20
0.0
 30
0.0
  0
VERTEX
  5
713
330
712
100
AcDbEntity
  8
Ebene 1
370
     0
100
AcDbVertex
100
AcDb2dVertex
 10
591.6474609375
 20
831.3974609375
 30
0.0
  0
VERTEX
  5
714
330
712
100
AcDbEntity
  8
Ebene 1
370
     0
100
AcDbVertex
100
AcDb2dVertex
 10
623.3671875
 20
831.3974609375
 30
0.0
  0
SEQEND
  5
715
330
712
100
AcDbEntity
  8
Ebene 1
370
     0
  0
POLYLINE
  5
716
330
3C
100
AcDbEntity
  8
Ebene 1
370
     0
100
AcDb2dPolyline
 66
     1
 10
0.0
 20
0.0
 30
0.0
  0
VERTEX
  5
717
330
716
100
AcDbEntity
  8
Ebene 1
370
     0
100
AcDbVertex
100
AcDb2dVertex
 10
566.05859375
 20
831.3974609375
 30
0.0
  0
VERTEX
  5
718
330
716
100
AcDbEntity
  8
Ebene 1
370
     0
100
AcDbVertex
100
AcDb2dVertex
 10
584.720703125
 20
831.3974609375
 30
0.0
  0
SEQEND
  5
719
330
716
100
AcDbEntity
  8
Ebene 1
370
     0
  0
POLYLINE
  5
71A
330
3C
100
AcDbEntity
  8
Ebene 1
370
     0
100
AcDb2dPolyline
 66
     1
 10
0.0
 20
0.0
 30
0.0
  0
VERTEX
  5
71B
330
71A
100
AcDbEntity
  8
Ebene 1
370
     0
100
AcDbVertex
100
AcDb2dVertex
 10
559.1328125
 20
832.5439453125
 30
0.0
  0
VERTEX
  5
71C
330
71A
100
AcDbEntity
  8
Ebene 1
370
     0
100
AcDbVertex
100
AcDb2dVertex
 10
559.1328125
 20
830.2060546875
 30
0.0
  0
VERTEX
  5
71D
330
71A
100
AcDbEntity
  8
Ebene 1
370
     0
100
AcDbVertex
100
AcDb2dVertex
 10
566.05859375
 20
831.3974609375
 30
0.0
  0
VERTEX
  5
71E
330
71A
100
AcDbEntity
  8
Ebene 1
370
     0
100
AcDbVertex
100
AcDb2dVertex
 10
559.1328125
 20
832.5439453125
 30
0.0
  0
SEQEND
  5
71F
330
71A
100
AcDbEntity
  8
Ebene 1
370
     0
  0
HATCH
  5
720
330
3C
100
AcDbEntity
  8
Ebene 1
 62
   251
420
  6710886
100
AcDbHatch
 10
0.0
 20
0.0
 30
0.0
210
0.0
220
0.0
230
1.0
  2
SOLID
 70
     1
 71
     0
 91
        1
 92
        1
 93
        3
 72
     1
 10
559.1328125
 20
832.5439453125
 11
559.1328125
 21
830.2060546875
 72
     1
 10
559.1328125
 20
830.2060546875
 11
566.05859375
 21
831.3974609375
 72
     1
 10
566.05859375
 20
831.3974609375
 11
559.1328125
 21
832.5439453125
 97
        0
 75
     0
 76
     1
 98
        0
  0
POLYLINE
  5
721
330
3C
100
AcDbEntity
  8
Ebene 1
370
     0
100
AcDb2dPolyline
 66
     1
 10
0.0
 20
0.0
 30
0.0
  0
VERTEX
  5
722
330
721
100
AcDbEntity
  8
Ebene 1
370
     0
100
AcDbVertex
100
AcDb2dVertex
 10
591.6474609375
 20
832.5439453125
 30
0.0
  0
VERTEX
  5
723
330
721
100
AcDbEntity
  8
Ebene 1
370
     0
100
AcDbVertex
100
AcDb2dVertex
 10
591.6474609375
 20
830.2060546875
 30
0.0
  0
VERTEX
  5
724
330
721
100
AcDbEntity
  8
Ebene 1
370
     0
100
AcDbVertex
100
AcDb2dVertex
 10
584.720703125
 20
831.3974609375
 30
0.0
  0
VERTEX
  5
725
330
721
100
AcDbEntity
  8
Ebene 1
370
     0
100
AcDbVertex
100
AcDb2dVertex
 10
591.6474609375
 20
832.5439453125
 30
0.0
  0
SEQEND
  5
726
330
721
100
AcDbEntity
  8
Ebene 1
370
     0
  0
HATCH
  5
727
330
3C
100
AcDbEntity
  8
Ebene 1
 62
   251
420
  6710886
100
AcDbHatch
 10
0.0
 20
0.0
 30
0.0
210
0.0
220
0.0
230
1.0
  2
SOLID
 70
     1
 71
     0
 91
        1
 92
        1
 93
        3
 72
     1
 10
591.6474609375
 20
832.5439453125
 11
591.6474609375
 21
830.2060546875
 72
     1
 10
591.6474609375
 20
830.2060546875
 11
584.720703125
 21
831.3974609375
 72
     1
 10
584.720703125
 20
831.3974609375
 11
591.6474609375
 21
832.5439453125
 97
        0
 75
     0
 76
     1
 98
        0
  0
POLYLINE
  5
728
330
3C
100
AcDbEntity
  8
Ebene 1
370
     0
100
AcDb2dPolyline
 66
     1
 10
0.0
 20
0.0
 30
0.0
  0
VERTEX
  5
729
330
728
100
AcDbEntity
  8
Ebene 1
370
     0
100
AcDbVertex
100
AcDb2dVertex
 10
601.3525390625
 20
840.8828125
 30
0.0
  0
VERTEX
  5
72A
330
728
100
AcDbEntity
  8
Ebene 1
370
     0
100
AcDbVertex
100
AcDb2dVertex
 10
601.970703125
 20
841.279296875
 30
0.0
  0
VERTEX
  5
72B
330
728
100
AcDbEntity
  8
Ebene 1
370
     0
100
AcDbVertex
100
AcDb2dVertex
 10
602.8974609375
 20
842.4267578125
 30
0.0
  0
VERTEX
  5
72C
330
728
100
AcDbEntity
  8
Ebene 1
370
     0
100
AcDbVertex
100
AcDb2dVertex
 10
602.8974609375
 20
834.1328125
 30
0.0
  0
SEQEND
  5
72D
330
728
100
AcDbEntity
  8
Ebene 1
370
     0
  0
POLYLINE
  5
72E
330
3C
100
AcDbEntity
  8
Ebene 1
370
     0
100
AcDb2dPolyline
 66
     1
 10
0.0
 20
0.0
 30
0.0
  0
VERTEX
  5
72F
330
72E
100
AcDbEntity
  8
Ebene 1
370
     0
100
AcDbVertex
100
AcDb2dVertex
 10
607.3525390625
 20
842.4267578125
 30
0.0
  0
VERTEX
  5
730
330
72E
100
AcDbEntity
  8
Ebene 1
370
     0
100
AcDbVertex
100
AcDb2dVertex
 10
610.837890625
 20
842.4267578125
 30
0.0
  0
VERTEX
  5
731
330
72E
100
AcDbEntity
  8
Ebene 1
370
     0
100
AcDbVertex
100
AcDb2dVertex
 10
608.94140625
 20
839.2939453125
 30
0.0
  0
VERTEX
  5
732
330
72E
100
AcDbEntity
  8
Ebene 1
370
     0
100
AcDbVertex
100
AcDb2dVertex
 10
609.8671875
 20
839.2939453125
 30
0.0
  0
VERTEX
  5
733
330
72E
100
AcDbEntity
  8
Ebene 1
370
     0
100
AcDbVertex
100
AcDb2dVertex
 10
610.4853515625
 20
838.8974609375
 30
0.0
  0
VERTEX
  5
734
330
72E
100
AcDbEntity
  8
Ebene 1
370
     0
100
AcDbVertex
100
AcDb2dVertex
 10
610.837890625
 20
838.5
 30
0.0
  0
VERTEX
  5
735
330
72E
100
AcDbEntity
  8
Ebene 1
370
     0
100
AcDbVertex
100
AcDb2dVertex
 10
611.1474609375
 20
837.30859375
 30
0.0
  0
VERTEX
  5
736
330
72E
100
AcDbEntity
  8
Ebene 1
370
     0
100
AcDbVertex
100
AcDb2dVertex
 10
611.1474609375
 20
836.5146484375
 30
0.0
  0
VERTEX
  5
737
330
72E
100
AcDbEntity
  8
Ebene 1
370
     0
100
AcDbVertex
100
AcDb2dVertex
 10
610.837890625
 20
835.3232421875
 30
0.0
  0
VERTEX
  5
738
330
72E
100
AcDbEntity
  8
Ebene 1
370
     0
100
AcDbVertex
100
AcDb2dVertex
 10
610.1767578125
 20
834.529296875
 30
0.0
  0
VERTEX
  5
739
330
72E
100
AcDbEntity
  8
Ebene 1
370
     0
100
AcDbVertex
100
AcDb2dVertex
 10
609.25
 20
834.1328125
 30
0.0
  0
VERTEX
  5
73A
330
72E
100
AcDbEntity
  8
Ebene 1
370
     0
100
AcDbVertex
100
AcDb2dVertex
 10
608.279296875
 20
834.1328125
 30
0.0
  0
VERTEX
  5
73B
330
72E
100
AcDbEntity
  8
Ebene 1
370
     0
100
AcDbVertex
100
AcDb2dVertex
 10
607.3525390625
 20
834.529296875
 30
0.0
  0
VERTEX
  5
73C
330
72E
100
AcDbEntity
  8
Ebene 1
370
     0
100
AcDbVertex
100
AcDb2dVertex
 10
607.0439453125
 20
834.9267578125
 30
0.0
  0
VERTEX
  5
73D
330
72E
100
AcDbEntity
  8
Ebene 1
370
     0
100
AcDbVertex
100
AcDb2dVertex
 10
606.69140625
 20
835.720703125
 30
0.0
  0
SEQEND
  5
73E
330
72E
100
AcDbEntity
  8
Ebene 1
370
     0
  0
POLYLINE
  5
73F
330
3C
100
AcDbEntity
  8
Ebene 1
370
     0
100
AcDb2dPolyline
 66
     1
 10
0.0
 20
0.0
 30
0.0
  0
VERTEX
  5
740
330
73F
100
AcDbEntity
  8
Ebene 1
370
     0
100
AcDbVertex
100
AcDb2dVertex
 10
613.662109375
 20
834.9267578125
 30
0.0
  0
VERTEX
  5
741
330
73F
100
AcDbEntity
  8
Ebene 1
370
     0
100
AcDbVertex
100
AcDb2dVertex
 10
613.3525390625
 20
834.529296875
 30
0.0
  0
VERTEX
  5
742
330
73F
100
AcDbEntity
  8
Ebene 1
370
     0
100
AcDbVertex
100
AcDb2dVertex
 10
613.662109375
 20
834.1328125
 30
0.0
  0
VERTEX
  5
743
330
73F
100
AcDbEntity
  8
Ebene 1
370
     0
100
AcDbVertex
100
AcDb2dVertex
 10
613.970703125
 20
834.529296875
 30
0.0
  0
VERTEX
  5
744
330
73F
100
AcDbEntity
  8
Ebene 1
370
     0
100
AcDbVertex
100
AcDb2dVertex
 10
613.662109375
 20
834.9267578125
 30
0.0
  0
VERTEX
  5
745
330
73F
100
AcDbEntity
  8
Ebene 1
370
     0
100
AcDbVertex
100
AcDb2dVertex
 10
613.662109375
 20
834.9267578125
 30
0.0
  0
SEQEND
  5
746
330
73F
100
AcDbEntity
  8
Ebene 1
370
     0
  0
POLYLINE
  5
747
330
3C
100
AcDbEntity
  8
Ebene 1
370
     0
100
AcDb2dPolyline
 66
     1
 10
0.0
 20
0.0
 30
0.0
  0
VERTEX
  5
748
330
747
100
AcDbEntity
  8
Ebene 1
370
     0
100
AcDbVertex
100
AcDb2dVertex
 10
-161.0
 20
-199.1025390625
 30
0.0
  0
VERTEX
  5
749
330
747
100
AcDbEntity
  8
Ebene 1
370
     0
100
AcDbVertex
100
AcDb2dVertex
 10
-161.0
 20
-199.1025390625
 30
0.0
  0
SEQEND
  5
74A
330
747
100
AcDbEntity
  8
Ebene 1
370
     0
  0
POLYLINE
  5
74B
330
3C
100
AcDbEntity
  8
Ebene 1
370
     0
100
AcDb2dPolyline
 66
     1
 10
0.0
 20
0.0
 30
0.0
  0
VERTEX
  5
74C
330
74B
100
AcDbEntity
  8
Ebene 1
370
     0
100
AcDbVertex
100
AcDb2dVertex
 10
-161.0
 20
-199.1025390625
 30
0.0
  0
VERTEX
  5
74D
330
74B
100
AcDbEntity
  8
Ebene 1
370
     0
100
AcDbVertex
100
AcDb2dVertex
 10
-161.0
 20
-199.1025390625
 30
0.0
  0
SEQEND
  5
74E
330
74B
100
AcDbEntity
  8
Ebene 1
370
     0
  0
POLYLINE
  5
74F
330
3C
100
AcDbEntity
  8
Ebene 1
370
     0
100
AcDb2dPolyline
 66
     1
 10
0.0
 20
0.0
 30
0.0
  0
VERTEX
  5
750
330
74F
100
AcDbEntity
  8
Ebene 1
370
     0
100
AcDbVertex
100
AcDb2dVertex
 10
-161.0
 20
-199.1025390625
 30
0.0
  0
VERTEX
  5
751
330
74F
100
AcDbEntity
  8
Ebene 1
370
     0
100
AcDbVertex
100
AcDb2dVertex
 10
-161.0
 20
-199.1025390625
 30
0.0
  0
SEQEND
  5
752
330
74F
100
AcDbEntity
  8
Ebene 1
370
     0
  0
POLYLINE
  5
753
330
3C
100
AcDbEntity
  8
Ebene 1
370
     0
100
AcDb2dPolyline
 66
     1
 10
0.0
 20
0.0
 30
0.0
  0
VERTEX
  5
754
330
753
100
AcDbEntity
  8
Ebene 1
370
     0
100
AcDbVertex
100
AcDb2dVertex
 10
619.970703125
 20
842.4267578125
 30
0.0
  0
VERTEX
  5
755
330
753
100
AcDbEntity
  8
Ebene 1
370
     0
100
AcDbVertex
100
AcDb2dVertex
 10
616.837890625
 20
842.4267578125
 30
0.0
  0
VERTEX
  5
756
330
753
100
AcDbEntity
  8
Ebene 1
370
     0
100
AcDbVertex
100
AcDb2dVertex
 10
616.529296875
 20
838.8974609375
 30
0.0
  0
VERTEX
  5
757
330
753
100
AcDbEntity
  8
Ebene 1
370
     0
100
AcDbVertex
100
AcDb2dVertex
 10
616.837890625
 20
839.2939453125
 30
0.0
  0
VERTEX
  5
758
330
753
100
AcDbEntity
  8
Ebene 1
370
     0
100
AcDbVertex
100
AcDb2dVertex
 10
617.7646484375
 20
839.69140625
 30
0.0
  0
VERTEX
  5
759
330
753
100
AcDbEntity
  8
Ebene 1
370
     0
100
AcDbVertex
100
AcDb2dVertex
 10
618.7353515625
 20
839.69140625
 30
0.0
  0
VERTEX
  5
75A
330
753
100
AcDbEntity
  8
Ebene 1
370
     0
100
AcDbVertex
100
AcDb2dVertex
 10
619.662109375
 20
839.2939453125
 30
0.0
  0
VERTEX
  5
75B
330
753
100
AcDbEntity
  8
Ebene 1
370
     0
100
AcDbVertex
100
AcDb2dVertex
 10
620.3232421875
 20
838.5
 30
0.0
  0
VERTEX
  5
75C
330
753
100
AcDbEntity
  8
Ebene 1
370
     0
100
AcDbVertex
100
AcDb2dVertex
 10
620.6328125
 20
837.30859375
 30
0.0
  0
VERTEX
  5
75D
330
753
100
AcDbEntity
  8
Ebene 1
370
     0
100
AcDbVertex
100
AcDb2dVertex
 10
620.6328125
 20
836.5146484375
 30
0.0
  0
VERTEX
  5
75E
330
753
100
AcDbEntity
  8
Ebene 1
370
     0
100
AcDbVertex
100
AcDb2dVertex
 10
620.3232421875
 20
835.3232421875
 30
0.0
  0
VERTEX
  5
75F
330
753
100
AcDbEntity
  8
Ebene 1
370
     0
100
AcDbVertex
100
AcDb2dVertex
 10
619.662109375
 20
834.529296875
 30
0.0
  0
VERTEX
  5
760
330
753
100
AcDbEntity
  8
Ebene 1
370
     0
100
AcDbVertex
100
AcDb2dVertex
 10
618.7353515625
 20
834.1328125
 30
0.0
  0
VERTEX
  5
761
330
753
100
AcDbEntity
  8
Ebene 1
370
     0
100
AcDbVertex
100
AcDb2dVertex
 10
617.7646484375
 20
834.1328125
 30
0.0
  0
VERTEX
  5
762
330
753
100
AcDbEntity
  8
Ebene 1
370
     0
100
AcDbVertex
100
AcDb2dVertex
 10
616.837890625
 20
834.529296875
 30
0.0
  0
VERTEX
  5
763
330
753
100
AcDbEntity
  8
Ebene 1
370
     0
100
AcDbVertex
100
AcDb2dVertex
 10
616.529296875
 20
834.9267578125
 30
0.0
  0
VERTEX
  5
764
330
753
100
AcDbEntity
  8
Ebene 1
370
     0
100
AcDbVertex
100
AcDb2dVertex
 10
616.1767578125
 20
835.720703125
 30
0.0
  0
SEQEND
  5
765
330
753
100
AcDbEntity
  8
Ebene 1
370
     0
  0
POLYLINE
  5
766
330
3C
100
AcDbEntity
  8
Ebene 1
370
     0
100
AcDb2dPolyline
 66
     1
 10
0.0
 20
0.0
 30
0.0
  0
VERTEX
  5
767
330
766
100
AcDbEntity
  8
Ebene 1
370
     0
100
AcDbVertex
100
AcDb2dVertex
 10
566.05859375
 20
886.94140625
 30
0.0
  0
VERTEX
  5
768
330
766
100
AcDbEntity
  8
Ebene 1
370
     0
100
AcDbVertex
100
AcDb2dVertex
 10
566.05859375
 20
851.7353515625
 30
0.0
  0
SEQEND
  5
769
330
766
100
AcDbEntity
  8
Ebene 1
370
     0
  0
POLYLINE
  5
76A
330
3C
100
AcDbEntity
  8
Ebene 1
370
     0
100
AcDb2dPolyline
 66
     1
 10
0.0
 20
0.0
 30
0.0
  0
VERTEX
  5
76B
330
76A
100
AcDbEntity
  8
Ebene 1
370
     0
100
AcDbVertex
100
AcDb2dVertex
 10
557.05859375
 20
910.5
 30
0.0
  0
VERTEX
  5
76C
330
76A
100
AcDbEntity
  8
Ebene 1
370
     0
100
AcDbVertex
100
AcDb2dVertex
 10
557.05859375
 20
851.7353515625
 30
0.0
  0
SEQEND
  5
76D
330
76A
100
AcDbEntity
  8
Ebene 1
370
     0
  0
POLYLINE
  5
76E
330
3C
100
AcDbEntity
  8
Ebene 1
370
     0
100
AcDb2dPolyline
 66
     1
 10
0.0
 20
0.0
 30
0.0
  0
VERTEX
  5
76F
330
76E
100
AcDbEntity
  8
Ebene 1
370
     0
100
AcDbVertex
100
AcDb2dVertex
 10
550.17578125
 20
857.25
 30
0.0
  0
VERTEX
  5
770
330
76E
100
AcDbEntity
  8
Ebene 1
370
     0
100
AcDbVertex
100
AcDb2dVertex
 10
543.25
 20
857.25
 30
0.0
  0
SEQEND
  5
771
330
76E
100
AcDbEntity
  8
Ebene 1
370
     0
  0
POLYLINE
  5
772
330
3C
100
AcDbEntity
  8
Ebene 1
370
     0
100
AcDb2dPolyline
 66
     1
 10
0.0
 20
0.0
 30
0.0
  0
VERTEX
  5
773
330
772
100
AcDbEntity
  8
Ebene 1
370
     0
100
AcDbVertex
100
AcDb2dVertex
 10
572.9853515625
 20
857.25
 30
0.0
  0
VERTEX
  5
774
330
772
100
AcDbEntity
  8
Ebene 1
370
     0
100
AcDbVertex
100
AcDb2dVertex
 10
611.1025390625
 20
857.25
 30
0.0
  0
SEQEND
  5
775
330
772
100
AcDbEntity
  8
Ebene 1
370
     0
  0
POLYLINE
  5
776
330
3C
100
AcDbEntity
  8
Ebene 1
370
     0
100
AcDb2dPolyline
 66
     1
 10
0.0
 20
0.0
 30
0.0
  0
VERTEX
  5
777
330
776
100
AcDbEntity
  8
Ebene 1
370
     0
100
AcDbVertex
100
AcDb2dVertex
 10
557.05859375
 20
857.25
 30
0.0
  0
VERTEX
  5
778
330
776
100
AcDbEntity
  8
Ebene 1
370
     0
100
AcDbVertex
100
AcDb2dVertex
 10
566.05859375
 20
857.25
 30
0.0
  0
SEQEND
  5
779
330
776
100
AcDbEntity
  8
Ebene 1
370
     0
  0
POLYLINE
  5
77A
330
3C
100
AcDbEntity
  8
Ebene 1
370
     0
100
AcDb2dPolyline
 66
     1
 10
0.0
 20
0.0
 30
0.0
  0
VERTEX
  5
77B
330
77A
100
AcDbEntity
  8
Ebene 1
370
     0
100
AcDbVertex
100
AcDb2dVertex
 10
550.17578125
 20
858.44140625
 30
0.0
  0
VERTEX
  5
77C
330
77A
100
AcDbEntity
  8
Ebene 1
370
     0
100
AcDbVertex
100
AcDb2dVertex
 10
550.17578125
 20
856.1025390625
 30
0.0
  0
VERTEX
  5
77D
330
77A
100
AcDbEntity
  8
Ebene 1
370
     0
100
AcDbVertex
100
AcDb2dVertex
 10
557.05859375
 20
857.25
 30
0.0
  0
VERTEX
  5
77E
330
77A
100
AcDbEntity
  8
Ebene 1
370
     0
100
AcDbVertex
100
AcDb2dVertex
 10
550.17578125
 20
858.44140625
 30
0.0
  0
SEQEND
  5
77F
330
77A
100
AcDbEntity
  8
Ebene 1
370
     0
  0
HATCH
  5
780
330
3C
100
AcDbEntity
  8
Ebene 1
 62
   251
420
  6710886
100
AcDbHatch
 10
0.0
 20
0.0
 30
0.0
210
0.0
220
0.0
230
1.0
  2
SOLID
 70
     1
 71
     0
 91
        1
 92
        1
 93
        3
 72
     1
 10
550.17578125
 20
858.44140625
 11
550.17578125
 21
856.1025390625
 72
     1
 10
550.17578125
 20
856.1025390625
 11
557.05859375
 21
857.25
 72
     1
 10
557.05859375
 20
857.25
 11
550.17578125
 21
858.44140625
 97
        0
 75
     0
 76
     1
 98
        0
  0
POLYLINE
  5
781
330
3C
100
AcDbEntity
  8
Ebene 1
370
     0
100
AcDb2dPolyline
 66
     1
 10
0.0
 20
0.0
 30
0.0
  0
VERTEX
  5
782
330
781
100
AcDbEntity
  8
Ebene 1
370
     0
100
AcDbVertex
100
AcDb2dVertex
 10
572.9853515625
 20
858.44140625
 30
0.0
  0
VERTEX
  5
783
330
781
100
AcDbEntity
  8
Ebene 1
370
     0
100
AcDbVertex
100
AcDb2dVertex
 10
572.9853515625
 20
856.1025390625
 30
0.0
  0
VERTEX
  5
784
330
781
100
AcDbEntity
  8
Ebene 1
370
     0
100
AcDbVertex
100
AcDb2dVertex
 10
566.05859375
 20
857.25
 30
0.0
  0
VERTEX
  5
785
330
781
100
AcDbEntity
  8
Ebene 1
370
     0
100
AcDbVertex
100
AcDb2dVertex
 10
572.9853515625
 20
858.44140625
 30
0.0
  0
SEQEND
  5
786
330
781
100
AcDbEntity
  8
Ebene 1
370
     0
  0
HATCH
  5
787
330
3C
100
AcDbEntity
  8
Ebene 1
 62
   251
420
  6710886
100
AcDbHatch
 10
0.0
 20
0.0
 30
0.0
210
0.0
220
0.0
230
1.0
  2
SOLID
 70
     1
 71
     0
 91
        1
 92
        1
 93
        3
 72
     1
 10
572.9853515625
 20
858.44140625
 11
572.9853515625
 21
856.1025390625
 72
     1
 10
572.9853515625
 20
856.1025390625
 11
566.05859375
 21
857.25
 72
     1
 10
566.05859375
 20
857.25
 11
572.9853515625
 21
858.44140625
 97
        0
 75
     0
 76
     1
 98
        0
  0
POLYLINE
  5
788
330
3C
100
AcDbEntity
  8
Ebene 1
370
     0
100
AcDb2dPolyline
 66
     1
 10
0.0
 20
0.0
 30
0.0
  0
VERTEX
  5
789
330
788
100
AcDbEntity
  8
Ebene 1
370
     0
100
AcDbVertex
100
AcDb2dVertex
 10
598.529296875
 20
867.1328125
 30
0.0
  0
VERTEX
  5
78A
330
788
100
AcDbEntity
  8
Ebene 1
370
     0
100
AcDbVertex
100
AcDb2dVertex
 10
598.220703125
 20
867.9267578125
 30
0.0
  0
VERTEX
  5
78B
330
788
100
AcDbEntity
  8
Ebene 1
370
     0
100
AcDbVertex
100
AcDb2dVertex
 10
597.25
 20
868.3232421875
 30
0.0
  0
VERTEX
  5
78C
330
788
100
AcDbEntity
  8
Ebene 1
370
     0
100
AcDbVertex
100
AcDb2dVertex
 10
596.6328125
 20
868.3232421875
 30
0.0
  0
VERTEX
  5
78D
330
788
100
AcDbEntity
  8
Ebene 1
370
     0
100
AcDbVertex
100
AcDb2dVertex
 10
595.662109375
 20
867.9267578125
 30
0.0
  0
VERTEX
  5
78E
330
788
100
AcDbEntity
  8
Ebene 1
370
     0
100
AcDbVertex
100
AcDb2dVertex
 10
595.0439453125
 20
866.7353515625
 30
0.0
  0
VERTEX
  5
78F
330
788
100
AcDbEntity
  8
Ebene 1
370
     0
100
AcDbVertex
100
AcDb2dVertex
 10
594.7353515625
 20
864.7939453125
 30
0.0
  0
VERTEX
  5
790
330
788
100
AcDbEntity
  8
Ebene 1
370
     0
100
AcDbVertex
100
AcDb2dVertex
 10
594.7353515625
 20
862.80859375
 30
0.0
  0
VERTEX
  5
791
330
788
100
AcDbEntity
  8
Ebene 1
370
     0
100
AcDbVertex
100
AcDb2dVertex
 10
595.0439453125
 20
861.220703125
 30
0.0
  0
VERTEX
  5
792
330
788
100
AcDbEntity
  8
Ebene 1
370
     0
100
AcDbVertex
100
AcDb2dVertex
 10
595.662109375
 20
860.4267578125
 30
0.0
  0
VERTEX
  5
793
330
788
100
AcDbEntity
  8
Ebene 1
370
     0
100
AcDbVertex
100
AcDb2dVertex
 10
596.6328125
 20
860.029296875
 30
0.0
  0
VERTEX
  5
794
330
788
100
AcDbEntity
  8
Ebene 1
370
     0
100
AcDbVertex
100
AcDb2dVertex
 10
596.94140625
 20
860.029296875
 30
0.0
  0
VERTEX
  5
795
330
788
100
AcDbEntity
  8
Ebene 1
370
     0
100
AcDbVertex
100
AcDb2dVertex
 10
597.912109375
 20
860.4267578125
 30
0.0
  0
VERTEX
  5
796
330
788
100
AcDbEntity
  8
Ebene 1
370
     0
100
AcDbVertex
100
AcDb2dVertex
 10
598.529296875
 20
861.220703125
 30
0.0
  0
VERTEX
  5
797
330
788
100
AcDbEntity
  8
Ebene 1
370
     0
100
AcDbVertex
100
AcDb2dVertex
 10
598.837890625
 20
862.412109375
 30
0.0
  0
VERTEX
  5
798
330
788
100
AcDbEntity
  8
Ebene 1
370
     0
100
AcDbVertex
100
AcDb2dVertex
 10
598.837890625
 20
862.80859375
 30
0.0
  0
VERTEX
  5
799
330
788
100
AcDbEntity
  8
Ebene 1
370
     0
100
AcDbVertex
100
AcDb2dVertex
 10
598.529296875
 20
864.0
 30
0.0
  0
VERTEX
  5
79A
330
788
100
AcDbEntity
  8
Ebene 1
370
     0
100
AcDbVertex
100
AcDb2dVertex
 10
597.912109375
 20
864.7939453125
 30
0.0
  0
VERTEX
  5
79B
330
788
100
AcDbEntity
  8
Ebene 1
370
     0
100
AcDbVertex
100
AcDb2dVertex
 10
596.94140625
 20
865.19140625
 30
0.0
  0
VERTEX
  5
79C
330
788
100
AcDbEntity
  8
Ebene 1
370
     0
100
AcDbVertex
100
AcDb2dVertex
 10
596.6328125
 20
865.19140625
 30
0.0
  0
VERTEX
  5
79D
330
788
100
AcDbEntity
  8
Ebene 1
370
     0
100
AcDbVertex
100
AcDb2dVertex
 10
595.662109375
 20
864.7939453125
 30
0.0
  0
VERTEX
  5
79E
330
788
100
AcDbEntity
  8
Ebene 1
370
     0
100
AcDbVertex
100
AcDb2dVertex
 10
595.0439453125
 20
864.0
 30
0.0
  0
VERTEX
  5
79F
330
788
100
AcDbEntity
  8
Ebene 1
370
     0
100
AcDbVertex
100
AcDb2dVertex
 10
594.7353515625
 20
862.80859375
 30
0.0
  0
SEQEND
  5
7A0
330
788
100
AcDbEntity
  8
Ebene 1
370
     0
  0
POLYLINE
  5
7A1
330
3C
100
AcDbEntity
  8
Ebene 1
370
     0
100
AcDb2dPolyline
 66
     1
 10
0.0
 20
0.0
 30
0.0
  0
VERTEX
  5
7A2
330
7A1
100
AcDbEntity
  8
Ebene 1
370
     0
100
AcDbVertex
100
AcDb2dVertex
 10
601.3525390625
 20
860.8232421875
 30
0.0
  0
VERTEX
  5
7A3
330
7A1
100
AcDbEntity
  8
Ebene 1
370
     0
100
AcDbVertex
100
AcDb2dVertex
 10
601.0439453125
 20
860.4267578125
 30
0.0
  0
VERTEX
  5
7A4
330
7A1
100
AcDbEntity
  8
Ebene 1
370
     0
100
AcDbVertex
100
AcDb2dVertex
 10
601.3525390625
 20
860.029296875
 30
0.0
  0
VERTEX
  5
7A5
330
7A1
100
AcDbEntity
  8
Ebene 1
370
     0
100
AcDbVertex
100
AcDb2dVertex
 10
601.7060546875
 20
860.4267578125
 30
0.0
  0
VERTEX
  5
7A6
330
7A1
100
AcDbEntity
  8
Ebene 1
370
     0
100
AcDbVertex
100
AcDb2dVertex
 10
601.3525390625
 20
860.8232421875
 30
0.0
  0
VERTEX
  5
7A7
330
7A1
100
AcDbEntity
  8
Ebene 1
370
     0
100
AcDbVertex
100
AcDb2dVertex
 10
601.3525390625
 20
860.8232421875
 30
0.0
  0
SEQEND
  5
7A8
330
7A1
100
AcDbEntity
  8
Ebene 1
370
     0
  0
POLYLINE
  5
7A9
330
3C
100
AcDbEntity
  8
Ebene 1
370
     0
100
AcDb2dPolyline
 66
     1
 10
0.0
 20
0.0
 30
0.0
  0
VERTEX
  5
7AA
330
7A9
100
AcDbEntity
  8
Ebene 1
370
     0
100
AcDbVertex
100
AcDb2dVertex
 10
-161.0
 20
-199.1025390625
 30
0.0
  0
VERTEX
  5
7AB
330
7A9
100
AcDbEntity
  8
Ebene 1
370
     0
100
AcDbVertex
100
AcDb2dVertex
 10
-161.0
 20
-199.1025390625
 30
0.0
  0
SEQEND
  5
7AC
330
7A9
100
AcDbEntity
  8
Ebene 1
370
     0
  0
POLYLINE
  5
7AD
330
3C
100
AcDbEntity
  8
Ebene 1
370
     0
100
AcDb2dPolyline
 66
     1
 10
0.0
 20
0.0
 30
0.0
  0
VERTEX
  5
7AE
330
7AD
100
AcDbEntity
  8
Ebene 1
370
     0
100
AcDbVertex
100
AcDb2dVertex
 10
-161.0
 20
-199.1025390625
 30
0.0
  0
VERTEX
  5
7AF
330
7AD
100
AcDbEntity
  8
Ebene 1
370
     0
100
AcDbVertex
100
AcDb2dVertex
 10
-161.0
 20
-199.1025390625
 30
0.0
  0
SEQEND
  5
7B0
330
7AD
100
AcDbEntity
  8
Ebene 1
370
     0
  0
POLYLINE
  5
7B1
330
3C
100
AcDbEntity
  8
Ebene 1
370
     0
100
AcDb2dPolyline
 66
     1
 10
0.0
 20
0.0
 30
0.0
  0
VERTEX
  5
7B2
330
7B1
100
AcDbEntity
  8
Ebene 1
370
     0
100
AcDbVertex
100
AcDb2dVertex
 10
-161.0
 20
-199.1025390625
 30
0.0
  0
VERTEX
  5
7B3
330
7B1
100
AcDbEntity
  8
Ebene 1
370
     0
100
AcDbVertex
100
AcDb2dVertex
 10
-161.0
 20
-199.1025390625
 30
0.0
  0
SEQEND
  5
7B4
330
7B1
100
AcDbEntity
  8
Ebene 1
370
     0
  0
POLYLINE
  5
7B5
330
3C
100
AcDbEntity
  8
Ebene 1
370
     0
100
AcDb2dPolyline
 66
     1
 10
0.0
 20
0.0
 30
0.0
  0
VERTEX
  5
7B6
330
7B5
100
AcDbEntity
  8
Ebene 1
370
     0
100
AcDbVertex
100
AcDb2dVertex
 10
607.7060546875
 20
868.3232421875
 30
0.0
  0
VERTEX
  5
7B7
330
7B5
100
AcDbEntity
  8
Ebene 1
370
     0
100
AcDbVertex
100
AcDb2dVertex
 10
604.529296875
 20
868.3232421875
 30
0.0
  0
VERTEX
  5
7B8
330
7B5
100
AcDbEntity
  8
Ebene 1
370
     0
100
AcDbVertex
100
AcDb2dVertex
 10
604.220703125
 20
864.7939453125
 30
0.0
  0
VERTEX
  5
7B9
330
7B5
100
AcDbEntity
  8
Ebene 1
370
     0
100
AcDbVertex
100
AcDb2dVertex
 10
604.529296875
 20
865.19140625
 30
0.0
  0
VERTEX
  5
7BA
330
7B5
100
AcDbEntity
  8
Ebene 1
370
     0
100
AcDbVertex
100
AcDb2dVertex
 10
605.5
 20
865.587890625
 30
0.0
  0
VERTEX
  5
7BB
330
7B5
100
AcDbEntity
  8
Ebene 1
370
     0
100
AcDbVertex
100
AcDb2dVertex
 10
606.4267578125
 20
865.587890625
 30
0.0
  0
VERTEX
  5
7BC
330
7B5
100
AcDbEntity
  8
Ebene 1
370
     0
100
AcDbVertex
100
AcDb2dVertex
 10
607.3525390625
 20
865.19140625
 30
0.0
  0
VERTEX
  5
7BD
330
7B5
100
AcDbEntity
  8
Ebene 1
370
     0
100
AcDbVertex
100
AcDb2dVertex
 10
608.0146484375
 20
864.3974609375
 30
0.0
  0
VERTEX
  5
7BE
330
7B5
100
AcDbEntity
  8
Ebene 1
370
     0
100
AcDbVertex
100
AcDb2dVertex
 10
608.3232421875
 20
863.2060546875
 30
0.0
  0
VERTEX
  5
7BF
330
7B5
100
AcDbEntity
  8
Ebene 1
370
     0
100
AcDbVertex
100
AcDb2dVertex
 10
608.3232421875
 20
862.412109375
 30
0.0
  0
VERTEX
  5
7C0
330
7B5
100
AcDbEntity
  8
Ebene 1
370
     0
100
AcDbVertex
100
AcDb2dVertex
 10
608.0146484375
 20
861.220703125
 30
0.0
  0
VERTEX
  5
7C1
330
7B5
100
AcDbEntity
  8
Ebene 1
370
     0
100
AcDbVertex
100
AcDb2dVertex
 10
607.3525390625
 20
860.4267578125
 30
0.0
  0
VERTEX
  5
7C2
330
7B5
100
AcDbEntity
  8
Ebene 1
370
     0
100
AcDbVertex
100
AcDb2dVertex
 10
606.4267578125
 20
860.029296875
 30
0.0
  0
VERTEX
  5
7C3
330
7B5
100
AcDbEntity
  8
Ebene 1
370
     0
100
AcDbVertex
100
AcDb2dVertex
 10
605.5
 20
860.029296875
 30
0.0
  0
VERTEX
  5
7C4
330
7B5
100
AcDbEntity
  8
Ebene 1
370
     0
100
AcDbVertex
100
AcDb2dVertex
 10
604.529296875
 20
860.4267578125
 30
0.0
  0
VERTEX
  5
7C5
330
7B5
100
AcDbEntity
  8
Ebene 1
370
     0
100
AcDbVertex
100
AcDb2dVertex
 10
604.220703125
 20
860.8232421875
 30
0.0
  0
VERTEX
  5
7C6
330
7B5
100
AcDbEntity
  8
Ebene 1
370
     0
100
AcDbVertex
100
AcDb2dVertex
 10
603.912109375
 20
861.6171875
 30
0.0
  0
SEQEND
  5
7C7
330
7B5
100
AcDbEntity
  8
Ebene 1
370
     0
  0
POLYLINE
  5
7C8
330
3C
100
AcDbEntity
  8
Ebene 1
370
     0
100
AcDb2dPolyline
 66
     1
 10
0.0
 20
0.0
 30
0.0
  0
VERTEX
  5
7C9
330
7C8
100
AcDbEntity
  8
Ebene 1
370
     0
100
AcDbVertex
100
AcDb2dVertex
 10
303.07373046875
 20
783.529296875
 30
0.0
  0
VERTEX
  5
7CA
330
7C8
100
AcDbEntity
  8
Ebene 1
370
     0
100
AcDbVertex
100
AcDb2dVertex
 10
321.42578125
 20
783.529296875
 30
0.0
  0
SEQEND
  5
7CB
330
7C8
100
AcDbEntity
  8
Ebene 1
370
     0
  0
POLYLINE
  5
7CC
330
3C
100
AcDbEntity
  8
Ebene 1
370
     0
100
AcDb2dPolyline
 66
     1
 10
0.0
 20
0.0
 30
0.0
  0
VERTEX
  5
7CD
330
7CC
100
AcDbEntity
  8
Ebene 1
370
     0
100
AcDbVertex
100
AcDb2dVertex
 10
312.25
 20
792.0439453125
 30
0.0
  0
VERTEX
  5
7CE
330
7CC
100
AcDbEntity
  8
Ebene 1
370
     0
100
AcDbVertex
100
AcDb2dVertex
 10
312.25
 20
775.05859375
 30
0.0
  0
SEQEND
  5
7CF
330
7CC
100
AcDbEntity
  8
Ebene 1
370
     0
  0
POLYLINE
  5
7D0
330
3C
100
AcDbEntity
  8
Ebene 1
370
     0
100
AcDb2dPolyline
 66
     1
 10
0.0
 20
0.0
 30
0.0
  0
VERTEX
  5
7D1
330
7D0
100
AcDbEntity
  8
Ebene 1
370
     0
100
AcDbVertex
100
AcDb2dVertex
 10
557.3671875
 20
888.970703125
 30
0.0
  0
VERTEX
  5
7D2
330
7D0
100
AcDbEntity
  8
Ebene 1
370
     0
100
AcDbVertex
100
AcDb2dVertex
 10
551.7646484375
 20
884.912109375
 30
0.0
  0
SEQEND
  5
7D3
330
7D0
100
AcDbEntity
  8
Ebene 1
370
     0
  0
POLYLINE
  5
7D4
330
3C
100
AcDbEntity
  8
Ebene 1
370
     0
100
AcDb2dPolyline
 66
     1
 10
0.0
 20
0.0
 30
0.0
  0
VERTEX
  5
7D5
330
7D4
100
AcDbEntity
  8
Ebene 1
370
     0
100
AcDbVertex
100
AcDb2dVertex
 10
574.75
 20
901.5439453125
 30
0.0
  0
VERTEX
  5
7D6
330
7D4
100
AcDbEntity
  8
Ebene 1
370
     0
100
AcDbVertex
100
AcDb2dVertex
 10
625.087890625
 20
937.9853515625
 30
0.0
  0
SEQEND
  5
7D7
330
7D4
100
AcDbEntity
  8
Ebene 1
370
     0
  0
POLYLINE
  5
7D8
330
3C
100
AcDbEntity
  8
Ebene 1
370
     0
100
AcDb2dPolyline
 66
     1
 10
0.0
 20
0.0
 30
0.0
  0
VERTEX
  5
7D9
330
7D8
100
AcDbEntity
  8
Ebene 1
370
     0
100
AcDbVertex
100
AcDb2dVertex
 10
562.970703125
 20
893.029296875
 30
0.0
  0
VERTEX
  5
7DA
330
7D8
100
AcDbEntity
  8
Ebene 1
370
     0
100
AcDbVertex
100
AcDb2dVertex
 10
569.1474609375
 20
897.4853515625
 30
0.0
  0
SEQEND
  5
7DB
330
7D8
100
AcDbEntity
  8
Ebene 1
370
     0
  0
POLYLINE
  5
7DC
330
3C
100
AcDbEntity
  8
Ebene 1
370
     0
100
AcDb2dPolyline
 66
     1
 10
0.0
 20
0.0
 30
0.0
  0
VERTEX
  5
7DD
330
7DC
100
AcDbEntity
  8
Ebene 1
370
     0
100
AcDbVertex
100
AcDb2dVertex
 10
556.7060546875
 20
889.8974609375
 30
0.0
  0
VERTEX
  5
7DE
330
7DC
100
AcDbEntity
  8
Ebene 1
370
     0
100
AcDbVertex
100
AcDb2dVertex
 10
558.0732421875
 20
888.0439453125
 30
0.0
  0
VERTEX
  5
7DF
330
7DC
100
AcDbEntity
  8
Ebene 1
370
     0
100
AcDbVertex
100
AcDb2dVertex
 10
562.970703125
 20
893.029296875
 30
0.0
  0
VERTEX
  5
7E0
330
7DC
100
AcDbEntity
  8
Ebene 1
370
     0
100
AcDbVertex
100
AcDb2dVertex
 10
556.7060546875
 20
889.8974609375
 30
0.0
  0
SEQEND
  5
7E1
330
7DC
100
AcDbEntity
  8
Ebene 1
370
     0
  0
HATCH
  5
7E2
330
3C
100
AcDbEntity
  8
Ebene 1
 62
   251
420
  6710886
100
AcDbHatch
 10
0.0
 20
0.0
 30
0.0
210
0.0
220
0.0
230
1.0
  2
SOLID
 70
     1
 71
     0
 91
        1
 92
        1
 93
        3
 72
     1
 10
556.7060546875
 20
889.8974609375
 11
558.0732421875
 21
888.0439453125
 72
     1
 10
558.0732421875
 20
888.0439453125
 11
562.970703125
 21
893.029296875
 72
     1
 10
562.970703125
 20
893.029296875
 11
556.7060546875
 21
889.8974609375
 97
        0
 75
     0
 76
     1
 98
        0
  0
POLYLINE
  5
7E3
330
3C
100
AcDbEntity
  8
Ebene 1
370
     0
100
AcDb2dPolyline
 66
     1
 10
0.0
 20
0.0
 30
0.0
  0
VERTEX
  5
7E4
330
7E3
100
AcDbEntity
  8
Ebene 1
370
     0
100
AcDbVertex
100
AcDb2dVertex
 10
574.087890625
 20
902.470703125
 30
0.0
  0
VERTEX
  5
7E5
330
7E3
100
AcDbEntity
  8
Ebene 1
370
     0
100
AcDbVertex
100
AcDb2dVertex
 10
575.412109375
 20
900.6171875
 30
0.0
  0
VERTEX
  5
7E6
330
7E3
100
AcDbEntity
  8
Ebene 1
370
     0
100
AcDbVertex
100
AcDb2dVertex
 10
569.1474609375
 20
897.4853515625
 30
0.0
  0
VERTEX
  5
7E7
330
7E3
100
AcDbEntity
  8
Ebene 1
370
     0
100
AcDbVertex
100
AcDb2dVertex
 10
574.087890625
 20
902.470703125
 30
0.0
  0
SEQEND
  5
7E8
330
7E3
100
AcDbEntity
  8
Ebene 1
370
     0
  0
HATCH
  5
7E9
330
3C
100
AcDbEntity
  8
Ebene 1
 62
   251
420
  6710886
100
AcDbHatch
 10
0.0
 20
0.0
 30
0.0
210
0.0
220
0.0
230
1.0
  2
SOLID
 70
     1
 71
     0
 91
        1
 92
        1
 93
        3
 72
     1
 10
574.087890625
 20
902.470703125
 11
575.412109375
 21
900.6171875
 72
     1
 10
575.412109375
 20
900.6171875
 11
569.1474609375
 21
897.4853515625
 72
     1
 10
569.1474609375
 20
897.4853515625
 11
574.087890625
 21
902.470703125
 97
        0
 75
     0
 76
     1
 98
        0
  0
POLYLINE
  5
7EA
330
3C
100
AcDbEntity
  8
Ebene 1
370
     0
100
AcDb2dPolyline
 66
     1
 10
0.0
 20
0.0
 30
0.0
  0
VERTEX
  5
7EB
330
7EA
100
AcDbEntity
  8
Ebene 1
370
     0
100
AcDbVertex
100
AcDb2dVertex
 10
587.94140625
 20
924.75
 30
0.0
  0
VERTEX
  5
7EC
330
7EA
100
AcDbEntity
  8
Ebene 1
370
     0
100
AcDbVertex
100
AcDb2dVertex
 10
588.6025390625
 20
918.3974609375
 30
0.0
  0
VERTEX
  5
7ED
330
7EA
100
AcDbEntity
  8
Ebene 1
370
     0
100
AcDbVertex
100
AcDb2dVertex
 10
592.44140625
 20
921.1767578125
 30
0.0
  0
SEQEND
  5
7EE
330
7EA
100
AcDbEntity
  8
Ebene 1
370
     0
  0
POLYLINE
  5
7EF
330
3C
100
AcDbEntity
  8
Ebene 1
370
     0
100
AcDb2dPolyline
 66
     1
 10
0.0
 20
0.0
 30
0.0
  0
VERTEX
  5
7F0
330
7EF
100
AcDbEntity
  8
Ebene 1
370
     0
100
AcDbVertex
100
AcDb2dVertex
 10
587.94140625
 20
924.75
 30
0.0
  0
VERTEX
  5
7F1
330
7EF
100
AcDbEntity
  8
Ebene 1
370
     0
100
AcDbVertex
100
AcDb2dVertex
 10
592.7939453125
 20
918.0439453125
 30
0.0
  0
SEQEND
  5
7F2
330
7EF
100
AcDbEntity
  8
Ebene 1
370
     0
  0
POLYLINE
  5
7F3
330
3C
100
AcDbEntity
  8
Ebene 1
370
     0
100
AcDb2dPolyline
 66
     1
 10
0.0
 20
0.0
 30
0.0
  0
VERTEX
  5
7F4
330
7F3
100
AcDbEntity
  8
Ebene 1
370
     0
100
AcDbVertex
100
AcDb2dVertex
 10
592.087890625
 20
924.3525390625
 30
0.0
  0
VERTEX
  5
7F5
330
7F3
100
AcDbEntity
  8
Ebene 1
370
     0
100
AcDbVertex
100
AcDb2dVertex
 10
598.1767578125
 20
921.9267578125
 30
0.0
  0
SEQEND
  5
7F6
330
7F3
100
AcDbEntity
  8
Ebene 1
370
     0
  0
POLYLINE
  5
7F7
330
3C
100
AcDbEntity
  8
Ebene 1
370
     0
100
AcDb2dPolyline
 66
     1
 10
0.0
 20
0.0
 30
0.0
  0
VERTEX
  5
7F8
330
7F7
100
AcDbEntity
  8
Ebene 1
370
     0
100
AcDbVertex
100
AcDb2dVertex
 10
594.912109375
 20
926.3828125
 30
0.0
  0
VERTEX
  5
7F9
330
7F7
100
AcDbEntity
  8
Ebene 1
370
     0
100
AcDbVertex
100
AcDb2dVertex
 10
595.3525390625
 20
919.8974609375
 30
0.0
  0
SEQEND
  5
7FA
330
7F7
100
AcDbEntity
  8
Ebene 1
370
     0
  0
POLYLINE
  5
7FB
330
3C
100
AcDbEntity
  8
Ebene 1
370
     0
100
AcDb2dPolyline
 66
     1
 10
0.0
 20
0.0
 30
0.0
  0
VERTEX
  5
7FC
330
7FB
100
AcDbEntity
  8
Ebene 1
370
     0
100
AcDbVertex
100
AcDb2dVertex
 10
602.412109375
 20
933.30859375
 30
0.0
  0
VERTEX
  5
7FD
330
7FB
100
AcDbEntity
  8
Ebene 1
370
     0
100
AcDbVertex
100
AcDb2dVertex
 10
602.1474609375
 20
932.60302734375
 30
0.0
  0
VERTEX
  5
7FE
330
7FB
100
AcDbEntity
  8
Ebene 1
370
     0
100
AcDbVertex
100
AcDb2dVertex
 10
602.1025390625
 20
931.587890625
 30
0.0
  0
VERTEX
  5
7FF
330
7FB
100
AcDbEntity
  8
Ebene 1
370
     0
100
AcDbVertex
100
AcDb2dVertex
 10
602.5439453125
 20
930.44140625
 30
0.0
  0
VERTEX
  5
800
330
7FB
100
AcDbEntity
  8
Ebene 1
370
     0
100
AcDbVertex
100
AcDb2dVertex
 10
602.9853515625
 20
929.8232421875
 30
0.0
  0
VERTEX
  5
801
330
7FB
100
AcDbEntity
  8
Ebene 1
370
     0
100
AcDbVertex
100
AcDb2dVertex
 10
603.9560546875
 20
929.029296875
 30
0.0
  0
VERTEX
  5
802
330
7FB
100
AcDbEntity
  8
Ebene 1
370
     0
100
AcDbVertex
100
AcDb2dVertex
 10
604.9267578125
 20
928.7646484375
 30
0.0
  0
VERTEX
  5
803
330
7FB
100
AcDbEntity
  8
Ebene 1
370
     0
100
AcDbVertex
100
AcDb2dVertex
 10
605.6767578125
 20
928.80859375
 30
0.0
  0
VERTEX
  5
804
330
7FB
100
AcDbEntity
  8
Ebene 1
370
     0
100
AcDbVertex
100
AcDb2dVertex
 10
606.4267578125
 20
929.3828125
 30
0.0
  0
VERTEX
  5
805
330
7FB
100
AcDbEntity
  8
Ebene 1
370
     0
100
AcDbVertex
100
AcDb2dVertex
 10
606.7353515625
 20
930.0439453125
 30
0.0
  0
VERTEX
  5
806
330
7FB
100
AcDbEntity
  8
Ebene 1
370
     0
100
AcDbVertex
100
AcDb2dVertex
 10
606.779296875
 20
931.05859375
 30
0.0
  0
VERTEX
  5
807
330
7FB
100
AcDbEntity
  8
Ebene 1
370
     0
100
AcDbVertex
100
AcDb2dVertex
 10
606.337890625
 20
932.2060546875
 30
0.0
  0
VERTEX
  5
808
330
7FB
100
AcDbEntity
  8
Ebene 1
370
     0
100
AcDbVertex
100
AcDb2dVertex
 10
605.8525390625
 20
932.86767578125
 30
0.0
  0
VERTEX
  5
809
330
7FB
100
AcDbEntity
  8
Ebene 1
370
     0
100
AcDbVertex
100
AcDb2dVertex
 10
604.9267578125
 20
933.61767578125
 30
0.0
  0
VERTEX
  5
80A
330
7FB
100
AcDbEntity
  8
Ebene 1
370
     0
100
AcDbVertex
100
AcDb2dVertex
 10
603.9560546875
 20
933.88232421875
 30
0.0
  0
VERTEX
  5
80B
330
7FB
100
AcDbEntity
  8
Ebene 1
370
     0
100
AcDbVertex
100
AcDb2dVertex
 10
603.2060546875
 20
933.83837890625
 30
0.0
  0
VERTEX
  5
80C
330
7FB
100
AcDbEntity
  8
Ebene 1
370
     0
100
AcDbVertex
100
AcDb2dVertex
 10
602.412109375
 20
933.30859375
 30
0.0
  0
VERTEX
  5
80D
330
7FB
100
AcDbEntity
  8
Ebene 1
370
     0
100
AcDbVertex
100
AcDb2dVertex
 10
602.412109375
 20
933.30859375
 30
0.0
  0
SEQEND
  5
80E
330
7FB
100
AcDbEntity
  8
Ebene 1
370
     0
  0
POLYLINE
  5
80F
330
3C
100
AcDbEntity
  8
Ebene 1
370
     0
100
AcDb2dPolyline
 66
     1
 10
0.0
 20
0.0
 30
0.0
  0
VERTEX
  5
810
330
80F
100
AcDbEntity
  8
Ebene 1
370
     0
100
AcDbVertex
100
AcDb2dVertex
 10
603.25
 20
935.38232421875
 30
0.0
  0
VERTEX
  5
811
330
80F
100
AcDbEntity
  8
Ebene 1
370
     0
100
AcDbVertex
100
AcDb2dVertex
 10
605.587890625
 20
927.30859375
 30
0.0
  0
SEQEND
  5
812
330
80F
100
AcDbEntity
  8
Ebene 1
370
     0
  0
POLYLINE
  5
813
330
3C
100
AcDbEntity
  8
Ebene 1
370
     0
100
AcDb2dPolyline
 66
     1
 10
0.0
 20
0.0
 30
0.0
  0
VERTEX
  5
814
330
813
100
AcDbEntity
  8
Ebene 1
370
     0
100
AcDbVertex
100
AcDb2dVertex
 10
608.1474609375
 20
939.39697265625
 30
0.0
  0
VERTEX
  5
815
330
813
100
AcDbEntity
  8
Ebene 1
370
     0
100
AcDbVertex
100
AcDb2dVertex
 10
605.587890625
 20
937.5439453125
 30
0.0
  0
VERTEX
  5
816
330
813
100
AcDbEntity
  8
Ebene 1
370
     0
100
AcDbVertex
100
AcDb2dVertex
 10
607.44140625
 20
934.4560546875
 30
0.0
  0
VERTEX
  5
817
330
813
100
AcDbEntity
  8
Ebene 1
370
     0
100
AcDbVertex
100
AcDb2dVertex
 10
607.44140625
 20
934.9853515625
 30
0.0
  0
VERTEX
  5
818
330
813
100
AcDbEntity
  8
Ebene 1
370
     0
100
AcDbVertex
100
AcDb2dVertex
 10
607.970703125
 20
935.86767578125
 30
0.0
  0
VERTEX
  5
819
330
813
100
AcDbEntity
  8
Ebene 1
370
     0
100
AcDbVertex
100
AcDb2dVertex
 10
608.7646484375
 20
936.39697265625
 30
0.0
  0
VERTEX
  5
81A
330
813
100
AcDbEntity
  8
Ebene 1
370
     0
100
AcDbVertex
100
AcDb2dVertex
 10
609.7353515625
 20
936.66162109375
 30
0.0
  0
VERTEX
  5
81B
330
813
100
AcDbEntity
  8
Ebene 1
370
     0
100
AcDbVertex
100
AcDb2dVertex
 10
610.75
 20
936.39697265625
 30
0.0
  0
VERTEX
  5
81C
330
813
100
AcDbEntity
  8
Ebene 1
370
     0
100
AcDbVertex
100
AcDb2dVertex
 10
611.6767578125
 20
935.60302734375
 30
0.0
  0
VERTEX
  5
81D
330
813
100
AcDbEntity
  8
Ebene 1
370
     0
100
AcDbVertex
100
AcDb2dVertex
 10
612.162109375
 20
934.9853515625
 30
0.0
  0
VERTEX
  5
81E
330
813
100
AcDbEntity
  8
Ebene 1
370
     0
100
AcDbVertex
100
AcDb2dVertex
 10
612.6025390625
 20
933.83837890625
 30
0.0
  0
VERTEX
  5
81F
330
813
100
AcDbEntity
  8
Ebene 1
370
     0
100
AcDbVertex
100
AcDb2dVertex
 10
612.5146484375
 20
932.82373046875
 30
0.0
  0
VERTEX
  5
820
330
813
100
AcDbEntity
  8
Ebene 1
370
     0
100
AcDbVertex
100
AcDb2dVertex
 10
611.9853515625
 20
931.94140625
 30
0.0
  0
VERTEX
  5
821
330
813
100
AcDbEntity
  8
Ebene 1
370
     0
100
AcDbVertex
100
AcDb2dVertex
 10
611.2353515625
 20
931.3671875
 30
0.0
  0
VERTEX
  5
822
330
813
100
AcDbEntity
  8
Ebene 1
370
     0
100
AcDbVertex
100
AcDb2dVertex
 10
610.220703125
 20
931.1474609375
 30
0.0
  0
VERTEX
  5
823
330
813
100
AcDbEntity
  8
Ebene 1
370
     0
100
AcDbVertex
100
AcDb2dVertex
 10
609.7353515625
 20
931.279296875
 30
0.0
  0
VERTEX
  5
824
330
813
100
AcDbEntity
  8
Ebene 1
370
     0
100
AcDbVertex
100
AcDb2dVertex
 10
609.029296875
 20
931.720703125
 30
0.0
  0
SEQEND
  5
825
330
813
100
AcDbEntity
  8
Ebene 1
370
     0
  0
POLYLINE
  5
826
330
3C
100
AcDbEntity
  8
Ebene 1
370
     0
100
AcDb2dPolyline
 66
     1
 10
0.0
 20
0.0
 30
0.0
  0
VERTEX
  5
827
330
826
100
AcDbEntity
  8
Ebene 1
370
     0
100
AcDbVertex
100
AcDb2dVertex
 10
615.1171875
 20
935.16162109375
 30
0.0
  0
VERTEX
  5
828
330
826
100
AcDbEntity
  8
Ebene 1
370
     0
100
AcDbVertex
100
AcDb2dVertex
 10
615.0732421875
 20
934.67626953125
 30
0.0
  0
VERTEX
  5
829
330
826
100
AcDbEntity
  8
Ebene 1
370
     0
100
AcDbVertex
100
AcDb2dVertex
 10
615.6025390625
 20
934.5439453125
 30
0.0
  0
VERTEX
  5
82A
330
826
100
AcDbEntity
  8
Ebene 1
370
     0
100
AcDbVertex
100
AcDb2dVertex
 10
615.6025390625
 20
935.029296875
 30
0.0
  0
VERTEX
  5
82B
330
826
100
AcDbEntity
  8
Ebene 1
370
     0
100
AcDbVertex
100
AcDb2dVertex
 10
615.1171875
 20
935.16162109375
 30
0.0
  0
VERTEX
  5
82C
330
826
100
AcDbEntity
  8
Ebene 1
370
     0
100
AcDbVertex
100
AcDb2dVertex
 10
615.1171875
 20
935.16162109375
 30
0.0
  0
SEQEND
  5
82D
330
826
100
AcDbEntity
  8
Ebene 1
370
     0
  0
POLYLINE
  5
82E
330
3C
100
AcDbEntity
  8
Ebene 1
370
     0
100
AcDb2dPolyline
 66
     1
 10
0.0
 20
0.0
 30
0.0
  0
VERTEX
  5
82F
330
82E
100
AcDbEntity
  8
Ebene 1
370
     0
100
AcDbVertex
100
AcDb2dVertex
 10
-158.88232421875
 20
793.279296875
 30
0.0
  0
VERTEX
  5
830
330
82E
100
AcDbEntity
  8
Ebene 1
370
     0
100
AcDbVertex
100
AcDb2dVertex
 10
-158.88232421875
 20
793.279296875
 30
0.0
  0
SEQEND
  5
831
330
82E
100
AcDbEntity
  8
Ebene 1
370
     0
  0
POLYLINE
  5
832
330
3C
100
AcDbEntity
  8
Ebene 1
370
     0
100
AcDb2dPolyline
 66
     1
 10
0.0
 20
0.0
 30
0.0
  0
VERTEX
  5
833
330
832
100
AcDbEntity
  8
Ebene 1
370
     0
100
AcDbVertex
100
AcDb2dVertex
 10
-158.88232421875
 20
793.279296875
 30
0.0
  0
VERTEX
  5
834
330
832
100
AcDbEntity
  8
Ebene 1
370
     0
100
AcDbVertex
100
AcDb2dVertex
 10
-158.88232421875
 20
793.279296875
 30
0.0
  0
SEQEND
  5
835
330
832
100
AcDbEntity
  8
Ebene 1
370
     0
  0
POLYLINE
  5
836
330
3C
100
AcDbEntity
  8
Ebene 1
370
     0
100
AcDb2dPolyline
 66
     1
 10
0.0
 20
0.0
 30
0.0
  0
VERTEX
  5
837
330
836
100
AcDbEntity
  8
Ebene 1
370
     0
100
AcDbVertex
100
AcDb2dVertex
 10
615.8232421875
 20
944.9560546875
 30
0.0
  0
VERTEX
  5
838
330
836
100
AcDbEntity
  8
Ebene 1
370
     0
100
AcDbVertex
100
AcDb2dVertex
 10
613.2646484375
 20
943.10302734375
 30
0.0
  0
VERTEX
  5
839
330
836
100
AcDbEntity
  8
Ebene 1
370
     0
100
AcDbVertex
100
AcDb2dVertex
 10
615.1171875
 20
940.05859375
 30
0.0
  0
VERTEX
  5
83A
330
836
100
AcDbEntity
  8
Ebene 1
370
     0
100
AcDbVertex
100
AcDb2dVertex
 10
615.1171875
 20
940.5439453125
 30
0.0
  0
VERTEX
  5
83B
330
836
100
AcDbEntity
  8
Ebene 1
370
     0
100
AcDbVertex
100
AcDb2dVertex
 10
615.6474609375
 20
941.42626953125
 30
0.0
  0
VERTEX
  5
83C
330
836
100
AcDbEntity
  8
Ebene 1
370
     0
100
AcDbVertex
100
AcDb2dVertex
 10
616.44140625
 20
942.0
 30
0.0
  0
VERTEX
  5
83D
330
836
100
AcDbEntity
  8
Ebene 1
370
     0
100
AcDbVertex
100
AcDb2dVertex
 10
617.4560546875
 20
942.220703125
 30
0.0
  0
VERTEX
  5
83E
330
836
100
AcDbEntity
  8
Ebene 1
370
     0
100
AcDbVertex
100
AcDb2dVertex
 10
618.4267578125
 20
941.9560546875
 30
0.0
  0
VERTEX
  5
83F
330
836
100
AcDbEntity
  8
Ebene 1
370
     0
100
AcDbVertex
100
AcDb2dVertex
 10
619.3525390625
 20
941.16162109375
 30
0.0
  0
VERTEX
  5
840
330
836
100
AcDbEntity
  8
Ebene 1
370
     0
100
AcDbVertex
100
AcDb2dVertex
 10
619.837890625
 20
940.5439453125
 30
0.0
  0
VERTEX
  5
841
330
836
100
AcDbEntity
  8
Ebene 1
370
     0
100
AcDbVertex
100
AcDb2dVertex
 10
620.279296875
 20
939.39697265625
 30
0.0
  0
VERTEX
  5
842
330
836
100
AcDbEntity
  8
Ebene 1
370
     0
100
AcDbVertex
100
AcDb2dVertex
 10
620.2353515625
 20
938.38232421875
 30
0.0
  0
VERTEX
  5
843
330
836
100
AcDbEntity
  8
Ebene 1
370
     0
100
AcDbVertex
100
AcDb2dVertex
 10
619.662109375
 20
937.5
 30
0.0
  0
VERTEX
  5
844
330
836
100
AcDbEntity
  8
Ebene 1
370
     0
100
AcDbVertex
100
AcDb2dVertex
 10
618.912109375
 20
936.92626953125
 30
0.0
  0
VERTEX
  5
845
330
836
100
AcDbEntity
  8
Ebene 1
370
     0
100
AcDbVertex
100
AcDb2dVertex
 10
617.8974609375
 20
936.7060546875
 30
0.0
  0
VERTEX
  5
846
330
836
100
AcDbEntity
  8
Ebene 1
370
     0
100
AcDbVertex
100
AcDb2dVertex
 10
617.412109375
 20
936.83837890625
 30
0.0
  0
VERTEX
  5
847
330
836
100
AcDbEntity
  8
Ebene 1
370
     0
100
AcDbVertex
100
AcDb2dVertex
 10
616.7060546875
 20
937.279296875
 30
0.0
  0
SEQEND
  5
848
330
836
100
AcDbEntity
  8
Ebene 1
370
     0
  0
POLYLINE
  5
849
330
3C
100
AcDbEntity
  8
Ebene 1
370
     0
100
AcDb2dPolyline
 66
     1
 10
0.0
 20
0.0
 30
0.0
  0
VERTEX
  5
84A
330
849
100
AcDbEntity
  8
Ebene 1
370
     0
100
AcDbVertex
100
AcDb2dVertex
 10
402.162109375
 20
925.720703125
 30
0.0
  0
VERTEX
  5
84B
330
849
100
AcDbEntity
  8
Ebene 1
370
     0
100
AcDbVertex
100
AcDb2dVertex
 10
402.162109375
 20
881.4267578125
 30
0.0
  0
SEQEND
  5
84C
330
849
100
AcDbEntity
  8
Ebene 1
370
     0
  0
POLYLINE
  5
84D
330
3C
100
AcDbEntity
  8
Ebene 1
370
     0
100
AcDb2dPolyline
 66
     1
 10
0.0
 20
0.0
 30
0.0
  0
VERTEX
  5
84E
330
84D
100
AcDbEntity
  8
Ebene 1
370
     0
100
AcDbVertex
100
AcDb2dVertex
 10
396.603515625
 20
925.720703125
 30
0.0
  0
VERTEX
  5
84F
330
84D
100
AcDbEntity
  8
Ebene 1
370
     0
100
AcDbVertex
100
AcDb2dVertex
 10
396.603515625
 20
881.4267578125
 30
0.0
  0
SEQEND
  5
850
330
84D
100
AcDbEntity
  8
Ebene 1
370
     0
  0
POLYLINE
  5
851
330
3C
100
AcDbEntity
  8
Ebene 1
370
     0
100
AcDb2dPolyline
 66
     1
 10
0.0
 20
0.0
 30
0.0
  0
VERTEX
  5
852
330
851
100
AcDbEntity
  8
Ebene 1
370
     0
100
AcDbVertex
100
AcDb2dVertex
 10
391.087890625
 20
936.7939453125
 30
0.0
  0
VERTEX
  5
853
330
851
100
AcDbEntity
  8
Ebene 1
370
     0
100
AcDbVertex
100
AcDb2dVertex
 10
292.88232421875
 20
936.7939453125
 30
0.0
  0
SEQEND
  5
854
330
851
100
AcDbEntity
  8
Ebene 1
370
     0
  0
POLYLINE
  5
855
330
3C
100
AcDbEntity
  8
Ebene 1
370
     0
100
AcDb2dPolyline
 66
     1
 10
0.0
 20
0.0
 30
0.0
  0
VERTEX
  5
856
330
855
100
AcDbEntity
  8
Ebene 1
370
     0
100
AcDbVertex
100
AcDb2dVertex
 10
391.087890625
 20
931.2353515625
 30
0.0
  0
VERTEX
  5
857
330
855
100
AcDbEntity
  8
Ebene 1
370
     0
100
AcDbVertex
100
AcDb2dVertex
 10
292.88232421875
 20
931.2353515625
 30
0.0
  0
SEQEND
  5
858
330
855
100
AcDbEntity
  8
Ebene 1
370
     0
  0
POLYLINE
  5
859
330
3C
100
AcDbEntity
  8
Ebene 1
370
     0
100
AcDb2dPolyline
 66
     1
 10
0.0
 20
0.0
 30
0.0
  0
VERTEX
  5
85A
330
859
100
AcDbEntity
  8
Ebene 1
370
     0
100
AcDbVertex
100
AcDb2dVertex
 10
396.603515625
 20
925.720703125
 30
0.0
  0
VERTEX
  5
85B
330
859
100
AcDbEntity
  8
Ebene 1
370
     0
100
AcDbVertex
100
AcDb2dVertex
 10
396.55859375
 20
926.5146484375
 30
0.0
  0
VERTEX
  5
85C
330
859
100
AcDbEntity
  8
Ebene 1
370
     0
100
AcDbVertex
100
AcDb2dVertex
 10
396.3828125
 20
927.2646484375
 30
0.0
  0
VERTEX
  5
85D
330
859
100
AcDbEntity
  8
Ebene 1
370
     0
100
AcDbVertex
100
AcDb2dVertex
 10
396.1171875
 20
928.0146484375
 30
0.0
  0
VERTEX
  5
85E
330
859
100
AcDbEntity
  8
Ebene 1
370
     0
100
AcDbVertex
100
AcDb2dVertex
 10
395.720703125
 20
928.720703125
 30
0.0
  0
VERTEX
  5
85F
330
859
100
AcDbEntity
  8
Ebene 1
370
     0
100
AcDbVertex
100
AcDb2dVertex
 10
395.2353515625
 20
929.337890625
 30
0.0
  0
VERTEX
  5
860
330
859
100
AcDbEntity
  8
Ebene 1
370
     0
100
AcDbVertex
100
AcDb2dVertex
 10
394.7060546875
 20
929.8671875
 30
0.0
  0
VERTEX
  5
861
330
859
100
AcDbEntity
  8
Ebene 1
370
     0
100
AcDbVertex
100
AcDb2dVertex
 10
394.087890625
 20
930.3525390625
 30
0.0
  0
VERTEX
  5
862
330
859
100
AcDbEntity
  8
Ebene 1
370
     0
100
AcDbVertex
100
AcDb2dVertex
 10
393.3828125
 20
930.75
 30
0.0
  0
VERTEX
  5
863
330
859
100
AcDbEntity
  8
Ebene 1
370
     0
100
AcDbVertex
100
AcDb2dVertex
 10
392.6328125
 20
931.0146484375
 30
0.0
  0
VERTEX
  5
864
330
859
100
AcDbEntity
  8
Ebene 1
370
     0
100
AcDbVertex
100
AcDb2dVertex
 10
391.8828125
 20
931.19140625
 30
0.0
  0
VERTEX
  5
865
330
859
100
AcDbEntity
  8
Ebene 1
370
     0
100
AcDbVertex
100
AcDb2dVertex
 10
391.087890625
 20
931.2353515625
 30
0.0
  0
SEQEND
  5
866
330
859
100
AcDbEntity
  8
Ebene 1
370
     0
  0
POLYLINE
  5
867
330
3C
100
AcDbEntity
  8
Ebene 1
370
     0
100
AcDb2dPolyline
 66
     1
 10
0.0
 20
0.0
 30
0.0
  0
VERTEX
  5
868
330
867
100
AcDbEntity
  8
Ebene 1
370
     0
100
AcDbVertex
100
AcDb2dVertex
 10
402.1171875
 20
925.720703125
 30
0.0
  0
VERTEX
  5
869
330
867
100
AcDbEntity
  8
Ebene 1
370
     0
100
AcDbVertex
100
AcDb2dVertex
 10
402.07421875
 20
926.8671875
 30
0.0
  0
VERTEX
  5
86A
330
867
100
AcDbEntity
  8
Ebene 1
370
     0
100
AcDbVertex
100
AcDb2dVertex
 10
401.896484375
 20
928.0146484375
 30
0.0
  0
VERTEX
  5
86B
330
867
100
AcDbEntity
  8
Ebene 1
370
     0
100
AcDbVertex
100
AcDb2dVertex
 10
401.587890625
 20
929.1171875
 30
0.0
  0
VERTEX
  5
86C
330
867
100
AcDbEntity
  8
Ebene 1
370
     0
100
AcDbVertex
100
AcDb2dVertex
 10
401.146484375
 20
930.220703125
 30
0.0
  0
VERTEX
  5
86D
330
867
100
AcDbEntity
  8
Ebene 1
370
     0
100
AcDbVertex
100
AcDb2dVertex
 10
400.662109375
 20
931.2353515625
 30
0.0
  0
VERTEX
  5
86E
330
867
100
AcDbEntity
  8
Ebene 1
370
     0
100
AcDbVertex
100
AcDb2dVertex
 10
400.0
 20
932.2060546875
 30
0.0
  0
VERTEX
  5
86F
330
867
100
AcDbEntity
  8
Ebene 1
370
     0
100
AcDbVertex
100
AcDb2dVertex
 10
399.2939453125
 20
933.08837890625
 30
0.0
  0
VERTEX
  5
870
330
867
100
AcDbEntity
  8
Ebene 1
370
     0
100
AcDbVertex
100
AcDb2dVertex
 10
398.4560546875
 20
933.92626953125
 30
0.0
  0
VERTEX
  5
871
330
867
100
AcDbEntity
  8
Ebene 1
370
     0
100
AcDbVertex
100
AcDb2dVertex
 10
397.57421875
 20
934.63232421875
 30
0.0
  0
VERTEX
  5
872
330
867
100
AcDbEntity
  8
Ebene 1
370
     0
100
AcDbVertex
100
AcDb2dVertex
 10
396.603515625
 20
935.2939453125
 30
0.0
  0
VERTEX
  5
873
330
867
100
AcDbEntity
  8
Ebene 1
370
     0
100
AcDbVertex
100
AcDb2dVertex
 10
395.587890625
 20
935.779296875
 30
0.0
  0
VERTEX
  5
874
330
867
100
AcDbEntity
  8
Ebene 1
370
     0
100
AcDbVertex
100
AcDb2dVertex
 10
394.4853515625
 20
936.220703125
 30
0.0
  0
VERTEX
  5
875
330
867
100
AcDbEntity
  8
Ebene 1
370
     0
100
AcDbVertex
100
AcDb2dVertex
 10
393.3828125
 20
936.529296875
 30
0.0
  0
VERTEX
  5
876
330
867
100
AcDbEntity
  8
Ebene 1
370
     0
100
AcDbVertex
100
AcDb2dVertex
 10
392.2353515625
 20
936.7060546875
 30
0.0
  0
VERTEX
  5
877
330
867
100
AcDbEntity
  8
Ebene 1
370
     0
100
AcDbVertex
100
AcDb2dVertex
 10
391.087890625
 20
936.75
 30
0.0
  0
SEQEND
  5
878
330
867
100
AcDbEntity
  8
Ebene 1
370
     0
  0
POLYLINE
  5
879
330
3C
100
AcDbEntity
  8
Ebene 1
370
     0
100
AcDb2dPolyline
 66
     1
 10
0.0
 20
0.0
 30
0.0
  0
VERTEX
  5
87A
330
879
100
AcDbEntity
  8
Ebene 1
370
     0
100
AcDbVertex
100
AcDb2dVertex
 10
287.36767578125
 20
942.30859375
 30
0.0
  0
VERTEX
  5
87B
330
879
100
AcDbEntity
  8
Ebene 1
370
     0
100
AcDbVertex
100
AcDb2dVertex
 10
287.36767578125
 20
961.0146484375
 30
0.0
  0
SEQEND
  5
87C
330
879
100
AcDbEntity
  8
Ebene 1
370
     0
  0
POLYLINE
  5
87D
330
3C
100
AcDbEntity
  8
Ebene 1
370
     0
100
AcDb2dPolyline
 66
     1
 10
0.0
 20
0.0
 30
0.0
  0
VERTEX
  5
87E
330
87D
100
AcDbEntity
  8
Ebene 1
370
     0
100
AcDbVertex
100
AcDb2dVertex
 10
281.80859375
 20
942.30859375
 30
0.0
  0
VERTEX
  5
87F
330
87D
100
AcDbEntity
  8
Ebene 1
370
     0
100
AcDbVertex
100
AcDb2dVertex
 10
281.80859375
 20
961.0146484375
 30
0.0
  0
SEQEND
  5
880
330
87D
100
AcDbEntity
  8
Ebene 1
370
     0
  0
POLYLINE
  5
881
330
3C
100
AcDbEntity
  8
Ebene 1
370
     0
100
AcDb2dPolyline
 66
     1
 10
0.0
 20
0.0
 30
0.0
  0
VERTEX
  5
882
330
881
100
AcDbEntity
  8
Ebene 1
370
     0
100
AcDbVertex
100
AcDb2dVertex
 10
287.36767578125
 20
942.30859375
 30
0.0
  0
VERTEX
  5
883
330
881
100
AcDbEntity
  8
Ebene 1
370
     0
100
AcDbVertex
100
AcDb2dVertex
 10
287.41162109375
 20
941.5146484375
 30
0.0
  0
VERTEX
  5
884
330
881
100
AcDbEntity
  8
Ebene 1
370
     0
100
AcDbVertex
100
AcDb2dVertex
 10
287.58837890625
 20
940.7646484375
 30
0.0
  0
VERTEX
  5
885
330
881
100
AcDbEntity
  8
Ebene 1
370
     0
100
AcDbVertex
100
AcDb2dVertex
 10
287.85302734375
 20
940.0146484375
 30
0.0
  0
VERTEX
  5
886
330
881
100
AcDbEntity
  8
Ebene 1
370
     0
100
AcDbVertex
100
AcDb2dVertex
 10
288.25
 20
939.30859375
 30
0.0
  0
VERTEX
  5
887
330
881
100
AcDbEntity
  8
Ebene 1
370
     0
100
AcDbVertex
100
AcDb2dVertex
 10
288.7353515625
 20
938.69140625
 30
0.0
  0
VERTEX
  5
888
330
881
100
AcDbEntity
  8
Ebene 1
370
     0
100
AcDbVertex
100
AcDb2dVertex
 10
289.2646484375
 20
938.16162109375
 30
0.0
  0
VERTEX
  5
889
330
881
100
AcDbEntity
  8
Ebene 1
370
     0
100
AcDbVertex
100
AcDb2dVertex
 10
289.88232421875
 20
937.67626953125
 30
0.0
  0
VERTEX
  5
88A
330
881
100
AcDbEntity
  8
Ebene 1
370
     0
100
AcDbVertex
100
AcDb2dVertex
 10
290.58837890625
 20
937.279296875
 30
0.0
  0
VERTEX
  5
88B
330
881
100
AcDbEntity
  8
Ebene 1
370
     0
100
AcDbVertex
100
AcDb2dVertex
 10
291.33837890625
 20
937.0146484375
 30
0.0
  0
VERTEX
  5
88C
330
881
100
AcDbEntity
  8
Ebene 1
370
     0
100
AcDbVertex
100
AcDb2dVertex
 10
292.08837890625
 20
936.83837890625
 30
0.0
  0
VERTEX
  5
88D
330
881
100
AcDbEntity
  8
Ebene 1
370
     0
100
AcDbVertex
100
AcDb2dVertex
 10
292.88232421875
 20
936.7939453125
 30
0.0
  0
SEQEND
  5
88E
330
881
100
AcDbEntity
  8
Ebene 1
370
     0
  0
POLYLINE
  5
88F
330
3C
100
AcDbEntity
  8
Ebene 1
370
     0
100
AcDb2dPolyline
 66
     1
 10
0.0
 20
0.0
 30
0.0
  0
VERTEX
  5
890
330
88F
100
AcDbEntity
  8
Ebene 1
370
     0
100
AcDbVertex
100
AcDb2dVertex
 10
281.85302734375
 20
942.30859375
 30
0.0
  0
VERTEX
  5
891
330
88F
100
AcDbEntity
  8
Ebene 1
370
     0
100
AcDbVertex
100
AcDb2dVertex
 10
281.89697265625
 20
941.16162109375
 30
0.0
  0
VERTEX
  5
892
330
88F
100
AcDbEntity
  8
Ebene 1
370
     0
100
AcDbVertex
100
AcDb2dVertex
 10
282.07373046875
 20
940.0146484375
 30
0.0
  0
VERTEX
  5
893
330
88F
100
AcDbEntity
  8
Ebene 1
370
     0
100
AcDbVertex
100
AcDb2dVertex
 10
282.38232421875
 20
938.91162109375
 30
0.0
  0
VERTEX
  5
894
330
88F
100
AcDbEntity
  8
Ebene 1
370
     0
100
AcDbVertex
100
AcDb2dVertex
 10
282.82373046875
 20
937.80859375
 30
0.0
  0
VERTEX
  5
895
330
88F
100
AcDbEntity
  8
Ebene 1
370
     0
100
AcDbVertex
100
AcDb2dVertex
 10
283.30859375
 20
936.7939453125
 30
0.0
  0
VERTEX
  5
896
330
88F
100
AcDbEntity
  8
Ebene 1
370
     0
100
AcDbVertex
100
AcDb2dVertex
 10
283.970703125
 20
935.82373046875
 30
0.0
  0
VERTEX
  5
897
330
88F
100
AcDbEntity
  8
Ebene 1
370
     0
100
AcDbVertex
100
AcDb2dVertex
 10
284.67626953125
 20
934.94140625
 30
0.0
  0
VERTEX
  5
898
330
88F
100
AcDbEntity
  8
Ebene 1
370
     0
100
AcDbVertex
100
AcDb2dVertex
 10
285.5146484375
 20
934.10302734375
 30
0.0
  0
VERTEX
  5
899
330
88F
100
AcDbEntity
  8
Ebene 1
370
     0
100
AcDbVertex
100
AcDb2dVertex
 10
286.39697265625
 20
933.39697265625
 30
0.0
  0
VERTEX
  5
89A
330
88F
100
AcDbEntity
  8
Ebene 1
370
     0
100
AcDbVertex
100
AcDb2dVertex
 10
287.36767578125
 20
932.7353515625
 30
0.0
  0
VERTEX
  5
89B
330
88F
100
AcDbEntity
  8
Ebene 1
370
     0
100
AcDbVertex
100
AcDb2dVertex
 10
288.38232421875
 20
932.25
 30
0.0
  0
VERTEX
  5
89C
330
88F
100
AcDbEntity
  8
Ebene 1
370
     0
100
AcDbVertex
100
AcDb2dVertex
 10
289.4853515625
 20
931.80859375
 30
0.0
  0
VERTEX
  5
89D
330
88F
100
AcDbEntity
  8
Ebene 1
370
     0
100
AcDbVertex
100
AcDb2dVertex
 10
290.58837890625
 20
931.5
 30
0.0
  0
VERTEX
  5
89E
330
88F
100
AcDbEntity
  8
Ebene 1
370
     0
100
AcDbVertex
100
AcDb2dVertex
 10
291.7353515625
 20
931.3232421875
 30
0.0
  0
VERTEX
  5
89F
330
88F
100
AcDbEntity
  8
Ebene 1
370
     0
100
AcDbVertex
100
AcDb2dVertex
 10
292.88232421875
 20
931.279296875
 30
0.0
  0
SEQEND
  5
8A0
330
88F
100
AcDbEntity
  8
Ebene 1
370
     0
  0
POLYLINE
  5
8A1
330
3C
100
AcDbEntity
  8
Ebene 1
370
     0
100
AcDb2dPolyline
 66
     1
 10
0.0
 20
0.0
 30
0.0
  0
VERTEX
  5
8A2
330
8A1
100
AcDbEntity
  8
Ebene 1
370
     0
100
AcDbVertex
100
AcDb2dVertex
 10
402.162109375
 20
891.5732421875
 30
0.0
  0
VERTEX
  5
8A3
330
8A1
100
AcDbEntity
  8
Ebene 1
370
     0
100
AcDbVertex
100
AcDb2dVertex
 10
396.603515625
 20
891.5732421875
 30
0.0
  0
SEQEND
  5
8A4
330
8A1
100
AcDbEntity
  8
Ebene 1
370
     0
  0
POLYLINE
  5
8A5
330
3C
100
AcDbEntity
  8
Ebene 1
370
     0
100
AcDb2dPolyline
 66
     1
 10
0.0
 20
0.0
 30
0.0
  0
VERTEX
  5
8A6
330
8A5
100
AcDbEntity
  8
Ebene 1
370
     0
100
AcDbVertex
100
AcDb2dVertex
 10
402.162109375
 20
898.94140625
 30
0.0
  0
VERTEX
  5
8A7
330
8A5
100
AcDbEntity
  8
Ebene 1
370
     0
100
AcDbVertex
100
AcDb2dVertex
 10
396.603515625
 20
898.94140625
 30
0.0
  0
SEQEND
  5
8A8
330
8A5
100
AcDbEntity
  8
Ebene 1
370
     0
  0
POLYLINE
  5
8A9
330
3C
100
AcDbEntity
  8
Ebene 1
370
     0
100
AcDb2dPolyline
 66
     1
 10
0.0
 20
0.0
 30
0.0
  0
VERTEX
  5
8AA
330
8A9
100
AcDbEntity
  8
Ebene 1
370
     0
100
AcDbVertex
100
AcDb2dVertex
 10
402.162109375
 20
915.1328125
 30
0.0
  0
VERTEX
  5
8AB
330
8A9
100
AcDbEntity
  8
Ebene 1
370
     0
100
AcDbVertex
100
AcDb2dVertex
 10
396.603515625
 20
915.1328125
 30
0.0
  0
SEQEND
  5
8AC
330
8A9
100
AcDbEntity
  8
Ebene 1
370
     0
  0
POLYLINE
  5
8AD
330
3C
100
AcDbEntity
  8
Ebene 1
370
     0
100
AcDb2dPolyline
 66
     1
 10
0.0
 20
0.0
 30
0.0
  0
VERTEX
  5
8AE
330
8AD
100
AcDbEntity
  8
Ebene 1
370
     0
100
AcDbVertex
100
AcDb2dVertex
 10
402.162109375
 20
922.4560546875
 30
0.0
  0
VERTEX
  5
8AF
330
8AD
100
AcDbEntity
  8
Ebene 1
370
     0
100
AcDbVertex
100
AcDb2dVertex
 10
396.603515625
 20
922.4560546875
 30
0.0
  0
SEQEND
  5
8B0
330
8AD
100
AcDbEntity
  8
Ebene 1
370
     0
  0
POLYLINE
  5
8B1
330
3C
100
AcDbEntity
  8
Ebene 1
370
     0
100
AcDb2dPolyline
 66
     1
 10
0.0
 20
0.0
 30
0.0
  0
VERTEX
  5
8B2
330
8B1
100
AcDbEntity
  8
Ebene 1
370
     0
100
AcDbVertex
100
AcDb2dVertex
 10
402.162109375
 20
881.4267578125
 30
0.0
  0
VERTEX
  5
8B3
330
8B1
100
AcDbEntity
  8
Ebene 1
370
     0
100
AcDbVertex
100
AcDb2dVertex
 10
396.603515625
 20
881.4267578125
 30
0.0
  0
SEQEND
  5
8B4
330
8B1
100
AcDbEntity
  8
Ebene 1
370
     0
  0
POLYLINE
  5
8B5
330
3C
100
AcDbEntity
  8
Ebene 1
370
     0
100
AcDb2dPolyline
 66
     1
 10
0.0
 20
0.0
 30
0.0
  0
VERTEX
  5
8B6
330
8B5
100
AcDbEntity
  8
Ebene 1
370
     0
100
AcDbVertex
100
AcDb2dVertex
 10
409.44140625
 20
918.7939453125
 30
0.0
  0
VERTEX
  5
8B7
330
8B5
100
AcDbEntity
  8
Ebene 1
370
     0
100
AcDbVertex
100
AcDb2dVertex
 10
409.0439453125
 20
918.7939453125
 30
0.0
  0
SEQEND
  5
8B8
330
8B5
100
AcDbEntity
  8
Ebene 1
370
     0
  0
POLYLINE
  5
8B9
330
3C
100
AcDbEntity
  8
Ebene 1
370
     0
100
AcDb2dPolyline
 66
     1
 10
0.0
 20
0.0
 30
0.0
  0
VERTEX
  5
8BA
330
8B9
100
AcDbEntity
  8
Ebene 1
370
     0
100
AcDbVertex
100
AcDb2dVertex
 10
408.8671875
 20
918.7939453125
 30
0.0
  0
VERTEX
  5
8BB
330
8B9
100
AcDbEntity
  8
Ebene 1
370
     0
100
AcDbVertex
100
AcDb2dVertex
 10
408.5146484375
 20
918.7939453125
 30
0.0
  0
SEQEND
  5
8BC
330
8B9
100
AcDbEntity
  8
Ebene 1
370
     0
  0
POLYLINE
  5
8BD
330
3C
100
AcDbEntity
  8
Ebene 1
370
     0
100
AcDb2dPolyline
 66
     1
 10
0.0
 20
0.0
 30
0.0
  0
VERTEX
  5
8BE
330
8BD
100
AcDbEntity
  8
Ebene 1
370
     0
100
AcDbVertex
100
AcDb2dVertex
 10
408.337890625
 20
918.7939453125
 30
0.0
  0
VERTEX
  5
8BF
330
8BD
100
AcDbEntity
  8
Ebene 1
370
     0
100
AcDbVertex
100
AcDb2dVertex
 10
408.029296875
 20
918.7939453125
 30
0.0
  0
SEQEND
  5
8C0
330
8BD
100
AcDbEntity
  8
Ebene 1
370
     0
  0
POLYLINE
  5
8C1
330
3C
100
AcDbEntity
  8
Ebene 1
370
     0
100
AcDb2dPolyline
 66
     1
 10
0.0
 20
0.0
 30
0.0
  0
VERTEX
  5
8C2
330
8C1
100
AcDbEntity
  8
Ebene 1
370
     0
100
AcDbVertex
100
AcDb2dVertex
 10
407.853515625
 20
918.7939453125
 30
0.0
  0
VERTEX
  5
8C3
330
8C1
100
AcDbEntity
  8
Ebene 1
370
     0
100
AcDbVertex
100
AcDb2dVertex
 10
407.5
 20
918.7939453125
 30
0.0
  0
SEQEND
  5
8C4
330
8C1
100
AcDbEntity
  8
Ebene 1
370
     0
  0
POLYLINE
  5
8C5
330
3C
100
AcDbEntity
  8
Ebene 1
370
     0
100
AcDb2dPolyline
 66
     1
 10
0.0
 20
0.0
 30
0.0
  0
VERTEX
  5
8C6
330
8C5
100
AcDbEntity
  8
Ebene 1
370
     0
100
AcDbVertex
100
AcDb2dVertex
 10
407.32421875
 20
918.7939453125
 30
0.0
  0
VERTEX
  5
8C7
330
8C5
100
AcDbEntity
  8
Ebene 1
370
     0
100
AcDbVertex
100
AcDb2dVertex
 10
406.970703125
 20
918.7939453125
 30
0.0
  0
SEQEND
  5
8C8
330
8C5
100
AcDbEntity
  8
Ebene 1
370
     0
  0
POLYLINE
  5
8C9
330
3C
100
AcDbEntity
  8
Ebene 1
370
     0
100
AcDb2dPolyline
 66
     1
 10
0.0
 20
0.0
 30
0.0
  0
VERTEX
  5
8CA
330
8C9
100
AcDbEntity
  8
Ebene 1
370
     0
100
AcDbVertex
100
AcDb2dVertex
 10
406.7939453125
 20
918.7939453125
 30
0.0
  0
VERTEX
  5
8CB
330
8C9
100
AcDbEntity
  8
Ebene 1
370
     0
100
AcDbVertex
100
AcDb2dVertex
 10
406.44140625
 20
918.7939453125
 30
0.0
  0
SEQEND
  5
8CC
330
8C9
100
AcDbEntity
  8
Ebene 1
370
     0
  0
POLYLINE
  5
8CD
330
3C
100
AcDbEntity
  8
Ebene 1
370
     0
100
AcDb2dPolyline
 66
     1
 10
0.0
 20
0.0
 30
0.0
  0
VERTEX
  5
8CE
330
8CD
100
AcDbEntity
  8
Ebene 1
370
     0
100
AcDbVertex
100
AcDb2dVertex
 10
406.2646484375
 20
918.7939453125
 30
0.0
  0
VERTEX
  5
8CF
330
8CD
100
AcDbEntity
  8
Ebene 1
370
     0
100
AcDbVertex
100
AcDb2dVertex
 10
405.912109375
 20
918.7939453125
 30
0.0
  0
SEQEND
  5
8D0
330
8CD
100
AcDbEntity
  8
Ebene 1
370
     0
  0
POLYLINE
  5
8D1
330
3C
100
AcDbEntity
  8
Ebene 1
370
     0
100
AcDb2dPolyline
 66
     1
 10
0.0
 20
0.0
 30
0.0
  0
VERTEX
  5
8D2
330
8D1
100
AcDbEntity
  8
Ebene 1
370
     0
100
AcDbVertex
100
AcDb2dVertex
 10
405.779296875
 20
918.7939453125
 30
0.0
  0
VERTEX
  5
8D3
330
8D1
100
AcDbEntity
  8
Ebene 1
370
     0
100
AcDbVertex
100
AcDb2dVertex
 10
405.42578125
 20
918.7939453125
 30
0.0
  0
SEQEND
  5
8D4
330
8D1
100
AcDbEntity
  8
Ebene 1
370
     0
  0
POLYLINE
  5
8D5
330
3C
100
AcDbEntity
  8
Ebene 1
370
     0
100
AcDb2dPolyline
 66
     1
 10
0.0
 20
0.0
 30
0.0
  0
VERTEX
  5
8D6
330
8D5
100
AcDbEntity
  8
Ebene 1
370
     0
100
AcDbVertex
100
AcDb2dVertex
 10
405.25
 20
918.7939453125
 30
0.0
  0
VERTEX
  5
8D7
330
8D5
100
AcDbEntity
  8
Ebene 1
370
     0
100
AcDbVertex
100
AcDb2dVertex
 10
404.896484375
 20
918.7939453125
 30
0.0
  0
SEQEND
  5
8D8
330
8D5
100
AcDbEntity
  8
Ebene 1
370
     0
  0
POLYLINE
  5
8D9
330
3C
100
AcDbEntity
  8
Ebene 1
370
     0
100
AcDb2dPolyline
 66
     1
 10
0.0
 20
0.0
 30
0.0
  0
VERTEX
  5
8DA
330
8D9
100
AcDbEntity
  8
Ebene 1
370
     0
100
AcDbVertex
100
AcDb2dVertex
 10
404.720703125
 20
918.7939453125
 30
0.0
  0
VERTEX
  5
8DB
330
8D9
100
AcDbEntity
  8
Ebene 1
370
     0
100
AcDbVertex
100
AcDb2dVertex
 10
404.3671875
 20
918.7939453125
 30
0.0
  0
SEQEND
  5
8DC
330
8D9
100
AcDbEntity
  8
Ebene 1
370
     0
  0
POLYLINE
  5
8DD
330
3C
100
AcDbEntity
  8
Ebene 1
370
     0
100
AcDb2dPolyline
 66
     1
 10
0.0
 20
0.0
 30
0.0
  0
VERTEX
  5
8DE
330
8DD
100
AcDbEntity
  8
Ebene 1
370
     0
100
AcDbVertex
100
AcDb2dVertex
 10
404.19140625
 20
918.7939453125
 30
0.0
  0
VERTEX
  5
8DF
330
8DD
100
AcDbEntity
  8
Ebene 1
370
     0
100
AcDbVertex
100
AcDb2dVertex
 10
403.837890625
 20
918.7939453125
 30
0.0
  0
SEQEND
  5
8E0
330
8DD
100
AcDbEntity
  8
Ebene 1
370
     0
  0
POLYLINE
  5
8E1
330
3C
100
AcDbEntity
  8
Ebene 1
370
     0
100
AcDb2dPolyline
 66
     1
 10
0.0
 20
0.0
 30
0.0
  0
VERTEX
  5
8E2
330
8E1
100
AcDbEntity
  8
Ebene 1
370
     0
100
AcDbVertex
100
AcDb2dVertex
 10
403.7060546875
 20
918.7939453125
 30
0.0
  0
VERTEX
  5
8E3
330
8E1
100
AcDbEntity
  8
Ebene 1
370
     0
100
AcDbVertex
100
AcDb2dVertex
 10
403.353515625
 20
918.7939453125
 30
0.0
  0
SEQEND
  5
8E4
330
8E1
100
AcDbEntity
  8
Ebene 1
370
     0
  0
POLYLINE
  5
8E5
330
3C
100
AcDbEntity
  8
Ebene 1
370
     0
100
AcDb2dPolyline
 66
     1
 10
0.0
 20
0.0
 30
0.0
  0
VERTEX
  5
8E6
330
8E5
100
AcDbEntity
  8
Ebene 1
370
     0
100
AcDbVertex
100
AcDb2dVertex
 10
403.17578125
 20
918.7939453125
 30
0.0
  0
VERTEX
  5
8E7
330
8E5
100
AcDbEntity
  8
Ebene 1
370
     0
100
AcDbVertex
100
AcDb2dVertex
 10
402.82421875
 20
918.7939453125
 30
0.0
  0
SEQEND
  5
8E8
330
8E5
100
AcDbEntity
  8
Ebene 1
370
     0
  0
POLYLINE
  5
8E9
330
3C
100
AcDbEntity
  8
Ebene 1
370
     0
100
AcDb2dPolyline
 66
     1
 10
0.0
 20
0.0
 30
0.0
  0
VERTEX
  5
8EA
330
8E9
100
AcDbEntity
  8
Ebene 1
370
     0
100
AcDbVertex
100
AcDb2dVertex
 10
402.646484375
 20
918.7939453125
 30
0.0
  0
VERTEX
  5
8EB
330
8E9
100
AcDbEntity
  8
Ebene 1
370
     0
100
AcDbVertex
100
AcDb2dVertex
 10
402.2939453125
 20
918.7939453125
 30
0.0
  0
SEQEND
  5
8EC
330
8E9
100
AcDbEntity
  8
Ebene 1
370
     0
  0
POLYLINE
  5
8ED
330
3C
100
AcDbEntity
  8
Ebene 1
370
     0
100
AcDb2dPolyline
 66
     1
 10
0.0
 20
0.0
 30
0.0
  0
VERTEX
  5
8EE
330
8ED
100
AcDbEntity
  8
Ebene 1
370
     0
100
AcDbVertex
100
AcDb2dVertex
 10
402.1171875
 20
918.7939453125
 30
0.0
  0
VERTEX
  5
8EF
330
8ED
100
AcDbEntity
  8
Ebene 1
370
     0
100
AcDbVertex
100
AcDb2dVertex
 10
401.7646484375
 20
918.7939453125
 30
0.0
  0
SEQEND
  5
8F0
330
8ED
100
AcDbEntity
  8
Ebene 1
370
     0
  0
POLYLINE
  5
8F1
330
3C
100
AcDbEntity
  8
Ebene 1
370
     0
100
AcDb2dPolyline
 66
     1
 10
0.0
 20
0.0
 30
0.0
  0
VERTEX
  5
8F2
330
8F1
100
AcDbEntity
  8
Ebene 1
370
     0
100
AcDbVertex
100
AcDb2dVertex
 10
401.6328125
 20
918.7939453125
 30
0.0
  0
VERTEX
  5
8F3
330
8F1
100
AcDbEntity
  8
Ebene 1
370
     0
100
AcDbVertex
100
AcDb2dVertex
 10
401.279296875
 20
918.7939453125
 30
0.0
  0
SEQEND
  5
8F4
330
8F1
100
AcDbEntity
  8
Ebene 1
370
     0
  0
POLYLINE
  5
8F5
330
3C
100
AcDbEntity
  8
Ebene 1
370
     0
100
AcDb2dPolyline
 66
     1
 10
0.0
 20
0.0
 30
0.0
  0
VERTEX
  5
8F6
330
8F5
100
AcDbEntity
  8
Ebene 1
370
     0
100
AcDbVertex
100
AcDb2dVertex
 10
401.103515625
 20
918.7939453125
 30
0.0
  0
VERTEX
  5
8F7
330
8F5
100
AcDbEntity
  8
Ebene 1
370
     0
100
AcDbVertex
100
AcDb2dVertex
 10
400.75
 20
918.7939453125
 30
0.0
  0
SEQEND
  5
8F8
330
8F5
100
AcDbEntity
  8
Ebene 1
370
     0
  0
POLYLINE
  5
8F9
330
3C
100
AcDbEntity
  8
Ebene 1
370
     0
100
AcDb2dPolyline
 66
     1
 10
0.0
 20
0.0
 30
0.0
  0
VERTEX
  5
8FA
330
8F9
100
AcDbEntity
  8
Ebene 1
370
     0
100
AcDbVertex
100
AcDb2dVertex
 10
400.57421875
 20
918.7939453125
 30
0.0
  0
VERTEX
  5
8FB
330
8F9
100
AcDbEntity
  8
Ebene 1
370
     0
100
AcDbVertex
100
AcDb2dVertex
 10
400.220703125
 20
918.7939453125
 30
0.0
  0
SEQEND
  5
8FC
330
8F9
100
AcDbEntity
  8
Ebene 1
370
     0
  0
POLYLINE
  5
8FD
330
3C
100
AcDbEntity
  8
Ebene 1
370
     0
100
AcDb2dPolyline
 66
     1
 10
0.0
 20
0.0
 30
0.0
  0
VERTEX
  5
8FE
330
8FD
100
AcDbEntity
  8
Ebene 1
370
     0
100
AcDbVertex
100
AcDb2dVertex
 10
400.0439453125
 20
918.7939453125
 30
0.0
  0
VERTEX
  5
8FF
330
8FD
100
AcDbEntity
  8
Ebene 1
370
     0
100
AcDbVertex
100
AcDb2dVertex
 10
399.69140625
 20
918.7939453125
 30
0.0
  0
SEQEND
  5
900
330
8FD
100
AcDbEntity
  8
Ebene 1
370
     0
  0
POLYLINE
  5
901
330
3C
100
AcDbEntity
  8
Ebene 1
370
     0
100
AcDb2dPolyline
 66
     1
 10
0.0
 20
0.0
 30
0.0
  0
VERTEX
  5
902
330
901
100
AcDbEntity
  8
Ebene 1
370
     0
100
AcDbVertex
100
AcDb2dVertex
 10
399.55859375
 20
918.7939453125
 30
0.0
  0
VERTEX
  5
903
330
901
100
AcDbEntity
  8
Ebene 1
370
     0
100
AcDbVertex
100
AcDb2dVertex
 10
399.2060546875
 20
918.7939453125
 30
0.0
  0
SEQEND
  5
904
330
901
100
AcDbEntity
  8
Ebene 1
370
     0
  0
POLYLINE
  5
905
330
3C
100
AcDbEntity
  8
Ebene 1
370
     0
100
AcDb2dPolyline
 66
     1
 10
0.0
 20
0.0
 30
0.0
  0
VERTEX
  5
906
330
905
100
AcDbEntity
  8
Ebene 1
370
     0
100
AcDbVertex
100
AcDb2dVertex
 10
399.029296875
 20
918.7939453125
 30
0.0
  0
VERTEX
  5
907
330
905
100
AcDbEntity
  8
Ebene 1
370
     0
100
AcDbVertex
100
AcDb2dVertex
 10
398.67578125
 20
918.7939453125
 30
0.0
  0
SEQEND
  5
908
330
905
100
AcDbEntity
  8
Ebene 1
370
     0
  0
POLYLINE
  5
909
330
3C
100
AcDbEntity
  8
Ebene 1
370
     0
100
AcDb2dPolyline
 66
     1
 10
0.0
 20
0.0
 30
0.0
  0
VERTEX
  5
90A
330
909
100
AcDbEntity
  8
Ebene 1
370
     0
100
AcDbVertex
100
AcDb2dVertex
 10
398.5
 20
918.7939453125
 30
0.0
  0
VERTEX
  5
90B
330
909
100
AcDbEntity
  8
Ebene 1
370
     0
100
AcDbVertex
100
AcDb2dVertex
 10
398.146484375
 20
918.7939453125
 30
0.0
  0
SEQEND
  5
90C
330
909
100
AcDbEntity
  8
Ebene 1
370
     0
  0
POLYLINE
  5
90D
330
3C
100
AcDbEntity
  8
Ebene 1
370
     0
100
AcDb2dPolyline
 66
     1
 10
0.0
 20
0.0
 30
0.0
  0
VERTEX
  5
90E
330
90D
100
AcDbEntity
  8
Ebene 1
370
     0
100
AcDbVertex
100
AcDb2dVertex
 10
397.970703125
 20
918.7939453125
 30
0.0
  0
VERTEX
  5
90F
330
90D
100
AcDbEntity
  8
Ebene 1
370
     0
100
AcDbVertex
100
AcDb2dVertex
 10
397.6171875
 20
918.7939453125
 30
0.0
  0
SEQEND
  5
910
330
90D
100
AcDbEntity
  8
Ebene 1
370
     0
  0
POLYLINE
  5
911
330
3C
100
AcDbEntity
  8
Ebene 1
370
     0
100
AcDb2dPolyline
 66
     1
 10
0.0
 20
0.0
 30
0.0
  0
VERTEX
  5
912
330
911
100
AcDbEntity
  8
Ebene 1
370
     0
100
AcDbVertex
100
AcDb2dVertex
 10
397.44140625
 20
918.7939453125
 30
0.0
  0
VERTEX
  5
913
330
911
100
AcDbEntity
  8
Ebene 1
370
     0
100
AcDbVertex
100
AcDb2dVertex
 10
397.1328125
 20
918.7939453125
 30
0.0
  0
SEQEND
  5
914
330
911
100
AcDbEntity
  8
Ebene 1
370
     0
  0
POLYLINE
  5
915
330
3C
100
AcDbEntity
  8
Ebene 1
370
     0
100
AcDb2dPolyline
 66
     1
 10
0.0
 20
0.0
 30
0.0
  0
VERTEX
  5
916
330
915
100
AcDbEntity
  8
Ebene 1
370
     0
100
AcDbVertex
100
AcDb2dVertex
 10
396.9560546875
 20
918.7939453125
 30
0.0
  0
VERTEX
  5
917
330
915
100
AcDbEntity
  8
Ebene 1
370
     0
100
AcDbVertex
100
AcDb2dVertex
 10
396.603515625
 20
918.7939453125
 30
0.0
  0
SEQEND
  5
918
330
915
100
AcDbEntity
  8
Ebene 1
370
     0
  0
POLYLINE
  5
919
330
3C
100
AcDbEntity
  8
Ebene 1
370
     0
100
AcDb2dPolyline
 66
     1
 10
0.0
 20
0.0
 30
0.0
  0
VERTEX
  5
91A
330
919
100
AcDbEntity
  8
Ebene 1
370
     0
100
AcDbVertex
100
AcDb2dVertex
 10
396.42578125
 20
918.7939453125
 30
0.0
  0
VERTEX
  5
91B
330
919
100
AcDbEntity
  8
Ebene 1
370
     0
100
AcDbVertex
100
AcDb2dVertex
 10
396.07421875
 20
918.7939453125
 30
0.0
  0
SEQEND
  5
91C
330
919
100
AcDbEntity
  8
Ebene 1
370
     0
  0
POLYLINE
  5
91D
330
3C
100
AcDbEntity
  8
Ebene 1
370
     0
100
AcDb2dPolyline
 66
     1
 10
0.0
 20
0.0
 30
0.0
  0
VERTEX
  5
91E
330
91D
100
AcDbEntity
  8
Ebene 1
370
     0
100
AcDbVertex
100
AcDb2dVertex
 10
395.896484375
 20
918.7939453125
 30
0.0
  0
VERTEX
  5
91F
330
91D
100
AcDbEntity
  8
Ebene 1
370
     0
100
AcDbVertex
100
AcDb2dVertex
 10
395.5439453125
 20
918.7939453125
 30
0.0
  0
SEQEND
  5
920
330
91D
100
AcDbEntity
  8
Ebene 1
370
     0
  0
POLYLINE
  5
921
330
3C
100
AcDbEntity
  8
Ebene 1
370
     0
100
AcDb2dPolyline
 66
     1
 10
0.0
 20
0.0
 30
0.0
  0
VERTEX
  5
922
330
921
100
AcDbEntity
  8
Ebene 1
370
     0
100
AcDbVertex
100
AcDb2dVertex
 10
395.3671875
 20
918.7939453125
 30
0.0
  0
VERTEX
  5
923
330
921
100
AcDbEntity
  8
Ebene 1
370
     0
100
AcDbVertex
100
AcDb2dVertex
 10
395.05859375
 20
918.7939453125
 30
0.0
  0
SEQEND
  5
924
330
921
100
AcDbEntity
  8
Ebene 1
370
     0
  0
POLYLINE
  5
925
330
3C
100
AcDbEntity
  8
Ebene 1
370
     0
100
AcDb2dPolyline
 66
     1
 10
0.0
 20
0.0
 30
0.0
  0
VERTEX
  5
926
330
925
100
AcDbEntity
  8
Ebene 1
370
     0
100
AcDbVertex
100
AcDb2dVertex
 10
394.8828125
 20
918.7939453125
 30
0.0
  0
VERTEX
  5
927
330
925
100
AcDbEntity
  8
Ebene 1
370
     0
100
AcDbVertex
100
AcDb2dVertex
 10
394.529296875
 20
918.7939453125
 30
0.0
  0
SEQEND
  5
928
330
925
100
AcDbEntity
  8
Ebene 1
370
     0
  0
POLYLINE
  5
929
330
3C
100
AcDbEntity
  8
Ebene 1
370
     0
100
AcDb2dPolyline
 66
     1
 10
0.0
 20
0.0
 30
0.0
  0
VERTEX
  5
92A
330
929
100
AcDbEntity
  8
Ebene 1
370
     0
100
AcDbVertex
100
AcDb2dVertex
 10
394.353515625
 20
918.7939453125
 30
0.0
  0
VERTEX
  5
92B
330
929
100
AcDbEntity
  8
Ebene 1
370
     0
100
AcDbVertex
100
AcDb2dVertex
 10
394.0
 20
918.7939453125
 30
0.0
  0
SEQEND
  5
92C
330
929
100
AcDbEntity
  8
Ebene 1
370
     0
  0
POLYLINE
  5
92D
330
3C
100
AcDbEntity
  8
Ebene 1
370
     0
100
AcDb2dPolyline
 66
     1
 10
0.0
 20
0.0
 30
0.0
  0
VERTEX
  5
92E
330
92D
100
AcDbEntity
  8
Ebene 1
370
     0
100
AcDbVertex
100
AcDb2dVertex
 10
393.82421875
 20
918.7939453125
 30
0.0
  0
VERTEX
  5
92F
330
92D
100
AcDbEntity
  8
Ebene 1
370
     0
100
AcDbVertex
100
AcDb2dVertex
 10
393.470703125
 20
918.7939453125
 30
0.0
  0
SEQEND
  5
930
330
92D
100
AcDbEntity
  8
Ebene 1
370
     0
  0
POLYLINE
  5
931
330
3C
100
AcDbEntity
  8
Ebene 1
370
     0
100
AcDb2dPolyline
 66
     1
 10
0.0
 20
0.0
 30
0.0
  0
VERTEX
  5
932
330
931
100
AcDbEntity
  8
Ebene 1
370
     0
100
AcDbVertex
100
AcDb2dVertex
 10
393.2939453125
 20
918.7939453125
 30
0.0
  0
VERTEX
  5
933
330
931
100
AcDbEntity
  8
Ebene 1
370
     0
100
AcDbVertex
100
AcDb2dVertex
 10
392.9853515625
 20
918.7939453125
 30
0.0
  0
SEQEND
  5
934
330
931
100
AcDbEntity
  8
Ebene 1
370
     0
  0
POLYLINE
  5
935
330
3C
100
AcDbEntity
  8
Ebene 1
370
     0
100
AcDb2dPolyline
 66
     1
 10
0.0
 20
0.0
 30
0.0
  0
VERTEX
  5
936
330
935
100
AcDbEntity
  8
Ebene 1
370
     0
100
AcDbVertex
100
AcDb2dVertex
 10
392.80859375
 20
918.7939453125
 30
0.0
  0
VERTEX
  5
937
330
935
100
AcDbEntity
  8
Ebene 1
370
     0
100
AcDbVertex
100
AcDb2dVertex
 10
392.4560546875
 20
918.7939453125
 30
0.0
  0
SEQEND
  5
938
330
935
100
AcDbEntity
  8
Ebene 1
370
     0
  0
POLYLINE
  5
939
330
3C
100
AcDbEntity
  8
Ebene 1
370
     0
100
AcDb2dPolyline
 66
     1
 10
0.0
 20
0.0
 30
0.0
  0
VERTEX
  5
93A
330
939
100
AcDbEntity
  8
Ebene 1
370
     0
100
AcDbVertex
100
AcDb2dVertex
 10
392.279296875
 20
918.7939453125
 30
0.0
  0
VERTEX
  5
93B
330
939
100
AcDbEntity
  8
Ebene 1
370
     0
100
AcDbVertex
100
AcDb2dVertex
 10
391.92578125
 20
918.7939453125
 30
0.0
  0
SEQEND
  5
93C
330
939
100
AcDbEntity
  8
Ebene 1
370
     0
  0
POLYLINE
  5
93D
330
3C
100
AcDbEntity
  8
Ebene 1
370
     0
100
AcDb2dPolyline
 66
     1
 10
0.0
 20
0.0
 30
0.0
  0
VERTEX
  5
93E
330
93D
100
AcDbEntity
  8
Ebene 1
370
     0
100
AcDbVertex
100
AcDb2dVertex
 10
391.75
 20
918.7939453125
 30
0.0
  0
VERTEX
  5
93F
330
93D
100
AcDbEntity
  8
Ebene 1
370
     0
100
AcDbVertex
100
AcDb2dVertex
 10
391.396484375
 20
918.7939453125
 30
0.0
  0
SEQEND
  5
940
330
93D
100
AcDbEntity
  8
Ebene 1
370
     0
  0
POLYLINE
  5
941
330
3C
100
AcDbEntity
  8
Ebene 1
370
     0
100
AcDb2dPolyline
 66
     1
 10
0.0
 20
0.0
 30
0.0
  0
VERTEX
  5
942
330
941
100
AcDbEntity
  8
Ebene 1
370
     0
100
AcDbVertex
100
AcDb2dVertex
 10
391.220703125
 20
918.7939453125
 30
0.0
  0
VERTEX
  5
943
330
941
100
AcDbEntity
  8
Ebene 1
370
     0
100
AcDbVertex
100
AcDb2dVertex
 10
390.912109375
 20
918.7939453125
 30
0.0
  0
SEQEND
  5
944
330
941
100
AcDbEntity
  8
Ebene 1
370
     0
  0
POLYLINE
  5
945
330
3C
100
AcDbEntity
  8
Ebene 1
370
     0
100
AcDb2dPolyline
 66
     1
 10
0.0
 20
0.0
 30
0.0
  0
VERTEX
  5
946
330
945
100
AcDbEntity
  8
Ebene 1
370
     0
100
AcDbVertex
100
AcDb2dVertex
 10
390.7353515625
 20
918.7939453125
 30
0.0
  0
VERTEX
  5
947
330
945
100
AcDbEntity
  8
Ebene 1
370
     0
100
AcDbVertex
100
AcDb2dVertex
 10
390.3828125
 20
918.7939453125
 30
0.0
  0
SEQEND
  5
948
330
945
100
AcDbEntity
  8
Ebene 1
370
     0
  0
POLYLINE
  5
949
330
3C
100
AcDbEntity
  8
Ebene 1
370
     0
100
AcDb2dPolyline
 66
     1
 10
0.0
 20
0.0
 30
0.0
  0
VERTEX
  5
94A
330
949
100
AcDbEntity
  8
Ebene 1
370
     0
100
AcDbVertex
100
AcDb2dVertex
 10
390.2060546875
 20
918.7939453125
 30
0.0
  0
VERTEX
  5
94B
330
949
100
AcDbEntity
  8
Ebene 1
370
     0
100
AcDbVertex
100
AcDb2dVertex
 10
389.853515625
 20
918.7939453125
 30
0.0
  0
SEQEND
  5
94C
330
949
100
AcDbEntity
  8
Ebene 1
370
     0
  0
POLYLINE
  5
94D
330
3C
100
AcDbEntity
  8
Ebene 1
370
     0
100
AcDb2dPolyline
 66
     1
 10
0.0
 20
0.0
 30
0.0
  0
VERTEX
  5
94E
330
94D
100
AcDbEntity
  8
Ebene 1
370
     0
100
AcDbVertex
100
AcDb2dVertex
 10
389.67578125
 20
918.7939453125
 30
0.0
  0
VERTEX
  5
94F
330
94D
100
AcDbEntity
  8
Ebene 1
370
     0
100
AcDbVertex
100
AcDb2dVertex
 10
389.32421875
 20
918.7939453125
 30
0.0
  0
SEQEND
  5
950
330
94D
100
AcDbEntity
  8
Ebene 1
370
     0
  0
POLYLINE
  5
951
330
3C
100
AcDbEntity
  8
Ebene 1
370
     0
100
AcDb2dPolyline
 66
     1
 10
0.0
 20
0.0
 30
0.0
  0
VERTEX
  5
952
330
951
100
AcDbEntity
  8
Ebene 1
370
     0
100
AcDbVertex
100
AcDb2dVertex
 10
409.44140625
 20
895.279296875
 30
0.0
  0
VERTEX
  5
953
330
951
100
AcDbEntity
  8
Ebene 1
370
     0
100
AcDbVertex
100
AcDb2dVertex
 10
409.0439453125
 20
895.279296875
 30
0.0
  0
SEQEND
  5
954
330
951
100
AcDbEntity
  8
Ebene 1
370
     0
  0
POLYLINE
  5
955
330
3C
100
AcDbEntity
  8
Ebene 1
370
     0
100
AcDb2dPolyline
 66
     1
 10
0.0
 20
0.0
 30
0.0
  0
VERTEX
  5
956
330
955
100
AcDbEntity
  8
Ebene 1
370
     0
100
AcDbVertex
100
AcDb2dVertex
 10
408.8671875
 20
895.279296875
 30
0.0
  0
VERTEX
  5
957
330
955
100
AcDbEntity
  8
Ebene 1
370
     0
100
AcDbVertex
100
AcDb2dVertex
 10
408.5146484375
 20
895.279296875
 30
0.0
  0
SEQEND
  5
958
330
955
100
AcDbEntity
  8
Ebene 1
370
     0
  0
POLYLINE
  5
959
330
3C
100
AcDbEntity
  8
Ebene 1
370
     0
100
AcDb2dPolyline
 66
     1
 10
0.0
 20
0.0
 30
0.0
  0
VERTEX
  5
95A
330
959
100
AcDbEntity
  8
Ebene 1
370
     0
100
AcDbVertex
100
AcDb2dVertex
 10
408.337890625
 20
895.279296875
 30
0.0
  0
VERTEX
  5
95B
330
959
100
AcDbEntity
  8
Ebene 1
370
     0
100
AcDbVertex
100
AcDb2dVertex
 10
408.029296875
 20
895.279296875
 30
0.0
  0
SEQEND
  5
95C
330
959
100
AcDbEntity
  8
Ebene 1
370
     0
  0
POLYLINE
  5
95D
330
3C
100
AcDbEntity
  8
Ebene 1
370
     0
100
AcDb2dPolyline
 66
     1
 10
0.0
 20
0.0
 30
0.0
  0
VERTEX
  5
95E
330
95D
100
AcDbEntity
  8
Ebene 1
370
     0
100
AcDbVertex
100
AcDb2dVertex
 10
407.853515625
 20
895.279296875
 30
0.0
  0
VERTEX
  5
95F
330
95D
100
AcDbEntity
  8
Ebene 1
370
     0
100
AcDbVertex
100
AcDb2dVertex
 10
407.5
 20
895.279296875
 30
0.0
  0
SEQEND
  5
960
330
95D
100
AcDbEntity
  8
Ebene 1
370
     0
  0
POLYLINE
  5
961
330
3C
100
AcDbEntity
  8
Ebene 1
370
     0
100
AcDb2dPolyline
 66
     1
 10
0.0
 20
0.0
 30
0.0
  0
VERTEX
  5
962
330
961
100
AcDbEntity
  8
Ebene 1
370
     0
100
AcDbVertex
100
AcDb2dVertex
 10
407.32421875
 20
895.279296875
 30
0.0
  0
VERTEX
  5
963
330
961
100
AcDbEntity
  8
Ebene 1
370
     0
100
AcDbVertex
100
AcDb2dVertex
 10
406.970703125
 20
895.279296875
 30
0.0
  0
SEQEND
  5
964
330
961
100
AcDbEntity
  8
Ebene 1
370
     0
  0
POLYLINE
  5
965
330
3C
100
AcDbEntity
  8
Ebene 1
370
     0
100
AcDb2dPolyline
 66
     1
 10
0.0
 20
0.0
 30
0.0
  0
VERTEX
  5
966
330
965
100
AcDbEntity
  8
Ebene 1
370
     0
100
AcDbVertex
100
AcDb2dVertex
 10
406.7939453125
 20
895.279296875
 30
0.0
  0
VERTEX
  5
967
330
965
100
AcDbEntity
  8
Ebene 1
370
     0
100
AcDbVertex
100
AcDb2dVertex
 10
406.44140625
 20
895.279296875
 30
0.0
  0
SEQEND
  5
968
330
965
100
AcDbEntity
  8
Ebene 1
370
     0
  0
POLYLINE
  5
969
330
3C
100
AcDbEntity
  8
Ebene 1
370
     0
100
AcDb2dPolyline
 66
     1
 10
0.0
 20
0.0
 30
0.0
  0
VERTEX
  5
96A
330
969
100
AcDbEntity
  8
Ebene 1
370
     0
100
AcDbVertex
100
AcDb2dVertex
 10
406.2646484375
 20
895.279296875
 30
0.0
  0
VERTEX
  5
96B
330
969
100
AcDbEntity
  8
Ebene 1
370
     0
100
AcDbVertex
100
AcDb2dVertex
 10
405.912109375
 20
895.279296875
 30
0.0
  0
SEQEND
  5
96C
330
969
100
AcDbEntity
  8
Ebene 1
370
     0
  0
POLYLINE
  5
96D
330
3C
100
AcDbEntity
  8
Ebene 1
370
     0
100
AcDb2dPolyline
 66
     1
 10
0.0
 20
0.0
 30
0.0
  0
VERTEX
  5
96E
330
96D
100
AcDbEntity
  8
Ebene 1
370
     0
100
AcDbVertex
100
AcDb2dVertex
 10
405.779296875
 20
895.279296875
 30
0.0
  0
VERTEX
  5
96F
330
96D
100
AcDbEntity
  8
Ebene 1
370
     0
100
AcDbVertex
100
AcDb2dVertex
 10
405.42578125
 20
895.279296875
 30
0.0
  0
SEQEND
  5
970
330
96D
100
AcDbEntity
  8
Ebene 1
370
     0
  0
POLYLINE
  5
971
330
3C
100
AcDbEntity
  8
Ebene 1
370
     0
100
AcDb2dPolyline
 66
     1
 10
0.0
 20
0.0
 30
0.0
  0
VERTEX
  5
972
330
971
100
AcDbEntity
  8
Ebene 1
370
     0
100
AcDbVertex
100
AcDb2dVertex
 10
405.25
 20
895.279296875
 30
0.0
  0
VERTEX
  5
973
330
971
100
AcDbEntity
  8
Ebene 1
370
     0
100
AcDbVertex
100
AcDb2dVertex
 10
404.896484375
 20
895.279296875
 30
0.0
  0
SEQEND
  5
974
330
971
100
AcDbEntity
  8
Ebene 1
370
     0
  0
POLYLINE
  5
975
330
3C
100
AcDbEntity
  8
Ebene 1
370
     0
100
AcDb2dPolyline
 66
     1
 10
0.0
 20
0.0
 30
0.0
  0
VERTEX
  5
976
330
975
100
AcDbEntity
  8
Ebene 1
370
     0
100
AcDbVertex
100
AcDb2dVertex
 10
404.720703125
 20
895.279296875
 30
0.0
  0
VERTEX
  5
977
330
975
100
AcDbEntity
  8
Ebene 1
370
     0
100
AcDbVertex
100
AcDb2dVertex
 10
404.3671875
 20
895.279296875
 30
0.0
  0
SEQEND
  5
978
330
975
100
AcDbEntity
  8
Ebene 1
370
     0
  0
POLYLINE
  5
979
330
3C
100
AcDbEntity
  8
Ebene 1
370
     0
100
AcDb2dPolyline
 66
     1
 10
0.0
 20
0.0
 30
0.0
  0
VERTEX
  5
97A
330
979
100
AcDbEntity
  8
Ebene 1
370
     0
100
AcDbVertex
100
AcDb2dVertex
 10
404.19140625
 20
895.279296875
 30
0.0
  0
VERTEX
  5
97B
330
979
100
AcDbEntity
  8
Ebene 1
370
     0
100
AcDbVertex
100
AcDb2dVertex
 10
403.837890625
 20
895.279296875
 30
0.0
  0
SEQEND
  5
97C
330
979
100
AcDbEntity
  8
Ebene 1
370
     0
  0
POLYLINE
  5
97D
330
3C
100
AcDbEntity
  8
Ebene 1
370
     0
100
AcDb2dPolyline
 66
     1
 10
0.0
 20
0.0
 30
0.0
  0
VERTEX
  5
97E
330
97D
100
AcDbEntity
  8
Ebene 1
370
     0
100
AcDbVertex
100
AcDb2dVertex
 10
403.7060546875
 20
895.279296875
 30
0.0
  0
VERTEX
  5
97F
330
97D
100
AcDbEntity
  8
Ebene 1
370
     0
100
AcDbVertex
100
AcDb2dVertex
 10
403.353515625
 20
895.279296875
 30
0.0
  0
SEQEND
  5
980
330
97D
100
AcDbEntity
  8
Ebene 1
370
     0
  0
POLYLINE
  5
981
330
3C
100
AcDbEntity
  8
Ebene 1
370
     0
100
AcDb2dPolyline
 66
     1
 10
0.0
 20
0.0
 30
0.0
  0
VERTEX
  5
982
330
981
100
AcDbEntity
  8
Ebene 1
370
     0
100
AcDbVertex
100
AcDb2dVertex
 10
403.17578125
 20
895.279296875
 30
0.0
  0
VERTEX
  5
983
330
981
100
AcDbEntity
  8
Ebene 1
370
     0
100
AcDbVertex
100
AcDb2dVertex
 10
402.82421875
 20
895.279296875
 30
0.0
  0
SEQEND
  5
984
330
981
100
AcDbEntity
  8
Ebene 1
370
     0
  0
POLYLINE
  5
985
330
3C
100
AcDbEntity
  8
Ebene 1
370
     0
100
AcDb2dPolyline
 66
     1
 10
0.0
 20
0.0
 30
0.0
  0
VERTEX
  5
986
330
985
100
AcDbEntity
  8
Ebene 1
370
     0
100
AcDbVertex
100
AcDb2dVertex
 10
402.646484375
 20
895.279296875
 30
0.0
  0
VERTEX
  5
987
330
985
100
AcDbEntity
  8
Ebene 1
370
     0
100
AcDbVertex
100
AcDb2dVertex
 10
402.2939453125
 20
895.279296875
 30
0.0
  0
SEQEND
  5
988
330
985
100
AcDbEntity
  8
Ebene 1
370
     0
  0
POLYLINE
  5
989
330
3C
100
AcDbEntity
  8
Ebene 1
370
     0
100
AcDb2dPolyline
 66
     1
 10
0.0
 20
0.0
 30
0.0
  0
VERTEX
  5
98A
330
989
100
AcDbEntity
  8
Ebene 1
370
     0
100
AcDbVertex
100
AcDb2dVertex
 10
402.1171875
 20
895.279296875
 30
0.0
  0
VERTEX
  5
98B
330
989
100
AcDbEntity
  8
Ebene 1
370
     0
100
AcDbVertex
100
AcDb2dVertex
 10
401.7646484375
 20
895.279296875
 30
0.0
  0
SEQEND
  5
98C
330
989
100
AcDbEntity
  8
Ebene 1
370
     0
  0
POLYLINE
  5
98D
330
3C
100
AcDbEntity
  8
Ebene 1
370
     0
100
AcDb2dPolyline
 66
     1
 10
0.0
 20
0.0
 30
0.0
  0
VERTEX
  5
98E
330
98D
100
AcDbEntity
  8
Ebene 1
370
     0
100
AcDbVertex
100
AcDb2dVertex
 10
401.6328125
 20
895.279296875
 30
0.0
  0
VERTEX
  5
98F
330
98D
100
AcDbEntity
  8
Ebene 1
370
     0
100
AcDbVertex
100
AcDb2dVertex
 10
401.279296875
 20
895.279296875
 30
0.0
  0
SEQEND
  5
990
330
98D
100
AcDbEntity
  8
Ebene 1
370
     0
  0
POLYLINE
  5
991
330
3C
100
AcDbEntity
  8
Ebene 1
370
     0
100
AcDb2dPolyline
 66
     1
 10
0.0
 20
0.0
 30
0.0
  0
VERTEX
  5
992
330
991
100
AcDbEntity
  8
Ebene 1
370
     0
100
AcDbVertex
100
AcDb2dVertex
 10
401.103515625
 20
895.279296875
 30
0.0
  0
VERTEX
  5
993
330
991
100
AcDbEntity
  8
Ebene 1
370
     0
100
AcDbVertex
100
AcDb2dVertex
 10
400.75
 20
895.279296875
 30
0.0
  0
SEQEND
  5
994
330
991
100
AcDbEntity
  8
Ebene 1
370
     0
  0
POLYLINE
  5
995
330
3C
100
AcDbEntity
  8
Ebene 1
370
     0
100
AcDb2dPolyline
 66
     1
 10
0.0
 20
0.0
 30
0.0
  0
VERTEX
  5
996
330
995
100
AcDbEntity
  8
Ebene 1
370
     0
100
AcDbVertex
100
AcDb2dVertex
 10
400.57421875
 20
895.279296875
 30
0.0
  0
VERTEX
  5
997
330
995
100
AcDbEntity
  8
Ebene 1
370
     0
100
AcDbVertex
100
AcDb2dVertex
 10
400.220703125
 20
895.279296875
 30
0.0
  0
SEQEND
  5
998
330
995
100
AcDbEntity
  8
Ebene 1
370
     0
  0
POLYLINE
  5
999
330
3C
100
AcDbEntity
  8
Ebene 1
370
     0
100
AcDb2dPolyline
 66
     1
 10
0.0
 20
0.0
 30
0.0
  0
VERTEX
  5
99A
330
999
100
AcDbEntity
  8
Ebene 1
370
     0
100
AcDbVertex
100
AcDb2dVertex
 10
400.0439453125
 20
895.279296875
 30
0.0
  0
VERTEX
  5
99B
330
999
100
AcDbEntity
  8
Ebene 1
370
     0
100
AcDbVertex
100
AcDb2dVertex
 10
399.69140625
 20
895.279296875
 30
0.0
  0
SEQEND
  5
99C
330
999
100
AcDbEntity
  8
Ebene 1
370
     0
  0
POLYLINE
  5
99D
330
3C
100
AcDbEntity
  8
Ebene 1
370
     0
100
AcDb2dPolyline
 66
     1
 10
0.0
 20
0.0
 30
0.0
  0
VERTEX
  5
99E
330
99D
100
AcDbEntity
  8
Ebene 1
370
     0
100
AcDbVertex
100
AcDb2dVertex
 10
399.55859375
 20
895.279296875
 30
0.0
  0
VERTEX
  5
99F
330
99D
100
AcDbEntity
  8
Ebene 1
370
     0
100
AcDbVertex
100
AcDb2dVertex
 10
399.2060546875
 20
895.279296875
 30
0.0
  0
SEQEND
  5
9A0
330
99D
100
AcDbEntity
  8
Ebene 1
370
     0
  0
POLYLINE
  5
9A1
330
3C
100
AcDbEntity
  8
Ebene 1
370
     0
100
AcDb2dPolyline
 66
     1
 10
0.0
 20
0.0
 30
0.0
  0
VERTEX
  5
9A2
330
9A1
100
AcDbEntity
  8
Ebene 1
370
     0
100
AcDbVertex
100
AcDb2dVertex
 10
399.029296875
 20
895.279296875
 30
0.0
  0
VERTEX
  5
9A3
330
9A1
100
AcDbEntity
  8
Ebene 1
370
     0
100
AcDbVertex
100
AcDb2dVertex
 10
398.67578125
 20
895.279296875
 30
0.0
  0
SEQEND
  5
9A4
330
9A1
100
AcDbEntity
  8
Ebene 1
370
     0
  0
POLYLINE
  5
9A5
330
3C
100
AcDbEntity
  8
Ebene 1
370
     0
100
AcDb2dPolyline
 66
     1
 10
0.0
 20
0.0
 30
0.0
  0
VERTEX
  5
9A6
330
9A5
100
AcDbEntity
  8
Ebene 1
370
     0
100
AcDbVertex
100
AcDb2dVertex
 10
398.5
 20
895.279296875
 30
0.0
  0
VERTEX
  5
9A7
330
9A5
100
AcDbEntity
  8
Ebene 1
370
     0
100
AcDbVertex
100
AcDb2dVertex
 10
398.146484375
 20
895.279296875
 30
0.0
  0
SEQEND
  5
9A8
330
9A5
100
AcDbEntity
  8
Ebene 1
370
     0
  0
POLYLINE
  5
9A9
330
3C
100
AcDbEntity
  8
Ebene 1
370
     0
100
AcDb2dPolyline
 66
     1
 10
0.0
 20
0.0
 30
0.0
  0
VERTEX
  5
9AA
330
9A9
100
AcDbEntity
  8
Ebene 1
370
     0
100
AcDbVertex
100
AcDb2dVertex
 10
397.970703125
 20
895.279296875
 30
0.0
  0
VERTEX
  5
9AB
330
9A9
100
AcDbEntity
  8
Ebene 1
370
     0
100
AcDbVertex
100
AcDb2dVertex
 10
397.6171875
 20
895.279296875
 30
0.0
  0
SEQEND
  5
9AC
330
9A9
100
AcDbEntity
  8
Ebene 1
370
     0
  0
POLYLINE
  5
9AD
330
3C
100
AcDbEntity
  8
Ebene 1
370
     0
100
AcDb2dPolyline
 66
     1
 10
0.0
 20
0.0
 30
0.0
  0
VERTEX
  5
9AE
330
9AD
100
AcDbEntity
  8
Ebene 1
370
     0
100
AcDbVertex
100
AcDb2dVertex
 10
397.44140625
 20
895.279296875
 30
0.0
  0
VERTEX
  5
9AF
330
9AD
100
AcDbEntity
  8
Ebene 1
370
     0
100
AcDbVertex
100
AcDb2dVertex
 10
397.1328125
 20
895.279296875
 30
0.0
  0
SEQEND
  5
9B0
330
9AD
100
AcDbEntity
  8
Ebene 1
370
     0
  0
POLYLINE
  5
9B1
330
3C
100
AcDbEntity
  8
Ebene 1
370
     0
100
AcDb2dPolyline
 66
     1
 10
0.0
 20
0.0
 30
0.0
  0
VERTEX
  5
9B2
330
9B1
100
AcDbEntity
  8
Ebene 1
370
     0
100
AcDbVertex
100
AcDb2dVertex
 10
396.9560546875
 20
895.279296875
 30
0.0
  0
VERTEX
  5
9B3
330
9B1
100
AcDbEntity
  8
Ebene 1
370
     0
100
AcDbVertex
100
AcDb2dVertex
 10
396.603515625
 20
895.279296875
 30
0.0
  0
SEQEND
  5
9B4
330
9B1
100
AcDbEntity
  8
Ebene 1
370
     0
  0
POLYLINE
  5
9B5
330
3C
100
AcDbEntity
  8
Ebene 1
370
     0
100
AcDb2dPolyline
 66
     1
 10
0.0
 20
0.0
 30
0.0
  0
VERTEX
  5
9B6
330
9B5
100
AcDbEntity
  8
Ebene 1
370
     0
100
AcDbVertex
100
AcDb2dVertex
 10
396.42578125
 20
895.279296875
 30
0.0
  0
VERTEX
  5
9B7
330
9B5
100
AcDbEntity
  8
Ebene 1
370
     0
100
AcDbVertex
100
AcDb2dVertex
 10
396.07421875
 20
895.279296875
 30
0.0
  0
SEQEND
  5
9B8
330
9B5
100
AcDbEntity
  8
Ebene 1
370
     0
  0
POLYLINE
  5
9B9
330
3C
100
AcDbEntity
  8
Ebene 1
370
     0
100
AcDb2dPolyline
 66
     1
 10
0.0
 20
0.0
 30
0.0
  0
VERTEX
  5
9BA
330
9B9
100
AcDbEntity
  8
Ebene 1
370
     0
100
AcDbVertex
100
AcDb2dVertex
 10
395.896484375
 20
895.279296875
 30
0.0
  0
VERTEX
  5
9BB
330
9B9
100
AcDbEntity
  8
Ebene 1
370
     0
100
AcDbVertex
100
AcDb2dVertex
 10
395.5439453125
 20
895.279296875
 30
0.0
  0
SEQEND
  5
9BC
330
9B9
100
AcDbEntity
  8
Ebene 1
370
     0
  0
POLYLINE
  5
9BD
330
3C
100
AcDbEntity
  8
Ebene 1
370
     0
100
AcDb2dPolyline
 66
     1
 10
0.0
 20
0.0
 30
0.0
  0
VERTEX
  5
9BE
330
9BD
100
AcDbEntity
  8
Ebene 1
370
     0
100
AcDbVertex
100
AcDb2dVertex
 10
395.3671875
 20
895.279296875
 30
0.0
  0
VERTEX
  5
9BF
330
9BD
100
AcDbEntity
  8
Ebene 1
370
     0
100
AcDbVertex
100
AcDb2dVertex
 10
395.05859375
 20
895.279296875
 30
0.0
  0
SEQEND
  5
9C0
330
9BD
100
AcDbEntity
  8
Ebene 1
370
     0
  0
POLYLINE
  5
9C1
330
3C
100
AcDbEntity
  8
Ebene 1
370
     0
100
AcDb2dPolyline
 66
     1
 10
0.0
 20
0.0
 30
0.0
  0
VERTEX
  5
9C2
330
9C1
100
AcDbEntity
  8
Ebene 1
370
     0
100
AcDbVertex
100
AcDb2dVertex
 10
394.8828125
 20
895.279296875
 30
0.0
  0
VERTEX
  5
9C3
330
9C1
100
AcDbEntity
  8
Ebene 1
370
     0
100
AcDbVertex
100
AcDb2dVertex
 10
394.529296875
 20
895.279296875
 30
0.0
  0
SEQEND
  5
9C4
330
9C1
100
AcDbEntity
  8
Ebene 1
370
     0
  0
POLYLINE
  5
9C5
330
3C
100
AcDbEntity
  8
Ebene 1
370
     0
100
AcDb2dPolyline
 66
     1
 10
0.0
 20
0.0
 30
0.0
  0
VERTEX
  5
9C6
330
9C5
100
AcDbEntity
  8
Ebene 1
370
     0
100
AcDbVertex
100
AcDb2dVertex
 10
394.353515625
 20
895.279296875
 30
0.0
  0
VERTEX
  5
9C7
330
9C5
100
AcDbEntity
  8
Ebene 1
370
     0
100
AcDbVertex
100
AcDb2dVertex
 10
394.0
 20
895.279296875
 30
0.0
  0
SEQEND
  5
9C8
330
9C5
100
AcDbEntity
  8
Ebene 1
370
     0
  0
POLYLINE
  5
9C9
330
3C
100
AcDbEntity
  8
Ebene 1
370
     0
100
AcDb2dPolyline
 66
     1
 10
0.0
 20
0.0
 30
0.0
  0
VERTEX
  5
9CA
330
9C9
100
AcDbEntity
  8
Ebene 1
370
     0
100
AcDbVertex
100
AcDb2dVertex
 10
393.82421875
 20
895.279296875
 30
0.0
  0
VERTEX
  5
9CB
330
9C9
100
AcDbEntity
  8
Ebene 1
370
     0
100
AcDbVertex
100
AcDb2dVertex
 10
393.470703125
 20
895.279296875
 30
0.0
  0
SEQEND
  5
9CC
330
9C9
100
AcDbEntity
  8
Ebene 1
370
     0
  0
POLYLINE
  5
9CD
330
3C
100
AcDbEntity
  8
Ebene 1
370
     0
100
AcDb2dPolyline
 66
     1
 10
0.0
 20
0.0
 30
0.0
  0
VERTEX
  5
9CE
330
9CD
100
AcDbEntity
  8
Ebene 1
370
     0
100
AcDbVertex
100
AcDb2dVertex
 10
393.2939453125
 20
895.279296875
 30
0.0
  0
VERTEX
  5
9CF
330
9CD
100
AcDbEntity
  8
Ebene 1
370
     0
100
AcDbVertex
100
AcDb2dVertex
 10
392.9853515625
 20
895.279296875
 30
0.0
  0
SEQEND
  5
9D0
330
9CD
100
AcDbEntity
  8
Ebene 1
370
     0
  0
POLYLINE
  5
9D1
330
3C
100
AcDbEntity
  8
Ebene 1
370
     0
100
AcDb2dPolyline
 66
     1
 10
0.0
 20
0.0
 30
0.0
  0
VERTEX
  5
9D2
330
9D1
100
AcDbEntity
  8
Ebene 1
370
     0
100
AcDbVertex
100
AcDb2dVertex
 10
392.80859375
 20
895.279296875
 30
0.0
  0
VERTEX
  5
9D3
330
9D1
100
AcDbEntity
  8
Ebene 1
370
     0
100
AcDbVertex
100
AcDb2dVertex
 10
392.4560546875
 20
895.279296875
 30
0.0
  0
SEQEND
  5
9D4
330
9D1
100
AcDbEntity
  8
Ebene 1
370
     0
  0
POLYLINE
  5
9D5
330
3C
100
AcDbEntity
  8
Ebene 1
370
     0
100
AcDb2dPolyline
 66
     1
 10
0.0
 20
0.0
 30
0.0
  0
VERTEX
  5
9D6
330
9D5
100
AcDbEntity
  8
Ebene 1
370
     0
100
AcDbVertex
100
AcDb2dVertex
 10
392.279296875
 20
895.279296875
 30
0.0
  0
VERTEX
  5
9D7
330
9D5
100
AcDbEntity
  8
Ebene 1
370
     0
100
AcDbVertex
100
AcDb2dVertex
 10
391.92578125
 20
895.279296875
 30
0.0
  0
SEQEND
  5
9D8
330
9D5
100
AcDbEntity
  8
Ebene 1
370
     0
  0
POLYLINE
  5
9D9
330
3C
100
AcDbEntity
  8
Ebene 1
370
     0
100
AcDb2dPolyline
 66
     1
 10
0.0
 20
0.0
 30
0.0
  0
VERTEX
  5
9DA
330
9D9
100
AcDbEntity
  8
Ebene 1
370
     0
100
AcDbVertex
100
AcDb2dVertex
 10
391.75
 20
895.279296875
 30
0.0
  0
VERTEX
  5
9DB
330
9D9
100
AcDbEntity
  8
Ebene 1
370
     0
100
AcDbVertex
100
AcDb2dVertex
 10
391.396484375
 20
895.279296875
 30
0.0
  0
SEQEND
  5
9DC
330
9D9
100
AcDbEntity
  8
Ebene 1
370
     0
  0
POLYLINE
  5
9DD
330
3C
100
AcDbEntity
  8
Ebene 1
370
     0
100
AcDb2dPolyline
 66
     1
 10
0.0
 20
0.0
 30
0.0
  0
VERTEX
  5
9DE
330
9DD
100
AcDbEntity
  8
Ebene 1
370
     0
100
AcDbVertex
100
AcDb2dVertex
 10
391.220703125
 20
895.279296875
 30
0.0
  0
VERTEX
  5
9DF
330
9DD
100
AcDbEntity
  8
Ebene 1
370
     0
100
AcDbVertex
100
AcDb2dVertex
 10
390.912109375
 20
895.279296875
 30
0.0
  0
SEQEND
  5
9E0
330
9DD
100
AcDbEntity
  8
Ebene 1
370
     0
  0
POLYLINE
  5
9E1
330
3C
100
AcDbEntity
  8
Ebene 1
370
     0
100
AcDb2dPolyline
 66
     1
 10
0.0
 20
0.0
 30
0.0
  0
VERTEX
  5
9E2
330
9E1
100
AcDbEntity
  8
Ebene 1
370
     0
100
AcDbVertex
100
AcDb2dVertex
 10
390.7353515625
 20
895.279296875
 30
0.0
  0
VERTEX
  5
9E3
330
9E1
100
AcDbEntity
  8
Ebene 1
370
     0
100
AcDbVertex
100
AcDb2dVertex
 10
390.3828125
 20
895.279296875
 30
0.0
  0
SEQEND
  5
9E4
330
9E1
100
AcDbEntity
  8
Ebene 1
370
     0
  0
POLYLINE
  5
9E5
330
3C
100
AcDbEntity
  8
Ebene 1
370
     0
100
AcDb2dPolyline
 66
     1
 10
0.0
 20
0.0
 30
0.0
  0
VERTEX
  5
9E6
330
9E5
100
AcDbEntity
  8
Ebene 1
370
     0
100
AcDbVertex
100
AcDb2dVertex
 10
390.2060546875
 20
895.279296875
 30
0.0
  0
VERTEX
  5
9E7
330
9E5
100
AcDbEntity
  8
Ebene 1
370
     0
100
AcDbVertex
100
AcDb2dVertex
 10
389.853515625
 20
895.279296875
 30
0.0
  0
SEQEND
  5
9E8
330
9E5
100
AcDbEntity
  8
Ebene 1
370
     0
  0
POLYLINE
  5
9E9
330
3C
100
AcDbEntity
  8
Ebene 1
370
     0
100
AcDb2dPolyline
 66
     1
 10
0.0
 20
0.0
 30
0.0
  0
VERTEX
  5
9EA
330
9E9
100
AcDbEntity
  8
Ebene 1
370
     0
100
AcDbVertex
100
AcDb2dVertex
 10
389.67578125
 20
895.279296875
 30
0.0
  0
VERTEX
  5
9EB
330
9E9
100
AcDbEntity
  8
Ebene 1
370
     0
100
AcDbVertex
100
AcDb2dVertex
 10
389.32421875
 20
895.279296875
 30
0.0
  0
SEQEND
  5
9EC
330
9E9
100
AcDbEntity
  8
Ebene 1
370
     0
  0
POLYLINE
  5
9ED
330
3C
100
AcDbEntity
  8
Ebene 1
370
     0
100
AcDb2dPolyline
 66
     1
 10
0.0
 20
0.0
 30
0.0
  0
VERTEX
  5
9EE
330
9ED
100
AcDbEntity
  8
Ebene 1
370
     0
100
AcDbVertex
100
AcDb2dVertex
 10
341.279296875
 20
972.0439453125
 30
0.0
  0
VERTEX
  5
9EF
330
9ED
100
AcDbEntity
  8
Ebene 1
370
     0
100
AcDbVertex
100
AcDb2dVertex
 10
292.88232421875
 20
972.0439453125
 30
0.0
  0
SEQEND
  5
9F0
330
9ED
100
AcDbEntity
  8
Ebene 1
370
     0
  0
POLYLINE
  5
9F1
330
3C
100
AcDbEntity
  8
Ebene 1
370
     0
100
AcDb2dPolyline
 66
     1
 10
0.0
 20
0.0
 30
0.0
  0
VERTEX
  5
9F2
330
9F1
100
AcDbEntity
  8
Ebene 1
370
     0
100
AcDbVertex
100
AcDb2dVertex
 10
341.279296875
 20
966.529296875
 30
0.0
  0
VERTEX
  5
9F3
330
9F1
100
AcDbEntity
  8
Ebene 1
370
     0
100
AcDbVertex
100
AcDb2dVertex
 10
292.88232421875
 20
966.529296875
 30
0.0
  0
SEQEND
  5
9F4
330
9F1
100
AcDbEntity
  8
Ebene 1
370
     0
  0
POLYLINE
  5
9F5
330
3C
100
AcDbEntity
  8
Ebene 1
370
     0
100
AcDb2dPolyline
 66
     1
 10
0.0
 20
0.0
 30
0.0
  0
VERTEX
  5
9F6
330
9F5
100
AcDbEntity
  8
Ebene 1
370
     0
100
AcDbVertex
100
AcDb2dVertex
 10
292.88232421875
 20
966.529296875
 30
0.0
  0
VERTEX
  5
9F7
330
9F5
100
AcDbEntity
  8
Ebene 1
370
     0
100
AcDbVertex
100
AcDb2dVertex
 10
292.08837890625
 20
966.4853515625
 30
0.0
  0
VERTEX
  5
9F8
330
9F5
100
AcDbEntity
  8
Ebene 1
370
     0
100
AcDbVertex
100
AcDb2dVertex
 10
291.33837890625
 20
966.30859375
 30
0.0
  0
VERTEX
  5
9F9
330
9F5
100
AcDbEntity
  8
Ebene 1
370
     0
100
AcDbVertex
100
AcDb2dVertex
 10
290.58837890625
 20
966.0439453125
 30
0.0
  0
VERTEX
  5
9FA
330
9F5
100
AcDbEntity
  8
Ebene 1
370
     0
100
AcDbVertex
100
AcDb2dVertex
 10
289.88232421875
 20
965.64697265625
 30
0.0
  0
VERTEX
  5
9FB
330
9F5
100
AcDbEntity
  8
Ebene 1
370
     0
100
AcDbVertex
100
AcDb2dVertex
 10
289.2646484375
 20
965.16162109375
 30
0.0
  0
VERTEX
  5
9FC
330
9F5
100
AcDbEntity
  8
Ebene 1
370
     0
100
AcDbVertex
100
AcDb2dVertex
 10
288.7353515625
 20
964.63232421875
 30
0.0
  0
VERTEX
  5
9FD
330
9F5
100
AcDbEntity
  8
Ebene 1
370
     0
100
AcDbVertex
100
AcDb2dVertex
 10
288.25
 20
964.0146484375
 30
0.0
  0
VERTEX
  5
9FE
330
9F5
100
AcDbEntity
  8
Ebene 1
370
     0
100
AcDbVertex
100
AcDb2dVertex
 10
287.85302734375
 20
963.30859375
 30
0.0
  0
VERTEX
  5
9FF
330
9F5
100
AcDbEntity
  8
Ebene 1
370
     0
100
AcDbVertex
100
AcDb2dVertex
 10
287.58837890625
 20
962.55859375
 30
0.0
  0
VERTEX
  5
A00
330
9F5
100
AcDbEntity
  8
Ebene 1
370
     0
100
AcDbVertex
100
AcDb2dVertex
 10
287.41162109375
 20
961.80859375
 30
0.0
  0
VERTEX
  5
A01
330
9F5
100
AcDbEntity
  8
Ebene 1
370
     0
100
AcDbVertex
100
AcDb2dVertex
 10
287.36767578125
 20
961.0146484375
 30
0.0
  0
SEQEND
  5
A02
330
9F5
100
AcDbEntity
  8
Ebene 1
370
     0
  0
POLYLINE
  5
A03
330
3C
100
AcDbEntity
  8
Ebene 1
370
     0
100
AcDb2dPolyline
 66
     1
 10
0.0
 20
0.0
 30
0.0
  0
VERTEX
  5
A04
330
A03
100
AcDbEntity
  8
Ebene 1
370
     0
100
AcDbVertex
100
AcDb2dVertex
 10
292.88232421875
 20
972.0439453125
 30
0.0
  0
VERTEX
  5
A05
330
A03
100
AcDbEntity
  8
Ebene 1
370
     0
100
AcDbVertex
100
AcDb2dVertex
 10
291.7353515625
 20
972.0
 30
0.0
  0
VERTEX
  5
A06
330
A03
100
AcDbEntity
  8
Ebene 1
370
     0
100
AcDbVertex
100
AcDb2dVertex
 10
290.58837890625
 20
971.82373046875
 30
0.0
  0
VERTEX
  5
A07
330
A03
100
AcDbEntity
  8
Ebene 1
370
     0
100
AcDbVertex
100
AcDb2dVertex
 10
289.4853515625
 20
971.5146484375
 30
0.0
  0
VERTEX
  5
A08
330
A03
100
AcDbEntity
  8
Ebene 1
370
     0
100
AcDbVertex
100
AcDb2dVertex
 10
288.38232421875
 20
971.07373046875
 30
0.0
  0
VERTEX
  5
A09
330
A03
100
AcDbEntity
  8
Ebene 1
370
     0
100
AcDbVertex
100
AcDb2dVertex
 10
287.36767578125
 20
970.58837890625
 30
0.0
  0
VERTEX
  5
A0A
330
A03
100
AcDbEntity
  8
Ebene 1
370
     0
100
AcDbVertex
100
AcDb2dVertex
 10
286.39697265625
 20
969.92626953125
 30
0.0
  0
VERTEX
  5
A0B
330
A03
100
AcDbEntity
  8
Ebene 1
370
     0
100
AcDbVertex
100
AcDb2dVertex
 10
285.5146484375
 20
969.220703125
 30
0.0
  0
VERTEX
  5
A0C
330
A03
100
AcDbEntity
  8
Ebene 1
370
     0
100
AcDbVertex
100
AcDb2dVertex
 10
284.67626953125
 20
968.38232421875
 30
0.0
  0
VERTEX
  5
A0D
330
A03
100
AcDbEntity
  8
Ebene 1
370
     0
100
AcDbVertex
100
AcDb2dVertex
 10
283.970703125
 20
967.5
 30
0.0
  0
VERTEX
  5
A0E
330
A03
100
AcDbEntity
  8
Ebene 1
370
     0
100
AcDbVertex
100
AcDb2dVertex
 10
283.30859375
 20
966.529296875
 30
0.0
  0
VERTEX
  5
A0F
330
A03
100
AcDbEntity
  8
Ebene 1
370
     0
100
AcDbVertex
100
AcDb2dVertex
 10
282.82373046875
 20
965.5146484375
 30
0.0
  0
VERTEX
  5
A10
330
A03
100
AcDbEntity
  8
Ebene 1
370
     0
100
AcDbVertex
100
AcDb2dVertex
 10
282.38232421875
 20
964.41162109375
 30
0.0
  0
VERTEX
  5
A11
330
A03
100
AcDbEntity
  8
Ebene 1
370
     0
100
AcDbVertex
100
AcDb2dVertex
 10
282.07373046875
 20
963.30859375
 30
0.0
  0
VERTEX
  5
A12
330
A03
100
AcDbEntity
  8
Ebene 1
370
     0
100
AcDbVertex
100
AcDb2dVertex
 10
281.89697265625
 20
962.16162109375
 30
0.0
  0
VERTEX
  5
A13
330
A03
100
AcDbEntity
  8
Ebene 1
370
     0
100
AcDbVertex
100
AcDb2dVertex
 10
281.85302734375
 20
961.0146484375
 30
0.0
  0
SEQEND
  5
A14
330
A03
100
AcDbEntity
  8
Ebene 1
370
     0
  0
POLYLINE
  5
A15
330
3C
100
AcDbEntity
  8
Ebene 1
370
     0
100
AcDb2dPolyline
 66
     1
 10
0.0
 20
0.0
 30
0.0
  0
VERTEX
  5
A16
330
A15
100
AcDbEntity
  8
Ebene 1
370
     0
100
AcDbVertex
100
AcDb2dVertex
 10
341.279296875
 20
966.529296875
 30
0.0
  0
VERTEX
  5
A17
330
A15
100
AcDbEntity
  8
Ebene 1
370
     0
100
AcDbVertex
100
AcDb2dVertex
 10
341.279296875
 20
972.0439453125
 30
0.0
  0
SEQEND
  5
A18
330
A15
100
AcDbEntity
  8
Ebene 1
370
     0
  0
POLYLINE
  5
A19
330
3C
100
AcDbEntity
  8
Ebene 1
370
     0
100
AcDb2dPolyline
 66
     1
 10
0.0
 20
0.0
 30
0.0
  0
VERTEX
  5
A1A
330
A19
100
AcDbEntity
  8
Ebene 1
370
     0
100
AcDbVertex
100
AcDb2dVertex
 10
303.9560546875
 20
966.529296875
 30
0.0
  0
VERTEX
  5
A1B
330
A19
100
AcDbEntity
  8
Ebene 1
370
     0
100
AcDbVertex
100
AcDb2dVertex
 10
303.9560546875
 20
965.2939453125
 30
0.0
  0
SEQEND
  5
A1C
330
A19
100
AcDbEntity
  8
Ebene 1
370
     0
  0
POLYLINE
  5
A1D
330
3C
100
AcDbEntity
  8
Ebene 1
370
     0
100
AcDb2dPolyline
 66
     1
 10
0.0
 20
0.0
 30
0.0
  0
VERTEX
  5
A1E
330
A1D
100
AcDbEntity
  8
Ebene 1
370
     0
100
AcDbVertex
100
AcDb2dVertex
 10
320.5439453125
 20
966.529296875
 30
0.0
  0
VERTEX
  5
A1F
330
A1D
100
AcDbEntity
  8
Ebene 1
370
     0
100
AcDbVertex
100
AcDb2dVertex
 10
320.5439453125
 20
965.2939453125
 30
0.0
  0
SEQEND
  5
A20
330
A1D
100
AcDbEntity
  8
Ebene 1
370
     0
  0
ENDBLK
  5
3F
330
3C
100
AcDbEntity
  8
0
100
AcDbBlockEnd
  0
ENDSEC
  0
SECTION
  2
ENTITIES
  0
INSERT
  5
3D
330
1F
100
AcDbEntity
  8
Ebene 1
100
AcDbBlockReference
  2
block 2
 10
0.0
 20
0.0
 30
0.0
  0
ENDSEC
  0
SECTION
  2
OBJECTS
  0
DICTIONARY
  5
C
330
0
100
AcDbDictionary
281
     1
  3
ACAD_GROUP
350
D
  3
ACAD_LAYOUT
350
1A
  3
ACAD_MLINESTYLE
350
17
  3
ACAD_PLOTSETTINGS
350
19
  3
ACAD_PLOTSTYLENAME
350
E
  3
ACAD_TABLESTYLE
350
A21
  3
ACAD_VISUALSTYLE
350
2A
  0
DICTIONARY
  5
D
102
{ACAD_REACTORS
330
C
102
}
330
C
100
AcDbDictionary
281
     1
  0
DICTIONARY
  5
1A
102
{ACAD_REACTORS
330
C
102
}
330
C
100
AcDbDictionary
281
     1
  3
Layout1
350
1E
  3
Layout2
350
26
  3
Model
350
22
  0
DICTIONARY
  5
17
102
{ACAD_REACTORS
330
C
102
}
330
C
100
AcDbDictionary
281
     1
  3
Standard
350
18
  0
DICTIONARY
  5
19
102
{ACAD_REACTORS
330
C
102
}
330
C
100
AcDbDictionary
281
     1
  0
ACDBDICTIONARYWDFLT
  5
E
102
{ACAD_REACTORS
330
C
102
}
330
C
100
AcDbDictionary
281
     1
  3
Normal
350
F
100
AcDbDictionaryWithDefault
340
F
  0
DICTIONARY
  5
A21
102
{ACAD_REACTORS
330
C
102
}
330
C
100
AcDbDictionary
281
     1
  0
DICTIONARY
  5
2A
102
{ACAD_REACTORS
330
C
102
}
330
C
100
AcDbDictionary
281
     1
  3
2dWireframe
350
2F
  3
3D Hidden
350
31
  3
3dWireframe
350
30
  3
Basic
350
32
  3
Brighten
350
36
  3
ColorChange
350
3A
  3
Conceptual
350
34
  3
Dim
350
35
  3
Facepattern
350
39
  3
Flat
350
2B
  3
FlatWithEdges
350
2C
  3
Gouraud
350
2D
  3
GouraudWithEdges
350
2E
  3
Linepattern
350
38
  3
Realistic
350
33
  3
Thicken
350
37
  0
LAYOUT
  5
1E
102
{ACAD_REACTORS
330
1A
102
}
330
1A
100
AcDbPlotSettings
  1

  2
none_device
  4

  6

 40
0.0
 41
0.0
 42
0.0
 43
0.0
 44
0.0
 45
0.0
 46
0.0
 47
0.0
 48
0.0
 49
0.0
140
0.0
141
0.0
142
1.0
143
1.0
 70
   688
 72
     0
 73
     0
 74
     5
  7

 75
    16
 76
     0
 77
     2
 78
   300
147
1.0
148
0.0
149
0.0
100
AcDbLayout
  1
Layout1
 70
     1
 71
     1
 10
0.0
 20
0.0
 11
12.0
 21
9.0
 12
0.0
 22
0.0
 32
0.0
 14
1.000000000000000E+20
 24
1.000000000000000E+20
 34
1.000000000000000E+20
 15
-1.000000000000000E+20
 25
-1.000000000000000E+20
 35
-1.000000000000000E+20
146
0.0
 13
0.0
 23
0.0
 33
0.0
 16
1.0
 26
0.0
 36
0.0
 17
0.0
 27
1.0
 37
0.0
 76
     0
330
1B
  0
LAYOUT
  5
26
102
{ACAD_REACTORS
330
1A
102
}
330
1A
100
AcDbPlotSettings
  1

  2
none_device
  4

  6

 40
0.0
 41
0.0
 42
0.0
 43
0.0
 44
0.0
 45
0.0
 46
0.0
 47
0.0
 48
0.0
 49
0.0
140
0.0
141
0.0
142
1.0
143
1.0
 70
   688
 72
     0
 73
     0
 74
     5
  7

 75
    16
 76
     0
 77
     2
 78
   300
147
1.0
148
0.0
149
0.0
100
AcDbLayout
  1
Layout2
 70
     1
 71
     2
 10
0.0
 20
0.0
 11
0.0
 21
0.0
 12
0.0
 22
0.0
 32
0.0
 14
0.0
 24
0.0
 34
0.0
 15
0.0
 25
0.0
 35
0.0
146
0.0
 13
0.0
 23
0.0
 33
0.0
 16
1.0
 26
0.0
 36
0.0
 17
0.0
 27
1.0
 37
0.0
 76
     0
330
23
  0
LAYOUT
  5
22
102
{ACAD_REACTORS
330
1A
102
}
330
1A
100
AcDbPlotSettings
  1

  2
none_device
  4

  6

 40
0.0
 41
0.0
 42
0.0
 43
0.0
 44
0.0
 45
0.0
 46
0.0
 47
0.0
 48
0.0
 49
0.0
140
0.0
141
0.0
142
1.0
143
1.0
 70
  1712
 72
     0
 73
     0
 74
     0
  7

 75
     0
 76
     0
 77
     2
 78
   300
147
1.0
148
0.0
149
0.0
100
AcDbLayout
  1
Model
 70
     1
 71
     0
 10
0.0
 20
0.0
 11
12.0
 21
9.0
 12
0.0
 22
0.0
 32
0.0
 14
1.000000000000000E+20
 24
1.000000000000000E+20
 34
1.000000000000000E+20
 15
-1.000000000000000E+20
 25
-1.000000000000000E+20
 35
-1.000000000000000E+20
146
0.0
 13
0.0
 23
0.0
 33
0.0
 16
1.0
 26
0.0
 36
0.0
 17
0.0
 27
1.0
 37
0.0
 76
     0
330
1F
331
29
  0
MLINESTYLE
  5
18
102
{ACAD_REACTORS
330
17
102
}
330
17
100
AcDbMlineStyle
  2
Standard
 70
     0
  3

 62
   256
 51
90.0
 52
90.0
 71
     2
 49
0.5
 62
   256
  6
BYLAYER
 49
-0.5
 62
   256
  6
BYLAYER
  0
ACDBPLACEHOLDER
  5
F
102
{ACAD_REACTORS
330
E
102
}
330
E
  0
VISUALSTYLE
  5
2F
102
{ACAD_REACTORS
330
2A
102
}
330
2A
100
AcDbVisualStyle
  2
2dWireframe
 70
     4
 71
     0
 72
     2
 73
     0
 90
        0
 40
-0.6
 41
-30.0
 62
     5
 63
     7
421
 16777215
 74
     1
 91
        4
 64
     7
 65
   257
 75
     1
175
     1
 42
1.0
 92
        0
 66
   257
 43
1.0
 76
     1
 77
     6
 78
     2
 67
     7
 79
     5
170
     0
171
     0
290
     0
174
     0
 93
        1
 44
0.0
173
     0
291
     0
 45
0.0
1001
ACAD
1000
AcDbSavedByObjectVersion
1070
     0
  0
VISUALSTYLE
  5
31
102
{ACAD_REACTORS
330
2A
102
}
330
2A
100
AcDbVisualStyle
  2
3D Hidden
 70
     6
 71
     1
 72
     2
 73
     2
 90
        0
 40
-0.6
 41
-30.0
 62
     5
 63
     7
421
 16777215
 74
     2
 91
        2
 64
     7
 65
   257
 75
     2
175
     1
 42
40.0
 92
        0
 66
   257
 43
1.0
 76
     1
 77
     6
 78
     2
 67
     7
 79
     3
170
     0
171
     0
290
     0
174
     0
 93
        1
 44
0.0
173
     0
291
     0
 45
0.0
1001
ACAD
1000
AcDbSavedByObjectVersion
1070
     0
  0
VISUALSTYLE
  5
30
102
{ACAD_REACTORS
330
2A
102
}
330
2A
100
AcDbVisualStyle
  2
3dWireframe
 70
     5
 71
     0
 72
     2
 73
     0
 90
        0
 40
-0.6
 41
-30.0
 62
     5
 63
     7
421
 16777215
 74
     1
 91
        4
 64
     7
 65
   257
 75
     1
175
     1
 42
1.0
 92
        0
 66
   257
 43
1.0
 76
     1
 77
     6
 78
     2
 67
     7
 79
     5
170
     0
171
     0
290
     0
174
     0
 93
        1
 44
0.0
173
     0
291
     0
 45
0.0
1001
ACAD
1000
AcDbSavedByObjectVersion
1070
     0
  0
VISUALSTYLE
  5
32
102
{ACAD_REACTORS
330
2A
102
}
330
2A
100
AcDbVisualStyle
  2
Basic
 70
     7
 71
     1
 72
     0
 73
     1
 90
        0
 40
-0.6
 41
-30.0
 62
     5
 63
     7
421
 16777215
 74
     0
 91
        4
 64
     7
 65
   257
 75
     1
175
     1
 42
1.0
 92
        8
 66
     7
 43
1.0
 76
     1
 77
     6
 78
     2
 67
     7
 79
     5
170
     0
171
     0
290
     0
174
     0
 93
        1
 44
0.0
173
     0
291
     1
 45
0.0
1001
ACAD
1000
AcDbSavedByObjectVersion
1070
     0
  0
VISUALSTYLE
  5
36
102
{ACAD_REACTORS
330
2A
102
}
330
2A
100
AcDbVisualStyle
  2
Brighten
 70
    12
 71
     2
 72
     2
 73
     0
 90
        0
 40
-0.6
 41
-30.0
 62
     5
 63
     7
421
 16777215
 74
     1
 91
        4
 64
     7
 65
   257
 75
     1
175
     1
 42
1.0
 92
        8
 66
     7
 43
1.0
 76
     1
 77
     6
 78
     2
 67
     7
 79
     5
170
     0
171
     0
290
     0
174
     0
 93
        1
 44
50.0
173
     0
291
     1
 45
0.0
1001
ACAD
1000
AcDbSavedByObjectVersion
1070
     0
  0
VISUALSTYLE
  5
3A
102
{ACAD_REACTORS
330
2A
102
}
330
2A
100
AcDbVisualStyle
  2
ColorChange
 70
    16
 71
     2
 72
     2
 73
     3
 90
        0
 40
-0.6
 41
-30.0
 62
     5
 63
     8
421
  8421504
 74
     1
 91
        4
 64
     7
 65
   257
 75
     1
175
     1
 42
1.0
 92
        8
 66
     8
424
  8421504
 43
1.0
 76
     1
 77
     6
 78
     2
 67
     7
 79
     5
170
     0
171
     0
290
     0
174
     0
 93
        1
 44
0.0
173
     0
291
     1
 45
0.0
1001
ACAD
1000
AcDbSavedByObjectVersion
1070
     0
  0
VISUALSTYLE
  5
34
102
{ACAD_REACTORS
330
2A
102
}
330
2A
100
AcDbVisualStyle
  2
Conceptual
 70
     9
 71
     3
 72
     2
 73
     0
 90
        0
 40
-0.6
 41
-30.0
 62
     5
 63
     7
421
 16777215
 74
     2
 91
        2
 64
     7
 65
   257
 75
     1
175
     1
 42
40.0
 92
        8
 66
     7
 43
1.0
 76
     1
 77
     6
 78
     2
 67
     7
 79
     3
170
     0
171
     0
290
     0
174
     0
 93
        1
 44
0.0
173
     0
291
     0
 45
0.0
1001
ACAD
1000
AcDbSavedByObjectVersion
1070
     0
  0
VISUALSTYLE
  5
35
102
{ACAD_REACTORS
330
2A
102
}
330
2A
100
AcDbVisualStyle
  2
Dim
 70
    11
 71
     2
 72
     2
 73
     0
 90
        0
 40
-0.6
 41
-30.0
 62
     5
 63
     7
421
 16777215
 74
     1
 91
        4
 64
     7
 65
   257
 75
     1
175
     1
 42
1.0
 92
        8
 66
     7
 43
1.0
 76
     1
 77
     6
 78
     2
 67
     7
 79
     5
170
     0
171
     0
290
     0
174
     0
 93
        1
 44
-50.0
173
     0
291
     1
 45
0.0
1001
ACAD
1000
AcDbSavedByObjectVersion
1070
     0
  0
VISUALSTYLE
  5
39
102
{ACAD_REACTORS
330
2A
102
}
330
2A
100
AcDbVisualStyle
  2
Facepattern
 70
    15
 71
     2
 72
     2
 73
     0
 90
        0
 40
-0.6
 41
-30.0
 62
     5
 63
     7
421
 16777215
 74
     1
 91
        4
 64
     7
 65
   257
 75
     1
175
     1
 42
1.0
 92
        8
 66
     7
 43
1.0
 76
     1
 77
     6
 78
     2
 67
     7
 79
     5
170
     0
171
     0
290
     0
174
     0
 93
        1
 44
0.0
173
     0
291
     1
 45
0.0
1001
ACAD
1000
AcDbSavedByObjectVersion
1070
     0
  0
VISUALSTYLE
  5
2B
102
{ACAD_REACTORS
330
2A
102
}
330
2A
100
AcDbVisualStyle
  2
Flat
 70
     0
 71
     2
 72
     1
 73
     1
 90
        2
 40
-0.6
 41
30.0
 62
     5
 63
     7
421
 16777215
 74
     0
 91
        4
 64
     7
 65
   257
 75
     1
175
     1
 42
1.0
 92
        8
 66
     7
 43
1.0
 76
     1
 77
     6
 78
     2
 67
     7
 79
     5
170
     0
171
     0
290
     0
174
     0
 93
       13
 44
0.0
173
     0
291
     1
 45
0.0
1001
ACAD
1000
AcDbSavedByObjectVersion
1070
     0
  0
VISUALSTYLE
  5
2C
102
{ACAD_REACTORS
330
2A
102
}
330
2A
100
AcDbVisualStyle
  2
FlatWithEdges
 70
     1
 71
     2
 72
     1
 73
     1
 90
        2
 40
-0.6
 41
30.0
 62
     5
 63
     7
421
 16777215
 74
     1
 91
        4
 64
     7
 65
   257
 75
     1
175
     1
 42
1.0
 92
        0
 66
   257
 43
1.0
 76
     1
 77
     6
 78
     2
 67
     7
 79
     5
170
     0
171
     0
290
     0
174
     0
 93
       13
 44
0.0
173
     0
291
     1
 45
0.0
1001
ACAD
1000
AcDbSavedByObjectVersion
1070
     0
  0
VISUALSTYLE
  5
2D
102
{ACAD_REACTORS
330
2A
102
}
330
2A
100
AcDbVisualStyle
  2
Gouraud
 70
     2
 71
     2
 72
     2
 73
     1
 90
        2
 40
-0.6
 41
30.0
 62
     5
 63
     7
421
 16777215
 74
     0
 91
        4
 64
     7
 65
   257
 75
     1
175
     1
 42
1.0
 92
        0
 66
     7
 43
1.0
 76
     1
 77
     6
 78
     2
 67
     7
 79
     5
170
     0
171
     0
290
     0
174
     0
 93
       13
 44
0.0
173
     0
291
     1
 45
0.0
1001
ACAD
1000
AcDbSavedByObjectVersion
1070
     0
  0
VISUALSTYLE
  5
2E
102
{ACAD_REACTORS
330
2A
102
}
330
2A
100
AcDbVisualStyle
  2
GouraudWithEdges
 70
     3
 71
     2
 72
     2
 73
     1
 90
        2
 40
-0.6
 41
30.0
 62
     5
 63
     7
421
 16777215
 74
     1
 91
        4
 64
     7
 65
   257
 75
     1
175
     1
 42
1.0
 92
        0
 66
   257
 43
1.0
 76
     1
 77
     6
 78
     2
 67
     7
 79
     5
170
     0
171
     0
290
     0
174
     0
 93
       13
 44
0.0
173
     0
291
     1
 45
0.0
1001
ACAD
1000
AcDbSavedByObjectVersion
1070
     0
  0
VISUALSTYLE
  5
38
102
{ACAD_REACTORS
330
2A
102
}
330
2A
100
AcDbVisualStyle
  2
Linepattern
 70
    14
 71
     2
 72
     2
 73
     0
 90
        0
 40
-0.6
 41
-30.0
 62
     5
 63
     7
421
 16777215
 74
     1
 91
        4
 64
     7
 65
   257
 75
     7
175
     7
 42
1.0
 92
        8
 66
     7
 43
1.0
 76
     1
 77
     6
 78
     2
 67
     7
 79
     5
170
     0
171
     0
290
     0
174
     0
 93
        1
 44
0.0
173
     0
291
     1
 45
0.0
1001
ACAD
1000
AcDbSavedByObjectVersion
1070
     0
  0
VISUALSTYLE
  5
33
102
{ACAD_REACTORS
330
2A
102
}
330
2A
100
AcDbVisualStyle
  2
Realistic
 70
     8
 71
     2
 72
     2
 73
     0
 90
        0
 40
-0.6
 41
-30.0
 62
     5
 63
     7
421
 16777215
 74
     1
 91
        0
 64
     7
 65
   257
 75
     1
175
     1
 42
1.0
 92
        8
 66
     8
424
  7895160
 43
1.0
 76
     1
 77
     6
 78
     2
 67
     7
 79
     5
170
     0
171
     0
290
     0
174
     0
 93
       13
 44
0.0
173
     0
291
     0
 45
0.0
1001
ACAD
1000
AcDbSavedByObjectVersion
1070
     0
  0
VISUALSTYLE
  5
37
102
{ACAD_REACTORS
330
2A
102
}
330
2A
100
AcDbVisualStyle
  2
Thicken
 70
    13
 71
     2
 72
     2
 73
     0
 90
        0
 40
-0.6
 41
-30.0
 62
     5
 63
     7
421
 16777215
 74
     1
 91
        4
 64
     7
 65
   257
 75
     1
175
     1
 42
1.0
 92
       12
 66
     7
 43
1.0
 76
     1
 77
     6
 78
     2
 67
     7
 79
     5
170
     0
171
     0
290
     0
174
     0
 93
        1
 44
0.0
173
     0
291
     1
 45
0.0
1001
ACAD
1000
AcDbSavedByObjectVersion
1070
     0
  0
ENDSEC
  0
EOF
