  0
SECTION
  2
HEADER
  9
$ACADVER
  1
AC1012
  9
$DWGCODEPAGE
  3
ansi_1252
  9
$INSBASE
 10
0.0
 20
0.0
 30
0.0
  9
$EXTMIN
 10
0.0
 20
0.0
 30
0.0
  9
$EXTMAX
 10
210.0
 20
297.0
 30
0.0
  9
$LIMMIN
 10
0.0
 20
0.0
  9
$LIMMAX
 10
210.0
 20
297.0
  9
$ORTHOMODE
 70
     0
  9
$REGENMODE
 70
     1
  9
$FILLMODE
 70
     1
  9
$QTEXTMODE
 70
     0
  9
$MIRRTEXT
 70
     1
  9
$DRAGMODE
 70
     2
  9
$LTSCALE
 40
1.0
  9
$OSMODE
 70
    37
  9
$ATTMODE
 70
     1
  9
$TEXTSIZE
 40
0.2
  9
$TRACEWID
 40
0.05
  9
$TEXTSTYLE
  7
STANDARD
  9
$CLAYER
  8
0
  9
$CELTYPE
  6
BYLAYER
  9
$CECOLOR
 62
   256
  9
$CELTSCALE
 40
25.4
  9
$DELOBJ
 70
     1
  9
$DISPSILH
 70
     0
  9
$DIMSCALE
 40
1.0
  9
$DIMASZ
 40
0.18
  9
$DIMEXO
 40
0.0625
  9
$DIMDLI
 40
0.38
  9
$DIMRND
 40
0.0
  9
$DIMDLE
 40
0.0
  9
$DIMEXE
 40
0.18
  9
$DIMTP
 40
0.0
  9
$DIMTM
 40
0.0
  9
$DIMTXT
 40
0.18
  9
$DIMCEN
 40
0.09
  9
$DIMTSZ
 40
0.0
  9
$DIMTOL
 70
     0
  9
$DIMLIM
 70
     0
  9
$DIMTIH
 70
     1
  9
$DIMTOH
 70
     1
  9
$DIMSE1
 70
     0
  9
$DIMSE2
 70
     0
  9
$DIMTAD
 70
     0
  9
$DIMZIN
 70
     0
  9
$DIMBLK
  1

  9
$DIMASO
 70
     1
  9
$DIMSHO
 70
     1
  9
$DIMPOST
  1

  9
$DIMAPOST
  1

  9
$DIMALT
 70
     0
  9
$DIMALTD
 70
     2
  9
$DIMALTF
 40
25.4
  9
$DIMLFAC
 40
1.0
  9
$DIMTOFL
 70
     0
  9
$DIMTVP
 40
0.0
  9
$DIMTIX
 70
     0
  9
$DIMSOXD
 70
     0
  9
$DIMSAH
 70
     0
  9
$DIMBLK1
  1

  9
$DIMBLK2
  1

  9
$DIMSTYLE
  2
STANDARD
  9
$DIMCLRD
 70
     0
  9
$DIMCLRE
 70
     0
  9
$DIMCLRT
 70
     0
  9
$DIMTFAC
 40
1.0
  9
$DIMGAP
 40
0.09
  9
$DIMJUST
 70
     0
  9
$DIMSD1
 70
     0
  9
$DIMSD2
 70
     0
  9
$DIMTOLJ
 70
     1
  9
$DIMTZIN
 70
     0
  9
$DIMALTZ
 70
     0
  9
$DIMALTTZ
 70
     0
  9
$DIMFIT
 70
     3
  9
$DIMUPT
 70
     0
  9
$DIMUNIT
 70
     2
  9
$DIMDEC
 70
     4
  9
$DIMTDEC
 70
     4
  9
$DIMALTU
 70
     2
  9
$DIMALTTD
 70
     2
  9
$DIMTXSTY
  7
STANDARD
  9
$DIMAUNIT
 70
     0
  9
$LUNITS
 70
     2
  9
$LUPREC
 70
     4
  9
$SKETCHINC
 40
0.1
  9
$FILLETRAD
 40
0.5
  9
$AUNITS
 70
     0
  9
$AUPREC
 70
     0
  9
$MENU
  1
.
  9
$ELEVATION
 40
0.0
  9
$PELEVATION
 40
0.0
  9
$THICKNESS
 40
0.0
  9
$LIMCHECK
 70
     0
  9
$CHAMFERA
 40
0.5
  9
$CHAMFERB
 40
0.5
  9
$CHAMFERC
 40
1.0
  9
$CHAMFERD
 40
0.0
  9
$SKPOLY
 70
     0
  9
$TDCREATE
 40
2453762.536483044
  9
$TDUPDATE
 40
2453762.536483055
  9
$TDINDWG
 40
0.0000000116
  9
$TDUSRTIMER
 40
0.0000000116
  9
$USRTIMER
 70
     1
  9
$ANGBASE
 50
0.0
  9
$ANGDIR
 70
     0
  9
$PDMODE
 70
     0
  9
$PDSIZE
 40
0.0
  9
$PLINEWID
 40
0.0
  9
$COORDS
 70
     1
  9
$SPLFRAME
 70
     0
  9
$SPLINETYPE
 70
     6
  9
$SPLINESEGS
 70
     8
  9
$ATTDIA
 70
     0
  9
$ATTREQ
 70
     1
  9
$HANDLING
 70
     1
  9
$HANDSEED
  5
F0
  9
$SURFTAB1
 70
     6
  9
$SURFTAB2
 70
     6
  9
$SURFTYPE
 70
     6
  9
$SURFU
 70
     6
  9
$SURFV
 70
     6
  9
$UCSNAME
  2

  9
$UCSORG
 10
0.0
 20
0.0
 30
0.0
  9
$UCSXDIR
 10
1.0
 20
0.0
 30
0.0
  9
$UCSYDIR
 10
0.0
 20
1.0
 30
0.0
  9
$PUCSNAME
  2

  9
$PUCSORG
 10
0.0
 20
0.0
 30
0.0
  9
$PUCSXDIR
 10
1.0
 20
0.0
 30
0.0
  9
$PUCSYDIR
 10
0.0
 20
1.0
 30
0.0
  9
$USERI1
 70
     0
  9
$USERI2
 70
     0
  9
$USERI3
 70
     0
  9
$USERI4
 70
     0
  9
$USERI5
 70
     0
  9
$USERR1
 40
0.0
  9
$USERR2
 40
0.0
  9
$USERR3
 40
0.0
  9
$USERR4
 40
0.0
  9
$USERR5
 40
0.0
  9
$WORLDVIEW
 70
     1
  9
$SHADEDGE
 70
     3
  9
$SHADEDIF
 70
    70
  9
$TILEMODE
 70
     1
  9
$MAXACTVP
 70
    64
  9
$PINSBASE
 10
0.0
 20
0.0
 30
0.0
  9
$PLIMCHECK
 70
     0
  9
$PEXTMIN
 10
0.0
 20
0.0
 30
0.0
  9
$PEXTMAX
 10
210.0
 20
297.0
 30
0.0
  9
$PLIMMIN
 10
0.0
 20
0.0
  9
$PLIMMAX
 10
12.0
 20
9.0
  9
$UNITMODE
 70
     0
  9
$VISRETAIN
 70
     1
  9
$PLINEGEN
 70
     0
  9
$PSLTSCALE
 70
     1
  9
$TREEDEPTH
 70
  3020
  9
$PICKSTYLE
 70
     1
  9
$CMLSTYLE
  2
STANDARD
  9
$CMLJUST
 70
     0
  9
$CMLSCALE
 40
1.0
  9
$SAVEIMAGES
 70
     1
  0
ENDSEC
  0
SECTION
  2
CLASSES
  0
CLASS
  1
ACDBDICTIONARYWDFLT
  2
AcDbDictionaryWithDefault
  3
ObjectDBX Classes
 90
        0
280
     0
281
     0
  0
CLASS
  1
TABLESTYLE
  2
AcDbTableStyle
  3
ObjectDBX Classes
 90
     2047
280
     0
281
     0
  0
CLASS
  1
DICTIONARYVAR
  2
AcDbDictionaryVar
  3
ObjectDBX Classes
 90
        0
280
     0
281
     0
  0
CLASS
  1
XRECORD
  2
AcDbXrecord
  3
AutoCAD 2000
 90
    32768
280
     0
281
     0
  0
CLASS
  1
LWPOLYLINE
  2
AcDbPolyline
  3
AutoCAD 2000
 90
    32768
280
     0
281
     1
  0
CLASS
  1
HATCH
  2
AcDbHatch
  3
AutoCAD 2000
 90
    32768
280
     0
281
     1
  0
CLASS
  1
ACDBPLACEHOLDER
  2
AcDbPlaceHolder
  3
ObjectDBX Classes
 90
        0
280
     0
281
     0
  0
CLASS
  1
LAYOUT
  2
AcDbLayout
  3
ObjectDBX Classes
 90
        0
280
     0
281
     0
  0
ENDSEC
  0
SECTION
  2
TABLES
  0
TABLE
  2
VPORT
  5
8
330
0
100
AcDbSymbolTable
 70
     2
  0
VPORT
  5
29
102
{ACAD_XDICTIONARY
360
EE
102
}
330
8
100
AcDbSymbolTableRecord
100
AcDbViewportTableRecord
  2
*ACTIVE
 70
     0
 10
0.0
 20
0.0
 11
1.0
 21
1.0
 12
10.4299065421
 22
4.5
 13
0.0
 23
0.0
 14
0.5
 24
0.5
 15
0.5
 25
0.5
 16
0.0
 26
0.0
 36
1.0
 17
0.0
 27
0.0
 37
0.0
 40
9.0
 41
1.9729729729
 42
50.0
 43
0.0
 44
0.0
 50
0.0
 51
0.0
 71
     0
 72
   100
 73
     1
 74
     3
 75
     0
 76
     0
 77
     0
 78
     0
  0
ENDTAB
  0
TABLE
  2
LTYPE
  5
5
330
0
100
AcDbSymbolTable
 70
     3
  0
LTYPE
  5
14
330
5
100
AcDbSymbolTableRecord
100
AcDbLinetypeTableRecord
  2
BYBLOCK
 70
     0
  3

 72
    65
 73
     0
 40
0.0
  0
LTYPE
  5
15
330
5
100
AcDbSymbolTableRecord
100
AcDbLinetypeTableRecord
  2
BYLAYER
 70
     0
  3

 72
    65
 73
     0
 40
0.0
  0
LTYPE
  5
16
330
5
100
AcDbSymbolTableRecord
100
AcDbLinetypeTableRecord
  2
CONTINUOUS
 70
     0
  3
Solid line
 72
    65
 73
     0
 40
0.0
  0
LTYPE
  5
3D
330
5
100
AcDbSymbolTableRecord
100
AcDbLinetypeTableRecord
  2
HIDDEN2
 70
     0
  3
_ _ _ _ _ _ _ _ _ _ _ _ _ _ _ _ _ _ _ _ _ _ _ _
 72
    65
 73
     2
 40
0.1875
 49
0.125
 74
     4
 75
     0
340
0
 46
0.0
 50
0.0
 44
0.0
 45
0.0
 49
-0.0625
 74
     4
 75
     0
340
0
 46
0.0
 50
0.0
 44
0.0
 45
0.0
  0
LTYPE
  5
44
330
5
100
AcDbSymbolTableRecord
100
AcDbLinetypeTableRecord
  2
CENTER2
 70
     0
  3
___ _ ___ _ ___ _ ___ _ ___ _ ___ _ ___ _ ___ _
 72
    65
 73
     4
 40
1.125
 49
0.75
 74
     4
 75
     0
340
0
 46
0.0
 50
0.0
 44
0.0
 45
0.0
 49
-0.125
 74
     4
 75
     0
340
0
 46
0.0
 50
0.0
 44
0.0
 45
0.0
 49
0.125
 74
     4
 75
     0
340
0
 46
0.0
 50
0.0
 44
0.0
 45
0.0
 49
-0.125
 74
     4
 75
     0
340
0
 46
0.0
 50
0.0
 44
0.0
 45
0.0
  0
ENDTAB
  0
TABLE
  2
LAYER
  5
2
330
0
100
AcDbSymbolTable
 70
     5
  0
LAYER
  5
10
330
2
100
AcDbSymbolTableRecord
100
AcDbLayerTableRecord
  2
0
 70
     0
 62
     7
  6
CONTINUOUS
  0
LAYER
  5
30
330
2
100
AcDbSymbolTableRecord
100
AcDbLayerTableRecord
  2
MEGA_002484
 70
     0
 62
     7
  6
CONTINUOUS
  0
LAYER
  5
39
330
2
100
AcDbSymbolTableRecord
100
AcDbLayerTableRecord
  2
MEGA_001558
 70
     0
 62
     7
  6
CONTINUOUS
  0
LAYER
  5
43
330
2
100
AcDbSymbolTableRecord
100
AcDbLayerTableRecord
  2
STANDARD
 70
     0
 62
     7
  6
CONTINUOUS
  0
LAYER
  5
65
330
2
100
AcDbSymbolTableRecord
100
AcDbLayerTableRecord
  2
DEFAULT
 70
     0
 62
     7
  6
CONTINUOUS
  0
ENDTAB
  0
TABLE
  2
STYLE
  5
3
330
0
100
AcDbSymbolTable
 70
     3
  0
STYLE
  5
11
330
3
100
AcDbSymbolTableRecord
100
AcDbTextStyleTableRecord
  2
STANDARD
 70
     0
 40
0.0
 41
1.0
 50
0.0
 71
     0
 42
0.2
  3
txt
  4

  0
STYLE
  5
6A
330
3
100
AcDbSymbolTableRecord
100
AcDbTextStyleTableRecord
  2
SEACAD_SEISO_TTF
 70
     0
 40
0.2
 41
1.0
 50
0.0
 71
     0
 42
0.2
  3
seiso.ttf
  4

  0
STYLE
  5
8A
330
3
100
AcDbSymbolTableRecord
100
AcDbTextStyleTableRecord
  2
SEACAD_SEMECI1_TTF
 70
     0
 40
0.2
 41
1.0
 50
0.0
 71
     0
 42
0.2
  3
semeci1.ttf
  4

  0
ENDTAB
  0
TABLE
  2
VIEW
  5
6
330
0
100
AcDbSymbolTable
 70
     0
  0
ENDTAB
  0
TABLE
  2
UCS
  5
7
330
0
100
AcDbSymbolTable
 70
     0
  0
ENDTAB
  0
TABLE
  2
APPID
  5
9
330
0
100
AcDbSymbolTable
 70
     1
  0
APPID
  5
12
330
9
100
AcDbSymbolTableRecord
100
AcDbRegAppTableRecord
  2
ACAD
 70
     0
  0
ENDTAB
  0
TABLE
  2
DIMSTYLE
  5
A
330
0
100
AcDbSymbolTable
 70
     1
  0
DIMSTYLE
105
27
330
A
100
AcDbSymbolTableRecord
100
AcDbDimStyleTableRecord
  2
STANDARD
 70
     0
  3

  4

  5

  6

  7

 40
1.0
 41
0.18
 42
0.0625
 43
0.38
 44
0.18
 45
0.0
 46
0.0
 47
0.0
 48
0.0
140
0.18
141
0.09
142
0.0
143
25.4
144
1.0
145
0.0
146
1.0
147
0.09
 71
     0
 72
     0
 73
     1
 74
     1
 75
     0
 76
     0
 77
     0
 78
     0
170
     0
171
     2
172
     0
173
     0
174
     0
175
     0
176
     0
177
     0
178
     0
270
     2
271
     4
272
     4
273
     2
274
     2
340
11
275
     0
280
     0
281
     0
282
     0
283
     1
284
     0
285
     0
286
     0
287
     3
288
     0
  0
ENDTAB
  0
TABLE
  2
BLOCK_RECORD
  5
1
330
0
100
AcDbSymbolTable
 70
    10
  0
BLOCK_RECORD
  5
1F
330
1
100
AcDbSymbolTableRecord
100
AcDbBlockTableRecord
  2
*MODEL_SPACE
  0
BLOCK_RECORD
  5
1B
330
1
100
AcDbSymbolTableRecord
100
AcDbBlockTableRecord
  2
*PAPER_SPACE
  0
BLOCK_RECORD
  5
2E
330
1
100
AcDbSymbolTableRecord
100
AcDbBlockTableRecord
  2
SE
  0
BLOCK_RECORD
  5
49
330
1
100
AcDbSymbolTableRecord
100
AcDbBlockTableRecord
  2
SE1
  0
BLOCK_RECORD
  5
63
330
1
100
AcDbSymbolTableRecord
100
AcDbBlockTableRecord
  2
SE2
  0
BLOCK_RECORD
  5
6E
330
1
100
AcDbSymbolTableRecord
100
AcDbBlockTableRecord
  2
SE3
  0
BLOCK_RECORD
  5
78
330
1
100
AcDbSymbolTableRecord
100
AcDbBlockTableRecord
  2
SE4
  0
BLOCK_RECORD
  5
82
330
1
100
AcDbSymbolTableRecord
100
AcDbBlockTableRecord
  2
SE5
  0
BLOCK_RECORD
  5
8E
330
1
100
AcDbSymbolTableRecord
100
AcDbBlockTableRecord
  2
SE6
  0
BLOCK_RECORD
  5
99
330
1
100
AcDbSymbolTableRecord
100
AcDbBlockTableRecord
  2
SE7
  0
BLOCK_RECORD
  5
A3
330
1
100
AcDbSymbolTableRecord
100
AcDbBlockTableRecord
  2
SE8
  0
ENDTAB
  0
ENDSEC
  0
SECTION
  2
BLOCKS
  0
BLOCK
  5
20
330
1F
100
AcDbEntity
  8
0
100
AcDbBlockBegin
  2
*MODEL_SPACE
 70
     0
 71
     0
 10
0.0
 20
0.0
 30
0.0
  3
*MODEL_SPACE
  1

  0
ENDBLK
  5
21
330
1F
100
AcDbEntity
  8
0
100
AcDbBlockEnd
  0
BLOCK
  5
1C
330
1B
100
AcDbEntity
 67
     1
  8
0
100
AcDbBlockBegin
  2
*PAPER_SPACE
 70
     0
 71
     0
 10
0.0
 20
0.0
 30
0.0
  3
*PAPER_SPACE
  1

  0
ENDBLK
  5
1D
330
1B
100
AcDbEntity
 67
     1
  8
0
100
AcDbBlockEnd
  0
BLOCK
  5
47
330
2E
100
AcDbEntity
  8
0
100
AcDbBlockBegin
  2
SE
 70
     0
 71
     0
 10
0.0
 20
0.0
 30
0.0
  3
SE
  1

  0
LINE
  5
31
330
2E
100
AcDbEntity
  8
MEGA_002484
  6
CONTINUOUS
 62
     7
 48
25.4
100
AcDbLine
 10
62.0188062847
 20
156.7043680346
 30
0.0
 11
62.0188062847
 21
163.7043680346
 31
0.0
  0
LINE
  5
32
330
2E
100
AcDbEntity
  8
MEGA_002484
  6
CONTINUOUS
 62
     7
 48
25.4
100
AcDbLine
 10
55.5188062847
 20
157.2043680346
 30
0.0
 11
61.5188062847
 21
157.2043680346
 31
0.0
  0
LINE
  5
33
330
2E
100
AcDbEntity
  8
MEGA_002484
  6
CONTINUOUS
 62
     7
 48
25.4
100
AcDbLine
 10
55.5188062847
 20
163.2043680346
 30
0.0
 11
55.5188062847
 21
157.2043680346
 31
0.0
  0
LINE
  5
34
330
2E
100
AcDbEntity
  8
MEGA_002484
  6
CONTINUOUS
 62
     7
 48
25.4
100
AcDbLine
 10
61.5188062847
 20
157.2043680346
 30
0.0
 11
61.5188062847
 21
163.2043680346
 31
0.0
  0
LINE
  5
35
330
2E
100
AcDbEntity
  8
MEGA_002484
  6
CONTINUOUS
 62
     7
 48
25.4
100
AcDbLine
 10
61.5188062847
 20
163.2043680346
 30
0.0
 11
55.5188062847
 21
163.2043680346
 31
0.0
  0
LINE
  5
36
330
2E
100
AcDbEntity
  8
MEGA_002484
  6
CONTINUOUS
 62
     7
 48
25.4
100
AcDbLine
 10
62.0188062847
 20
163.7043680346
 30
0.0
 11
55.0188062847
 21
163.7043680346
 31
0.0
  0
LINE
  5
37
330
2E
100
AcDbEntity
  8
MEGA_002484
  6
CONTINUOUS
 62
     7
 48
25.4
100
AcDbLine
 10
55.0188062847
 20
163.7043680346
 30
0.0
 11
55.0188062847
 21
156.7043680346
 31
0.0
  0
LINE
  5
38
330
2E
100
AcDbEntity
  8
MEGA_002484
  6
CONTINUOUS
 62
     7
 48
25.4
100
AcDbLine
 10
55.0188062847
 20
156.7043680346
 30
0.0
 11
62.0188062847
 21
156.7043680346
 31
0.0
  0
CIRCLE
  5
3A
330
2E
100
AcDbEntity
  8
MEGA_001558
  6
CONTINUOUS
 62
     7
 48
25.4
100
AcDbCircle
 10
58.5173052516
 20
179.209006077
 30
0.0
 40
2.399999999999977
  0
CIRCLE
  5
3B
330
2E
100
AcDbEntity
  8
MEGA_001558
  6
CONTINUOUS
 62
     7
 48
25.4
100
AcDbCircle
 10
58.5173052516
 20
141.209006077
 30
0.0
 40
3.624999999999993
  0
CIRCLE
  5
3C
330
2E
100
AcDbEntity
  8
MEGA_001558
  6
CONTINUOUS
 62
     7
 48
25.4
100
AcDbCircle
 10
58.5173052516
 20
179.209006077
 30
0.0
 40
3.624999999999993
  0
CIRCLE
  5
3E
330
2E
100
AcDbEntity
  8
MEGA_001558
  6
HIDDEN2
 62
     7
 48
25.4
100
AcDbCircle
 10
58.5173052516
 20
160.209006077
 30
0.0
 40
8.200000000000003
  0
CIRCLE
  5
3F
330
2E
100
AcDbEntity
  8
MEGA_001558
  6
CONTINUOUS
 62
     7
 48
25.4
100
AcDbCircle
 10
58.5173052516
 20
160.209006077
 30
0.0
 40
23.99999999999997
  0
CIRCLE
  5
40
330
2E
100
AcDbEntity
  8
MEGA_001558
  6
CONTINUOUS
 62
     7
 48
25.4
100
AcDbCircle
 10
58.5173052516
 20
141.209006077
 30
0.0
 40
2.399999999999977
  0
CIRCLE
  5
41
330
2E
100
AcDbEntity
  8
MEGA_001558
  6
CONTINUOUS
 62
     7
 48
25.4
100
AcDbCircle
 10
58.5173052516
 20
160.209006077
 30
0.0
 40
8.110133321499994
  0
CIRCLE
  5
42
330
2E
100
AcDbEntity
  8
MEGA_001558
  6
CONTINUOUS
 62
     7
 48
25.4
100
AcDbCircle
 10
58.5173052516
 20
160.209006077
 30
0.0
 40
8.86006666370001
  0
LINE
  5
45
330
2E
100
AcDbEntity
  8
STANDARD
  6
CENTER2
 62
     7
 48
25.4
100
AcDbLine
 10
34.5173046718
 20
160.209006077
 30
0.0
 11
82.5173052516
 21
160.209006077
 31
0.0
  0
LINE
  5
46
330
2E
100
AcDbEntity
  8
STANDARD
  6
CENTER2
 62
     7
 48
25.4
100
AcDbLine
 10
58.5173052516
 20
184.2090066489
 30
0.0
 11
58.5173052516
 21
136.209006077
 31
0.0
  0
ENDBLK
  5
48
330
2E
100
AcDbEntity
  8
0
100
AcDbBlockEnd
  0
BLOCK
  5
61
330
49
100
AcDbEntity
  8
0
100
AcDbBlockBegin
  2
SE1
 70
     0
 71
     0
 10
0.0
 20
0.0
 30
0.0
  3
SE1
  1

  0
LINE
  5
4B
330
49
100
AcDbEntity
  8
MEGA_002484
  6
HIDDEN2
 62
     7
 48
25.4
100
AcDbLine
 10
166.8133523736
 20
163.7043680346
 30
0.0
 11
165.3133523736
 21
163.7043680346
 31
0.0
  0
LINE
  5
4C
330
49
100
AcDbEntity
  8
MEGA_002484
  6
CONTINUOUS
 62
     7
 48
25.4
100
AcDbLine
 10
165.3133523736
 20
163.7043680346
 30
0.0
 11
107.8133523736
 21
163.7043680346
 31
0.0
  0
LINE
  5
4D
330
49
100
AcDbEntity
  8
MEGA_002484
  6
HIDDEN2
 62
     7
 48
25.4
100
AcDbLine
 10
166.8133523736
 20
156.7043680346
 30
0.0
 11
165.3133523736
 21
156.7043680346
 31
0.0
  0
LINE
  5
4E
330
49
100
AcDbEntity
  8
MEGA_002484
  6
CONTINUOUS
 62
     7
 48
25.4
100
AcDbLine
 10
165.3133523736
 20
156.7043680346
 30
0.0
 11
107.8133523736
 21
156.7043680346
 31
0.0
  0
LINE
  5
4F
330
49
100
AcDbEntity
  8
MEGA_002484
  6
HIDDEN2
 62
     7
 48
25.4
100
AcDbLine
 10
172.8133523736
 20
157.2043680346
 30
0.0
 11
166.8133523736
 21
157.2043680346
 31
0.0
  0
LINE
  5
50
330
49
100
AcDbEntity
  8
MEGA_002484
  6
HIDDEN2
 62
     7
 48
25.4
100
AcDbLine
 10
172.8133523736
 20
163.2043680346
 30
0.0
 11
166.8133523736
 21
163.2043680346
 31
0.0
  0
LINE
  5
51
330
49
100
AcDbEntity
  8
MEGA_002484
  6
CONTINUOUS
 62
     7
 48
25.4
100
AcDbLine
 10
107.8133523736
 20
163.7043680346
 30
0.0
 11
107.8133523736
 21
156.7043680346
 31
0.0
  0
LINE
  5
52
330
49
100
AcDbEntity
  8
MEGA_002484
  6
HIDDEN2
 62
     7
 48
25.4
100
AcDbLine
 10
166.8133523736
 20
163.7043680346
 30
0.0
 11
166.8133523736
 21
156.7043680346
 31
0.0
  0
ARC
  5
53
330
49
100
AcDbEntity
  8
MEGA_001558
  6
CONTINUOUS
 62
     7
 48
25.4
100
AcDbCircle
 10
165.8133523736
 20
151.1834883604
 30
0.0
 40
0.5
100
AcDbArc
 50
180.0
 51
267.0
  0
ARC
  5
54
330
49
100
AcDbEntity
  8
MEGA_001558
  6
CONTINUOUS
 62
     7
 48
25.4
100
AcDbCircle
 10
172.0133523736
 20
183.0297489538
 30
0.0
 40
0.8000000000000114
100
AcDbArc
 50
0.0
 51
85.0
  0
ARC
  5
55
330
49
100
AcDbEntity
  8
MEGA_001558
  6
CONTINUOUS
 62
     7
 48
25.4
100
AcDbCircle
 10
165.8133523736
 20
169.2345237936
 30
0.0
 40
0.5
100
AcDbArc
 50
93.0
 51
180.0
  0
ARC
  5
56
330
49
100
AcDbEntity
  8
MEGA_001558
  6
CONTINUOUS
 62
     7
 48
25.4
100
AcDbCircle
 10
172.0133523736
 20
137.3882632002
 30
0.0
 40
0.8000000000000114
100
AcDbArc
 50
275.0
 51
360.0
  0
LINE
  5
57
330
49
100
AcDbEntity
  8
MEGA_001558
  6
CONTINUOUS
 62
     7
 48
25.4
100
AcDbLine
 10
167.7133523736
 20
184.209006077
 30
0.0
 11
167.7133523736
 21
136.209006077
 31
0.0
  0
LINE
  5
58
330
49
100
AcDbEntity
  8
MEGA_001558
  6
CONTINUOUS
 62
     7
 48
25.4
100
AcDbLine
 10
172.8133523736
 20
183.0297489538
 30
0.0
 11
172.8133523736
 21
137.3882632002
 31
0.0
  0
LINE
  5
59
330
49
100
AcDbEntity
  8
MEGA_001558
  6
CONTINUOUS
 62
     7
 48
25.4
100
AcDbLine
 10
165.3133523736
 20
169.2345237936
 30
0.0
 11
165.3133523736
 21
151.1834883604
 31
0.0
  0
LINE
  5
5A
330
49
100
AcDbEntity
  8
MEGA_001558
  6
CONTINUOUS
 62
     7
 48
25.4
100
AcDbLine
 10
167.7133523736
 20
136.209006077
 30
0.0
 11
172.0830769678
 21
136.5913074417
 31
0.0
  0
LINE
  5
5B
330
49
100
AcDbEntity
  8
MEGA_001558
  6
CONTINUOUS
 62
     7
 48
25.4
100
AcDbLine
 10
167.7133523736
 20
169.8347847473
 30
0.0
 11
165.7871843955
 21
169.733838561
 31
0.0
  0
LINE
  5
5C
330
49
100
AcDbEntity
  8
MEGA_001558
  6
CONTINUOUS
 62
     7
 48
25.4
100
AcDbLine
 10
172.0830769678
 20
183.8267047123
 30
0.0
 11
167.7133523736
 21
184.209006077
 31
0.0
  0
LINE
  5
5D
330
49
100
AcDbEntity
  8
MEGA_001558
  6
CONTINUOUS
 62
     7
 48
25.4
100
AcDbLine
 10
165.7871843955
 20
150.684173593
 30
0.0
 11
167.7133523736
 21
150.5832274067
 31
0.0
  0
LINE
  5
5E
330
49
100
AcDbEntity
  8
STANDARD
  6
CENTER2
 62
     7
 48
25.4
100
AcDbLine
 10
107.8133523736
 20
160.2043680346
 30
0.0
 11
172.8133523736
 21
160.209006077
 31
0.0
  0
LINE
  5
5F
330
49
100
AcDbEntity
  8
STANDARD
  6
CONTINUOUS
 62
     7
 48
25.4
100
AcDbLine
 10
165.3133523736
 20
163.7043680346
 30
0.0
 11
107.8133523736
 21
156.7043680346
 31
0.0
  0
LINE
  5
60
330
49
100
AcDbEntity
  8
STANDARD
  6
CONTINUOUS
 62
     7
 48
25.4
100
AcDbLine
 10
107.8133523736
 20
163.7043680346
 30
0.0
 11
165.3133523736
 21
156.7043680346
 31
0.0
  0
ENDBLK
  5
62
330
49
100
AcDbEntity
  8
0
100
AcDbBlockEnd
  0
BLOCK
  5
6C
330
63
100
AcDbEntity
  8
0
100
AcDbBlockBegin
  2
SE2
 70
     0
 71
     0
 10
0.0
 20
0.0
 30
0.0
  3
SE2
  1

  0
POLYLINE
  5
66
330
63
100
AcDbEntity
  8
DEFAULT
  6
CONTINUOUS
 62
     7
 48
25.4
100
AcDb2dPolyline
 66
     1
 10
0.0
 20
0.0
 30
0.0
 70
     1
  0
VERTEX
  5
AE
330
66
100
AcDbEntity
  8
DEFAULT
  6
CONTINUOUS
 62
     7
100
AcDbVertex
100
AcDb2dVertex
 10
26.100262217
 20
144.2090061031
 30
0.0
  0
VERTEX
  5
AF
330
66
100
AcDbEntity
  8
DEFAULT
  6
CONTINUOUS
 62
     7
100
AcDbVertex
100
AcDb2dVertex
 10
26.6002622213
 20
141.209006077
 30
0.0
  0
VERTEX
  5
B0
330
66
100
AcDbEntity
  8
DEFAULT
  6
CONTINUOUS
 62
     7
100
AcDbVertex
100
AcDb2dVertex
 10
27.1002622257
 20
144.2090061031
 30
0.0
  0
VERTEX
  5
B1
330
66
100
AcDbEntity
  8
DEFAULT
  6
CONTINUOUS
 62
     7
100
AcDbVertex
100
AcDb2dVertex
 10
26.100262217
 20
144.2090061031
 30
0.0
  0
SEQEND
  5
AD
330
66
100
AcDbEntity
  8
DEFAULT
  6
CONTINUOUS
 62
     7
 48
25.4
  0
LINE
  5
67
330
63
100
AcDbEntity
  8
DEFAULT
  6
CONTINUOUS
 62
     7
 48
25.4
100
AcDbLine
 10
58.5173052516
 20
179.209006077
 30
0.0
 11
25.1002622083
 21
179.209006077
 31
0.0
  0
LINE
  5
68
330
63
100
AcDbEntity
  8
DEFAULT
  6
CONTINUOUS
 62
     7
 48
25.4
100
AcDbLine
 10
58.5173052516
 20
141.209006077
 30
0.0
 11
25.1002622083
 21
141.209006077
 31
0.0
  0
LINE
  5
69
330
63
100
AcDbEntity
  8
DEFAULT
  6
CONTINUOUS
 62
     7
 48
25.4
100
AcDbLine
 10
26.6002622213
 20
179.209006077
 30
0.0
 11
26.6002622213
 21
141.2090072989
 31
0.0
  0
TEXT
  5
6B
330
63
100
AcDbEntity
  8
DEFAULT
  6
CONTINUOUS
 62
     7
 48
25.4
100
AcDbText
 10
25.8502622213
 20
158.4703703243
 30
0.0
 40
3.0
  1
38
 50
90.0
  7
SEACAD_SEISO_TTF
 11
22.8502622213
 21
158.4703703243
 31
0.0
100
AcDbText
 73
     3
  0
ENDBLK
  5
6D
330
63
100
AcDbEntity
  8
0
100
AcDbBlockEnd
  0
BLOCK
  5
76
330
6E
100
AcDbEntity
  8
0
100
AcDbBlockBegin
  2
SE3
 70
     0
 71
     0
 10
0.0
 20
0.0
 30
0.0
  3
SE3
  1

  0
POLYLINE
  5
70
330
6E
100
AcDbEntity
  8
DEFAULT
  6
CONTINUOUS
 62
     7
 48
25.4
100
AcDb2dPolyline
 66
     1
 10
0.0
 20
0.0
 30
0.0
 70
     1
  0
VERTEX
  5
B3
330
70
100
AcDbEntity
  8
DEFAULT
  6
CONTINUOUS
 62
     7
100
AcDbVertex
100
AcDb2dVertex
 10
175.8133523997
 20
112.4156111927
 30
0.0
  0
VERTEX
  5
B4
330
70
100
AcDbEntity
  8
DEFAULT
  6
CONTINUOUS
 62
     7
100
AcDbVertex
100
AcDb2dVertex
 10
172.8133523736
 20
112.915611197
 30
0.0
  0
VERTEX
  5
B5
330
70
100
AcDbEntity
  8
DEFAULT
  6
CONTINUOUS
 62
     7
100
AcDbVertex
100
AcDb2dVertex
 10
175.8133523997
 20
113.4156112014
 30
0.0
  0
VERTEX
  5
B6
330
70
100
AcDbEntity
  8
DEFAULT
  6
CONTINUOUS
 62
     7
100
AcDbVertex
100
AcDb2dVertex
 10
175.8133523997
 20
112.4156111927
 30
0.0
  0
SEQEND
  5
B2
330
70
100
AcDbEntity
  8
DEFAULT
  6
CONTINUOUS
 62
     7
 48
25.4
  0
POLYLINE
  5
71
330
6E
100
AcDbEntity
  8
DEFAULT
  6
CONTINUOUS
 62
     7
 48
25.4
100
AcDb2dPolyline
 66
     1
 10
0.0
 20
0.0
 30
0.0
 70
     1
  0
VERTEX
  5
B8
330
71
100
AcDbEntity
  8
DEFAULT
  6
CONTINUOUS
 62
     7
100
AcDbVertex
100
AcDb2dVertex
 10
162.3133523476
 20
112.4156111927
 30
0.0
  0
VERTEX
  5
B9
330
71
100
AcDbEntity
  8
DEFAULT
  6
CONTINUOUS
 62
     7
100
AcDbVertex
100
AcDb2dVertex
 10
165.3133523736
 20
112.915611197
 30
0.0
  0
VERTEX
  5
BA
330
71
100
AcDbEntity
  8
DEFAULT
  6
CONTINUOUS
 62
     7
100
AcDbVertex
100
AcDb2dVertex
 10
162.3133523476
 20
113.4156112014
 30
0.0
  0
VERTEX
  5
BB
330
71
100
AcDbEntity
  8
DEFAULT
  6
CONTINUOUS
 62
     7
100
AcDbVertex
100
AcDb2dVertex
 10
162.3133523476
 20
112.4156111927
 30
0.0
  0
SEQEND
  5
B7
330
71
100
AcDbEntity
  8
DEFAULT
  6
CONTINUOUS
 62
     7
 48
25.4
  0
LINE
  5
72
330
6E
100
AcDbEntity
  8
DEFAULT
  6
CONTINUOUS
 62
     7
 48
25.4
100
AcDbLine
 10
172.8133523736
 20
137.3882632002
 30
0.0
 11
172.8133523736
 21
111.415611184
 31
0.0
  0
LINE
  5
73
330
6E
100
AcDbEntity
  8
DEFAULT
  6
CONTINUOUS
 62
     7
 48
25.4
100
AcDbLine
 10
165.3133523736
 20
151.1834883604
 30
0.0
 11
165.3133523736
 21
111.415611184
 31
0.0
  0
LINE
  5
74
330
6E
100
AcDbEntity
  8
DEFAULT
  6
CONTINUOUS
 62
     7
 48
25.4
100
AcDbLine
 10
178.8133524258
 20
112.915611197
 30
0.0
 11
159.3133520235
 21
112.915611197
 31
0.0
  0
TEXT
  5
75
330
6E
100
AcDbEntity
  8
DEFAULT
  6
CONTINUOUS
 62
     7
 48
25.4
100
AcDbText
 10
166.9838070029
 20
113.665611197
 30
0.0
 40
3.0
  1
7,5
  7
SEACAD_SEISO_TTF
 11
166.9838070029
 21
116.665611197
 31
0.0
100
AcDbText
 73
     3
  0
ENDBLK
  5
77
330
6E
100
AcDbEntity
  8
0
100
AcDbBlockEnd
  0
BLOCK
  5
80
330
78
100
AcDbEntity
  8
0
100
AcDbBlockBegin
  2
SE4
 70
     0
 71
     0
 10
0.0
 20
0.0
 30
0.0
  3
SE4
  1

  0
POLYLINE
  5
7A
330
78
100
AcDbEntity
  8
DEFAULT
  6
CONTINUOUS
 62
     7
 48
25.4
100
AcDb2dPolyline
 66
     1
 10
0.0
 20
0.0
 30
0.0
 70
     1
  0
VERTEX
  5
BD
330
7A
100
AcDbEntity
  8
DEFAULT
  6
CONTINUOUS
 62
     7
100
AcDbVertex
100
AcDb2dVertex
 10
164.7133523476
 20
119.2607374058
 30
0.0
  0
VERTEX
  5
BE
330
7A
100
AcDbEntity
  8
DEFAULT
  6
CONTINUOUS
 62
     7
100
AcDbVertex
100
AcDb2dVertex
 10
167.7133523736
 20
119.7607374101
 30
0.0
  0
VERTEX
  5
BF
330
7A
100
AcDbEntity
  8
DEFAULT
  6
CONTINUOUS
 62
     7
100
AcDbVertex
100
AcDb2dVertex
 10
164.7133523476
 20
120.2607374145
 30
0.0
  0
VERTEX
  5
C0
330
7A
100
AcDbEntity
  8
DEFAULT
  6
CONTINUOUS
 62
     7
100
AcDbVertex
100
AcDb2dVertex
 10
164.7133523476
 20
119.2607374058
 30
0.0
  0
SEQEND
  5
BC
330
7A
100
AcDbEntity
  8
DEFAULT
  6
CONTINUOUS
 62
     7
 48
25.4
  0
POLYLINE
  5
7B
330
78
100
AcDbEntity
  8
DEFAULT
  6
CONTINUOUS
 62
     7
 48
25.4
100
AcDb2dPolyline
 66
     1
 10
0.0
 20
0.0
 30
0.0
 70
     1
  0
VERTEX
  5
C2
330
7B
100
AcDbEntity
  8
DEFAULT
  6
CONTINUOUS
 62
     7
100
AcDbVertex
100
AcDb2dVertex
 10
175.8133523997
 20
119.2607374058
 30
0.0
  0
VERTEX
  5
C3
330
7B
100
AcDbEntity
  8
DEFAULT
  6
CONTINUOUS
 62
     7
100
AcDbVertex
100
AcDb2dVertex
 10
172.8133523736
 20
119.7607374101
 30
0.0
  0
VERTEX
  5
C4
330
7B
100
AcDbEntity
  8
DEFAULT
  6
CONTINUOUS
 62
     7
100
AcDbVertex
100
AcDb2dVertex
 10
175.8133523997
 20
120.2607374145
 30
0.0
  0
VERTEX
  5
C5
330
7B
100
AcDbEntity
  8
DEFAULT
  6
CONTINUOUS
 62
     7
100
AcDbVertex
100
AcDb2dVertex
 10
175.8133523997
 20
119.2607374058
 30
0.0
  0
SEQEND
  5
C1
330
7B
100
AcDbEntity
  8
DEFAULT
  6
CONTINUOUS
 62
     7
 48
25.4
  0
LINE
  5
7C
330
78
100
AcDbEntity
  8
DEFAULT
  6
CONTINUOUS
 62
     7
 48
25.4
100
AcDbLine
 10
167.7133523736
 20
136.209006077
 30
0.0
 11
167.7133523736
 21
118.2607373971
 31
0.0
  0
LINE
  5
7D
330
78
100
AcDbEntity
  8
DEFAULT
  6
CONTINUOUS
 62
     7
 48
25.4
100
AcDbLine
 10
172.8133523736
 20
137.3882632002
 30
0.0
 11
172.8133523736
 21
118.2607373971
 31
0.0
  0
LINE
  5
7E
330
78
100
AcDbEntity
  8
DEFAULT
  6
CONTINUOUS
 62
     7
 48
25.4
100
AcDbLine
 10
161.7133523215
 20
119.7607374101
 30
0.0
 11
178.8133521442
 21
119.7607374101
 31
0.0
  0
TEXT
  5
7F
330
78
100
AcDbEntity
  8
DEFAULT
  6
CONTINUOUS
 62
     7
 48
25.4
100
AcDbText
 10
168.524716102
 20
120.5107374101
 30
0.0
 40
3.0
  1
5,1
  7
SEACAD_SEISO_TTF
 11
168.524716102
 21
123.5107374101
 31
0.0
100
AcDbText
 73
     3
  0
ENDBLK
  5
81
330
78
100
AcDbEntity
  8
0
100
AcDbBlockEnd
  0
BLOCK
  5
8C
330
82
100
AcDbEntity
  8
0
100
AcDbBlockBegin
  2
SE5
 70
     0
 71
     0
 10
0.0
 20
0.0
 30
0.0
  3
SE5
  1

  0
POLYLINE
  5
84
330
82
100
AcDbEntity
  8
DEFAULT
  6
CONTINUOUS
 62
     7
 48
25.4
100
AcDb2dPolyline
 66
     1
 10
0.0
 20
0.0
 30
0.0
 70
     1
  0
VERTEX
  5
C7
330
84
100
AcDbEntity
  8
DEFAULT
  6
CONTINUOUS
 62
     7
100
AcDbVertex
100
AcDb2dVertex
 10
102.3359840853
 20
153.7043680086
 30
0.0
  0
VERTEX
  5
C8
330
84
100
AcDbEntity
  8
DEFAULT
  6
CONTINUOUS
 62
     7
100
AcDbVertex
100
AcDb2dVertex
 10
102.8359840896
 20
156.7043680346
 30
0.0
  0
VERTEX
  5
C9
330
84
100
AcDbEntity
  8
DEFAULT
  6
CONTINUOUS
 62
     7
100
AcDbVertex
100
AcDb2dVertex
 10
103.335984094
 20
153.7043680086
 30
0.0
  0
VERTEX
  5
CA
330
84
100
AcDbEntity
  8
DEFAULT
  6
CONTINUOUS
 62
     7
100
AcDbVertex
100
AcDb2dVertex
 10
102.3359840853
 20
153.7043680086
 30
0.0
  0
SEQEND
  5
C6
330
84
100
AcDbEntity
  8
DEFAULT
  6
CONTINUOUS
 62
     7
 48
25.4
  0
POLYLINE
  5
85
330
82
100
AcDbEntity
  8
DEFAULT
  6
CONTINUOUS
 62
     7
 48
25.4
100
AcDb2dPolyline
 66
     1
 10
0.0
 20
0.0
 30
0.0
 70
     1
  0
VERTEX
  5
CC
330
85
100
AcDbEntity
  8
DEFAULT
  6
CONTINUOUS
 62
     7
100
AcDbVertex
100
AcDb2dVertex
 10
102.3359840853
 20
166.7043680607
 30
0.0
  0
VERTEX
  5
CD
330
85
100
AcDbEntity
  8
DEFAULT
  6
CONTINUOUS
 62
     7
100
AcDbVertex
100
AcDb2dVertex
 10
102.8359840896
 20
163.7043680346
 30
0.0
  0
VERTEX
  5
CE
330
85
100
AcDbEntity
  8
DEFAULT
  6
CONTINUOUS
 62
     7
100
AcDbVertex
100
AcDb2dVertex
 10
103.335984094
 20
166.7043680607
 30
0.0
  0
VERTEX
  5
CF
330
85
100
AcDbEntity
  8
DEFAULT
  6
CONTINUOUS
 62
     7
100
AcDbVertex
100
AcDb2dVertex
 10
102.3359840853
 20
166.7043680607
 30
0.0
  0
SEQEND
  5
CB
330
85
100
AcDbEntity
  8
DEFAULT
  6
CONTINUOUS
 62
     7
 48
25.4
  0
LINE
  5
86
330
82
100
AcDbEntity
  8
DEFAULT
  6
CONTINUOUS
 62
     7
 48
25.4
100
AcDbLine
 10
107.8133523736
 20
156.7043680346
 30
0.0
 11
101.3359840766
 21
156.7043680346
 31
0.0
  0
LINE
  5
87
330
82
100
AcDbEntity
  8
DEFAULT
  6
CONTINUOUS
 62
     7
 48
25.4
100
AcDbLine
 10
107.8133523736
 20
163.7043680346
 30
0.0
 11
101.3359840766
 21
163.7043680346
 31
0.0
  0
LINE
  5
88
330
82
100
AcDbEntity
  8
DEFAULT
  6
CONTINUOUS
 62
     7
 48
25.4
100
AcDbLine
 10
102.8359840896
 20
150.7043679825
 30
0.0
 11
102.8359840896
 21
169.7043683029
 31
0.0
  0
TEXT
  5
89
330
82
100
AcDbEntity
  8
DEFAULT
  6
CONTINUOUS
 62
     7
 48
25.4
100
AcDbText
 10
102.0859840896
 20
161.1028794567
 30
0.0
 40
3.0
  1
7
 50
90.0
  7
SEACAD_SEISO_TTF
 11
99.0859840896
 21
161.1028794567
 31
0.0
100
AcDbText
 73
     3
  0
TEXT
  5
8B
330
82
100
AcDbEntity
  8
DEFAULT
  6
CONTINUOUS
 62
     7
 48
25.4
100
AcDbText
 10
102.0859840896
 20
157.3967659196
 30
0.0
 40
3.0
  1
q
 50
90.0
  7
SEACAD_SEMECI1_TTF
 11
99.0859840896
 21
157.3967659196
 31
0.0
100
AcDbText
 73
     3
  0
ENDBLK
  5
8D
330
82
100
AcDbEntity
  8
0
100
AcDbBlockEnd
  0
BLOCK
  5
97
330
8E
100
AcDbEntity
  8
0
100
AcDbBlockBegin
  2
SE6
 70
     0
 71
     0
 10
0.0
 20
0.0
 30
0.0
  3
SE6
  1

  0
POLYLINE
  5
90
330
8E
100
AcDbEntity
  8
DEFAULT
  6
CONTINUOUS
 62
     7
 48
25.4
100
AcDb2dPolyline
 66
     1
 10
0.0
 20
0.0
 30
0.0
 70
     1
  0
VERTEX
  5
D1
330
90
100
AcDbEntity
  8
DEFAULT
  6
CONTINUOUS
 62
     7
100
AcDbVertex
100
AcDb2dVertex
 10
186.5235377419
 20
154.2043680086
 30
0.0
  0
VERTEX
  5
D2
330
90
100
AcDbEntity
  8
DEFAULT
  6
CONTINUOUS
 62
     7
100
AcDbVertex
100
AcDb2dVertex
 10
186.0235377375
 20
157.2043680346
 30
0.0
  0
VERTEX
  5
D3
330
90
100
AcDbEntity
  8
DEFAULT
  6
CONTINUOUS
 62
     7
100
AcDbVertex
100
AcDb2dVertex
 10
185.5235377332
 20
154.2043680086
 30
0.0
  0
VERTEX
  5
D4
330
90
100
AcDbEntity
  8
DEFAULT
  6
CONTINUOUS
 62
     7
100
AcDbVertex
100
AcDb2dVertex
 10
186.5235377419
 20
154.2043680086
 30
0.0
  0
SEQEND
  5
D0
330
90
100
AcDbEntity
  8
DEFAULT
  6
CONTINUOUS
 62
     7
 48
25.4
  0
POLYLINE
  5
91
330
8E
100
AcDbEntity
  8
DEFAULT
  6
CONTINUOUS
 62
     7
 48
25.4
100
AcDb2dPolyline
 66
     1
 10
0.0
 20
0.0
 30
0.0
 70
     1
  0
VERTEX
  5
D6
330
91
100
AcDbEntity
  8
DEFAULT
  6
CONTINUOUS
 62
     7
100
AcDbVertex
100
AcDb2dVertex
 10
186.5235377419
 20
166.2043680607
 30
0.0
  0
VERTEX
  5
D7
330
91
100
AcDbEntity
  8
DEFAULT
  6
CONTINUOUS
 62
     7
100
AcDbVertex
100
AcDb2dVertex
 10
186.0235377375
 20
163.2043680346
 30
0.0
  0
VERTEX
  5
D8
330
91
100
AcDbEntity
  8
DEFAULT
  6
CONTINUOUS
 62
     7
100
AcDbVertex
100
AcDb2dVertex
 10
185.5235377332
 20
166.2043680607
 30
0.0
  0
VERTEX
  5
D9
330
91
100
AcDbEntity
  8
DEFAULT
  6
CONTINUOUS
 62
     7
100
AcDbVertex
100
AcDb2dVertex
 10
186.5235377419
 20
166.2043680607
 30
0.0
  0
SEQEND
  5
D5
330
91
100
AcDbEntity
  8
DEFAULT
  6
CONTINUOUS
 62
     7
 48
25.4
  0
LINE
  5
92
330
8E
100
AcDbEntity
  8
DEFAULT
  6
CONTINUOUS
 62
     7
 48
25.4
100
AcDbLine
 10
169.8133523736
 20
157.2043680346
 30
0.0
 11
187.5235377506
 21
157.2043680346
 31
0.0
  0
LINE
  5
93
330
8E
100
AcDbEntity
  8
DEFAULT
  6
CONTINUOUS
 62
     7
 48
25.4
100
AcDbLine
 10
172.8133523736
 20
163.2043680346
 30
0.0
 11
187.5235377506
 21
163.2043680346
 31
0.0
  0
LINE
  5
94
330
8E
100
AcDbEntity
  8
DEFAULT
  6
CONTINUOUS
 62
     7
 48
25.4
100
AcDbLine
 10
186.0235377375
 20
151.2043679825
 30
0.0
 11
186.0235377375
 21
169.2043681389
 31
0.0
  0
TEXT
  5
95
330
8E
100
AcDbEntity
  8
DEFAULT
  6
CONTINUOUS
 62
     7
 48
25.4
100
AcDbText
 10
185.2735377375
 20
161.1369702838
 30
0.0
 40
3.0
  1
6
 50
90.0
  7
SEACAD_SEISO_TTF
 11
182.2735377375
 21
161.1369702838
 31
0.0
100
AcDbText
 73
     3
  0
TEXT
  5
96
330
8E
100
AcDbEntity
  8
DEFAULT
  6
CONTINUOUS
 62
     7
 48
25.4
100
AcDbText
 10
185.2735377375
 20
157.4308567467
 30
0.0
 40
3.0
  1
q
 50
90.0
  7
SEACAD_SEMECI1_TTF
 11
182.2735377375
 21
157.4308567467
 31
0.0
100
AcDbText
 73
     3
  0
ENDBLK
  5
98
330
8E
100
AcDbEntity
  8
0
100
AcDbBlockEnd
  0
BLOCK
  5
A1
330
99
100
AcDbEntity
  8
0
100
AcDbBlockBegin
  2
SE7
 70
     0
 71
     0
 10
0.0
 20
0.0
 30
0.0
  3
SE7
  1

  0
POLYLINE
  5
9B
330
99
100
AcDbEntity
  8
DEFAULT
  6
CONTINUOUS
 62
     7
 48
25.4
100
AcDb2dPolyline
 66
     1
 10
0.0
 20
0.0
 30
0.0
 70
     1
  0
VERTEX
  5
DB
330
9B
100
AcDbEntity
  8
DEFAULT
  6
CONTINUOUS
 62
     7
100
AcDbVertex
100
AcDb2dVertex
 10
164.7133523476
 20
193.3791219248
 30
0.0
  0
VERTEX
  5
DC
330
9B
100
AcDbEntity
  8
DEFAULT
  6
CONTINUOUS
 62
     7
100
AcDbVertex
100
AcDb2dVertex
 10
167.7133523736
 20
192.8791219204
 30
0.0
  0
VERTEX
  5
DD
330
9B
100
AcDbEntity
  8
DEFAULT
  6
CONTINUOUS
 62
     7
100
AcDbVertex
100
AcDb2dVertex
 10
164.7133523476
 20
192.3791219161
 30
0.0
  0
VERTEX
  5
DE
330
9B
100
AcDbEntity
  8
DEFAULT
  6
CONTINUOUS
 62
     7
100
AcDbVertex
100
AcDb2dVertex
 10
164.7133523476
 20
193.3791219248
 30
0.0
  0
SEQEND
  5
DA
330
9B
100
AcDbEntity
  8
DEFAULT
  6
CONTINUOUS
 62
     7
 48
25.4
  0
POLYLINE
  5
9C
330
99
100
AcDbEntity
  8
DEFAULT
  6
CONTINUOUS
 62
     7
 48
25.4
100
AcDb2dPolyline
 66
     1
 10
0.0
 20
0.0
 30
0.0
 70
     1
  0
VERTEX
  5
E0
330
9C
100
AcDbEntity
  8
DEFAULT
  6
CONTINUOUS
 62
     7
100
AcDbVertex
100
AcDb2dVertex
 10
110.8133523997
 20
193.3791219248
 30
0.0
  0
VERTEX
  5
E1
330
9C
100
AcDbEntity
  8
DEFAULT
  6
CONTINUOUS
 62
     7
100
AcDbVertex
100
AcDb2dVertex
 10
107.8133523736
 20
192.8791219204
 30
0.0
  0
VERTEX
  5
E2
330
9C
100
AcDbEntity
  8
DEFAULT
  6
CONTINUOUS
 62
     7
100
AcDbVertex
100
AcDb2dVertex
 10
110.8133523997
 20
192.3791219161
 30
0.0
  0
VERTEX
  5
E3
330
9C
100
AcDbEntity
  8
DEFAULT
  6
CONTINUOUS
 62
     7
100
AcDbVertex
100
AcDb2dVertex
 10
110.8133523997
 20
193.3791219248
 30
0.0
  0
SEQEND
  5
DF
330
9C
100
AcDbEntity
  8
DEFAULT
  6
CONTINUOUS
 62
     7
 48
25.4
  0
LINE
  5
9D
330
99
100
AcDbEntity
  8
DEFAULT
  6
CONTINUOUS
 62
     7
 48
25.4
100
AcDbLine
 10
167.7133523736
 20
184.209006077
 30
0.0
 11
167.7133523736
 21
194.3791219335
 31
0.0
  0
LINE
  5
9E
330
99
100
AcDbEntity
  8
DEFAULT
  6
CONTINUOUS
 62
     7
 48
25.4
100
AcDbLine
 10
107.8133523736
 20
163.7043680346
 30
0.0
 11
107.8133523736
 21
194.3791219335
 31
0.0
  0
LINE
  5
9F
330
99
100
AcDbEntity
  8
DEFAULT
  6
CONTINUOUS
 62
     7
 48
25.4
100
AcDbLine
 10
167.7133523736
 20
192.8791219204
 30
0.0
 11
107.8133516822
 21
192.8791219204
 31
0.0
  0
TEXT
  5
A0
330
99
100
AcDbEntity
  8
DEFAULT
  6
CONTINUOUS
 62
     7
 48
25.4
100
AcDbText
 10
135.9565338461
 20
193.6291219204
 30
0.0
 40
3.0
  1
60
  7
SEACAD_SEISO_TTF
 11
135.9565338461
 21
196.6291219204
 31
0.0
100
AcDbText
 73
     3
  0
ENDBLK
  5
A2
330
99
100
AcDbEntity
  8
0
100
AcDbBlockEnd
  0
BLOCK
  5
AB
330
A3
100
AcDbEntity
  8
0
100
AcDbBlockBegin
  2
SE8
 70
     0
 71
     0
 10
0.0
 20
0.0
 30
0.0
  3
SE8
  1

  0
POLYLINE
  5
A5
330
A3
100
AcDbEntity
  8
DEFAULT
  6
CONTINUOUS
 62
     7
 48
25.4
100
AcDb2dPolyline
 66
     1
 10
0.0
 20
0.0
 30
0.0
 70
     1
  0
VERTEX
  5
E5
330
A5
100
AcDbEntity
  8
DEFAULT
  6
CONTINUOUS
 62
     7
100
AcDbVertex
100
AcDb2dVertex
 10
92.4383755575
 20
139.2090075858
 30
0.0
  0
VERTEX
  5
E6
330
A5
100
AcDbEntity
  8
DEFAULT
  6
CONTINUOUS
 62
     7
100
AcDbVertex
100
AcDb2dVertex
 10
91.9383756843
 20
136.2090075379
 30
0.0
  0
VERTEX
  5
E7
330
A5
100
AcDbEntity
  8
DEFAULT
  6
CONTINUOUS
 62
     7
100
AcDbVertex
100
AcDb2dVertex
 10
91.4383755488
 20
139.2090075421
 30
0.0
  0
VERTEX
  5
E8
330
A5
100
AcDbEntity
  8
DEFAULT
  6
CONTINUOUS
 62
     7
100
AcDbVertex
100
AcDb2dVertex
 10
92.4383755575
 20
139.2090075858
 30
0.0
  0
SEQEND
  5
E4
330
A5
100
AcDbEntity
  8
DEFAULT
  6
CONTINUOUS
 62
     7
 48
25.4
  0
POLYLINE
  5
A6
330
A3
100
AcDbEntity
  8
DEFAULT
  6
CONTINUOUS
 62
     7
 48
25.4
100
AcDb2dPolyline
 66
     1
 10
0.0
 20
0.0
 30
0.0
 70
     1
  0
VERTEX
  5
EA
330
A6
100
AcDbEntity
  8
DEFAULT
  6
CONTINUOUS
 62
     7
100
AcDbVertex
100
AcDb2dVertex
 10
92.4383737216
 20
181.2090075337
 30
0.0
  0
VERTEX
  5
EB
330
A6
100
AcDbEntity
  8
DEFAULT
  6
CONTINUOUS
 62
     7
100
AcDbVertex
100
AcDb2dVertex
 10
91.9383735862
 20
184.2090075379
 30
0.0
  0
VERTEX
  5
EC
330
A6
100
AcDbEntity
  8
DEFAULT
  6
CONTINUOUS
 62
     7
100
AcDbVertex
100
AcDb2dVertex
 10
91.4383737129
 20
181.20900749
 30
0.0
  0
VERTEX
  5
ED
330
A6
100
AcDbEntity
  8
DEFAULT
  6
CONTINUOUS
 62
     7
100
AcDbVertex
100
AcDb2dVertex
 10
92.4383737216
 20
181.2090075337
 30
0.0
  0
SEQEND
  5
E9
330
A6
100
AcDbEntity
  8
DEFAULT
  6
CONTINUOUS
 62
     7
 48
25.4
  0
LINE
  5
A7
330
A3
100
AcDbEntity
  8
DEFAULT
  6
CONTINUOUS
 62
     7
 48
25.4
100
AcDbLine
 10
58.5173063007
 20
136.209006077
 30
0.0
 11
93.4383756973
 21
136.2090076035
 31
0.0
  0
LINE
  5
A8
330
A3
100
AcDbEntity
  8
DEFAULT
  6
CONTINUOUS
 62
     7
 48
25.4
100
AcDbLine
 10
58.5173042025
 20
184.209006077
 30
0.0
 11
93.4383735992
 21
184.2090076035
 31
0.0
  0
LINE
  5
A9
330
A3
100
AcDbEntity
  8
DEFAULT
  6
CONTINUOUS
 62
     7
 48
25.4
100
AcDbLine
 10
91.9383756843
 20
136.2090075379
 30
0.0
 11
91.9383735862
 21
184.2090079551
 31
0.0
  0
TEXT
  5
AA
330
A3
100
AcDbEntity
  8
DEFAULT
  6
CONTINUOUS
 62
     7
 48
25.4
100
AcDbText
 10
91.1883746352
 20
158.3680986556
 30
0.0
 40
3.0
  1
48
 50
90.0
  7
SEACAD_SEISO_TTF
 11
88.1883746352
 21
158.3680986556
 31
0.0
100
AcDbText
 73
     3
  0
ENDBLK
  5
AC
330
A3
100
AcDbEntity
  8
0
100
AcDbBlockEnd
  0
ENDSEC
  0
SECTION
  2
ENTITIES
  0
INSERT
  5
2F
330
1F
100
AcDbEntity
  8
0
100
AcDbBlockReference
  2
SE
 10
0.0
 20
0.0
 30
0.0
  0
INSERT
  5
4A
330
1F
100
AcDbEntity
  8
0
100
AcDbBlockReference
  2
SE1
 10
0.0
 20
0.0
 30
0.0
  0
INSERT
  5
64
330
1F
100
AcDbEntity
  8
0
100
AcDbBlockReference
  2
SE2
 10
0.0
 20
0.0
 30
0.0
  0
INSERT
  5
6F
330
1F
100
AcDbEntity
  8
0
100
AcDbBlockReference
  2
SE3
 10
0.0
 20
0.0
 30
0.0
  0
INSERT
  5
79
330
1F
100
AcDbEntity
  8
0
100
AcDbBlockReference
  2
SE4
 10
0.0
 20
0.0
 30
0.0
  0
INSERT
  5
83
330
1F
100
AcDbEntity
  8
0
100
AcDbBlockReference
  2
SE5
 10
0.0
 20
0.0
 30
0.0
  0
INSERT
  5
8F
330
1F
100
AcDbEntity
  8
0
100
AcDbBlockReference
  2
SE6
 10
0.0
 20
0.0
 30
0.0
  0
INSERT
  5
9A
330
1F
100
AcDbEntity
  8
0
100
AcDbBlockReference
  2
SE7
 10
0.0
 20
0.0
 30
0.0
  0
INSERT
  5
A4
330
1F
100
AcDbEntity
  8
0
100
AcDbBlockReference
  2
SE8
 10
0.0
 20
0.0
 30
0.0
  0
ENDSEC
  0
SECTION
  2
OBJECTS
  0
DICTIONARY
  5
C
330
0
100
AcDbDictionary
  3
ACAD_GROUP
350
D
  3
ACAD_LAYOUT
350
1A
  3
ACAD_MLINESTYLE
350
17
  3
ACAD_PLOTSETTINGS
350
19
  3
ACAD_TABLESTYLE
350
2A
  3
ACDBVARIABLEDICTIONARY
350
2C
1001
ACAD
1000
TREAT_AS_HARD
1070
     0
  0
DICTIONARY
  5
EE
330
29
100
AcDbDictionary
  3
ACAD_XREC_ROUNDTRIP
360
EF
  0
DICTIONARY
  5
D
102
{ACAD_REACTORS
330
C
102
}
330
C
100
AcDbDictionary
1001
ACAD
1000
TREAT_AS_HARD
1070
     0
  0
DICTIONARY
  5
1A
102
{ACAD_REACTORS
330
C
102
}
330
C
100
AcDbDictionary
1001
ACAD
1000
TREAT_AS_HARD
1070
     0
  0
DICTIONARY
  5
17
102
{ACAD_REACTORS
330
C
102
}
330
C
100
AcDbDictionary
  3
STANDARD
350
18
1001
ACAD
1000
TREAT_AS_HARD
1070
     0
  0
DICTIONARY
  5
19
102
{ACAD_REACTORS
330
C
102
}
330
C
100
AcDbDictionary
1001
ACAD
1000
TREAT_AS_HARD
1070
     0
  0
DICTIONARY
  5
2A
102
{ACAD_REACTORS
330
C
102
}
330
C
100
AcDbDictionary
  3
STANDARD
350
2B
1001
ACAD
1000
TREAT_AS_HARD
1070
     0
  0
DICTIONARY
  5
2C
102
{ACAD_REACTORS
330
C
102
}
330
C
100
AcDbDictionary
  3
CTABLESTYLE
350
2D
1001
ACAD
1000
TREAT_AS_HARD
1070
     0
  0
XRECORD
  5
EF
102
{ACAD_REACTORS
330
EE
102
}
330
EE
100
AcDbXrecord
102
UCS
 74
     0
 71
     1
 10
0.0
 20
0.0
 30
0.0
 10
1.0
 20
0.0
 30
0.0
 10
0.0
 20
1.0
 30
0.0
146
0.0
 79
     0
102
VIEW
281
     0
  0
MLINESTYLE
  5
18
102
{ACAD_REACTORS
330
17
102
}
330
17
100
AcDbMlineStyle
  2
Standard
 70
     0
  3

 62
   256
 51
90.0
 52
90.0
 71
     2
 49
0.5
 62
   256
  6
BYLAYER
 49
-0.5
 62
   256
  6
BYLAYER
  0
TABLESTYLE
  5
2B
102
{ACAD_REACTORS
330
2A
102
}
330
2A
100
AcDbTableStyle
  3
Standard
 70
     0
 71
     0
 40
0.06
 41
0.06
280
     0
281
     0
  7
STANDARD
140
0.18
170
     2
 62
     0
 63
     7
283
     0
274
    -2
284
     1
 64
     0
275
    -2
285
     1
 65
     0
276
    -2
286
     1
 66
     0
277
    -2
287
     1
 67
     0
278
    -2
288
     1
 68
     0
279
    -2
289
     1
 69
     0
  7
STANDARD
140
0.25
170
     5
 62
     0
 63
     7
283
     0
274
    -2
284
     1
 64
     0
275
    -2
285
     1
 65
     0
276
    -2
286
     1
 66
     0
277
    -2
287
     1
 67
     0
278
    -2
288
     1
 68
     0
279
    -2
289
     1
 69
     0
  7
STANDARD
140
0.18
170
     5
 62
     0
 63
     7
283
     0
274
    -2
284
     1
 64
     0
275
    -2
285
     1
 65
     0
276
    -2
286
     1
 66
     0
277
    -2
287
     1
 67
     0
278
    -2
288
     1
 68
     0
279
    -2
289
     1
 69
     0
  0
DICTIONARYVAR
  5
2D
102
{ACAD_REACTORS
330
2C
102
}
330
2C
100
DictionaryVariables
280
     0
  1
Standard
  0
ENDSEC
  0
EOF
