  0
SECTION
  2
HEADER
  9
$ACADVER
  1
AC1012
  9
$DWGCODEPAGE
  3
ansi_1252
  9
$INSBASE
 10
0.0
 20
0.0
 30
0.0
  9
$EXTMIN
 10
0.0
 20
0.0
 30
0.0
  9
$EXTMAX
 10
210.0
 20
297.0
 30
0.0
  9
$LIMMIN
 10
0.0
 20
0.0
  9
$LIMMAX
 10
210.0
 20
297.0
  9
$ORTHOMODE
 70
     0
  9
$REGENMODE
 70
     1
  9
$FILLMODE
 70
     1
  9
$QTEXTMODE
 70
     0
  9
$MIRRTEXT
 70
     1
  9
$DRAGMODE
 70
     2
  9
$LTSCALE
 40
1.0
  9
$OSMODE
 70
    37
  9
$ATTMODE
 70
     1
  9
$TEXTSIZE
 40
0.2
  9
$TRACEWID
 40
0.05
  9
$TEXTSTYLE
  7
STANDARD
  9
$CLAYER
  8
0
  9
$CELTYPE
  6
BYLAYER
  9
$CECOLOR
 62
   256
  9
$CELTSCALE
 40
25.4
  9
$DELOBJ
 70
     1
  9
$DISPSILH
 70
     0
  9
$DIMSCALE
 40
1.0
  9
$DIMASZ
 40
0.18
  9
$DIMEXO
 40
0.0625
  9
$DIMDLI
 40
0.38
  9
$DIMRND
 40
0.0
  9
$DIMDLE
 40
0.0
  9
$DIMEXE
 40
0.18
  9
$DIMTP
 40
0.0
  9
$DIMTM
 40
0.0
  9
$DIMTXT
 40
0.18
  9
$DIMCEN
 40
0.09
  9
$DIMTSZ
 40
0.0
  9
$DIMTOL
 70
     0
  9
$DIMLIM
 70
     0
  9
$DIMTIH
 70
     1
  9
$DIMTOH
 70
     1
  9
$DIMSE1
 70
     0
  9
$DIMSE2
 70
     0
  9
$DIMTAD
 70
     0
  9
$DIMZIN
 70
     0
  9
$DIMBLK
  1

  9
$DIMASO
 70
     1
  9
$DIMSHO
 70
     1
  9
$DIMPOST
  1

  9
$DIMAPOST
  1

  9
$DIMALT
 70
     0
  9
$DIMALTD
 70
     2
  9
$DIMALTF
 40
25.4
  9
$DIMLFAC
 40
1.0
  9
$DIMTOFL
 70
     0
  9
$DIMTVP
 40
0.0
  9
$DIMTIX
 70
     0
  9
$DIMSOXD
 70
     0
  9
$DIMSAH
 70
     0
  9
$DIMBLK1
  1

  9
$DIMBLK2
  1

  9
$DIMSTYLE
  2
STANDARD
  9
$DIMCLRD
 70
     0
  9
$DIMCLRE
 70
     0
  9
$DIMCLRT
 70
     0
  9
$DIMTFAC
 40
1.0
  9
$DIMGAP
 40
0.09
  9
$DIMJUST
 70
     0
  9
$DIMSD1
 70
     0
  9
$DIMSD2
 70
     0
  9
$DIMTOLJ
 70
     1
  9
$DIMTZIN
 70
     0
  9
$DIMALTZ
 70
     0
  9
$DIMALTTZ
 70
     0
  9
$DIMFIT
 70
     3
  9
$DIMUPT
 70
     0
  9
$DIMUNIT
 70
     2
  9
$DIMDEC
 70
     4
  9
$DIMTDEC
 70
     4
  9
$DIMALTU
 70
     2
  9
$DIMALTTD
 70
     2
  9
$DIMTXSTY
  7
STANDARD
  9
$DIMAUNIT
 70
     0
  9
$LUNITS
 70
     2
  9
$LUPREC
 70
     4
  9
$SKETCHINC
 40
0.1
  9
$FILLETRAD
 40
0.5
  9
$AUNITS
 70
     0
  9
$AUPREC
 70
     0
  9
$MENU
  1
.
  9
$ELEVATION
 40
0.0
  9
$PELEVATION
 40
0.0
  9
$THICKNESS
 40
0.0
  9
$LIMCHECK
 70
     0
  9
$CHAMFERA
 40
0.5
  9
$CHAMFERB
 40
0.5
  9
$CHAMFERC
 40
1.0
  9
$CHAMFERD
 40
0.0
  9
$SKPOLY
 70
     0
  9
$TDCREATE
 40
2453762.545067917
  9
$TDUPDATE
 40
2453762.545067928
  9
$TDINDWG
 40
0.0000000116
  9
$TDUSRTIMER
 40
0.0000000116
  9
$USRTIMER
 70
     1
  9
$ANGBASE
 50
0.0
  9
$ANGDIR
 70
     0
  9
$PDMODE
 70
     0
  9
$PDSIZE
 40
0.0
  9
$PLINEWID
 40
0.0
  9
$COORDS
 70
     1
  9
$SPLFRAME
 70
     0
  9
$SPLINETYPE
 70
     6
  9
$SPLINESEGS
 70
     8
  9
$ATTDIA
 70
     0
  9
$ATTREQ
 70
     1
  9
$HANDLING
 70
     1
  9
$HANDSEED
  5
BE
  9
$SURFTAB1
 70
     6
  9
$SURFTAB2
 70
     6
  9
$SURFTYPE
 70
     6
  9
$SURFU
 70
     6
  9
$SURFV
 70
     6
  9
$UCSNAME
  2

  9
$UCSORG
 10
0.0
 20
0.0
 30
0.0
  9
$UCSXDIR
 10
1.0
 20
0.0
 30
0.0
  9
$UCSYDIR
 10
0.0
 20
1.0
 30
0.0
  9
$PUCSNAME
  2

  9
$PUCSORG
 10
0.0
 20
0.0
 30
0.0
  9
$PUCSXDIR
 10
1.0
 20
0.0
 30
0.0
  9
$PUCSYDIR
 10
0.0
 20
1.0
 30
0.0
  9
$USERI1
 70
     0
  9
$USERI2
 70
     0
  9
$USERI3
 70
     0
  9
$USERI4
 70
     0
  9
$USERI5
 70
     0
  9
$USERR1
 40
0.0
  9
$USERR2
 40
0.0
  9
$USERR3
 40
0.0
  9
$USERR4
 40
0.0
  9
$USERR5
 40
0.0
  9
$WORLDVIEW
 70
     1
  9
$SHADEDGE
 70
     3
  9
$SHADEDIF
 70
    70
  9
$TILEMODE
 70
     1
  9
$MAXACTVP
 70
    64
  9
$PINSBASE
 10
0.0
 20
0.0
 30
0.0
  9
$PLIMCHECK
 70
     0
  9
$PEXTMIN
 10
0.0
 20
0.0
 30
0.0
  9
$PEXTMAX
 10
210.0
 20
297.0
 30
0.0
  9
$PLIMMIN
 10
0.0
 20
0.0
  9
$PLIMMAX
 10
12.0
 20
9.0
  9
$UNITMODE
 70
     0
  9
$VISRETAIN
 70
     1
  9
$PLINEGEN
 70
     0
  9
$PSLTSCALE
 70
     1
  9
$TREEDEPTH
 70
  3020
  9
$PICKSTYLE
 70
     1
  9
$CMLSTYLE
  2
STANDARD
  9
$CMLJUST
 70
     0
  9
$CMLSCALE
 40
1.0
  9
$SAVEIMAGES
 70
     1
  0
ENDSEC
  0
SECTION
  2
CLASSES
  0
CLASS
  1
ACDBDICTIONARYWDFLT
  2
AcDbDictionaryWithDefault
  3
ObjectDBX Classes
 90
        0
280
     0
281
     0
  0
CLASS
  1
TABLESTYLE
  2
AcDbTableStyle
  3
ObjectDBX Classes
 90
     2047
280
     0
281
     0
  0
CLASS
  1
DICTIONARYVAR
  2
AcDbDictionaryVar
  3
ObjectDBX Classes
 90
        0
280
     0
281
     0
  0
CLASS
  1
XRECORD
  2
AcDbXrecord
  3
AutoCAD 2000
 90
    32768
280
     0
281
     0
  0
CLASS
  1
LWPOLYLINE
  2
AcDbPolyline
  3
AutoCAD 2000
 90
    32768
280
     0
281
     1
  0
CLASS
  1
HATCH
  2
AcDbHatch
  3
AutoCAD 2000
 90
    32768
280
     0
281
     1
  0
CLASS
  1
ACDBPLACEHOLDER
  2
AcDbPlaceHolder
  3
ObjectDBX Classes
 90
        0
280
     0
281
     0
  0
CLASS
  1
LAYOUT
  2
AcDbLayout
  3
ObjectDBX Classes
 90
        0
280
     0
281
     0
  0
ENDSEC
  0
SECTION
  2
TABLES
  0
TABLE
  2
VPORT
  5
8
330
0
100
AcDbSymbolTable
 70
     2
  0
VPORT
  5
29
102
{ACAD_XDICTIONARY
360
BC
102
}
330
8
100
AcDbSymbolTableRecord
100
AcDbViewportTableRecord
  2
*ACTIVE
 70
     0
 10
0.0
 20
0.0
 11
1.0
 21
1.0
 12
10.4299065421
 22
4.5
 13
0.0
 23
0.0
 14
0.5
 24
0.5
 15
0.5
 25
0.5
 16
0.0
 26
0.0
 36
1.0
 17
0.0
 27
0.0
 37
0.0
 40
9.0
 41
1.9729729729
 42
50.0
 43
0.0
 44
0.0
 50
0.0
 51
0.0
 71
     0
 72
   100
 73
     1
 74
     3
 75
     0
 76
     0
 77
     0
 78
     0
  0
ENDTAB
  0
TABLE
  2
LTYPE
  5
5
330
0
100
AcDbSymbolTable
 70
     2
  0
LTYPE
  5
14
330
5
100
AcDbSymbolTableRecord
100
AcDbLinetypeTableRecord
  2
BYBLOCK
 70
     0
  3

 72
    65
 73
     0
 40
0.0
  0
LTYPE
  5
15
330
5
100
AcDbSymbolTableRecord
100
AcDbLinetypeTableRecord
  2
BYLAYER
 70
     0
  3

 72
    65
 73
     0
 40
0.0
  0
LTYPE
  5
16
330
5
100
AcDbSymbolTableRecord
100
AcDbLinetypeTableRecord
  2
CONTINUOUS
 70
     0
  3
Solid line
 72
    65
 73
     0
 40
0.0
  0
LTYPE
  5
65
330
5
100
AcDbSymbolTableRecord
100
AcDbLinetypeTableRecord
  2
CENTER2
 70
     0
  3
___ _ ___ _ ___ _ ___ _ ___ _ ___ _ ___ _ ___ _
 72
    65
 73
     4
 40
1.125
 49
0.75
 74
     4
 75
     0
340
0
 46
0.0
 50
0.0
 44
0.0
 45
0.0
 49
-0.125
 74
     4
 75
     0
340
0
 46
0.0
 50
0.0
 44
0.0
 45
0.0
 49
0.125
 74
     4
 75
     0
340
0
 46
0.0
 50
0.0
 44
0.0
 45
0.0
 49
-0.125
 74
     4
 75
     0
340
0
 46
0.0
 50
0.0
 44
0.0
 45
0.0
  0
ENDTAB
  0
TABLE
  2
LAYER
  5
2
330
0
100
AcDbSymbolTable
 70
     6
  0
LAYER
  5
10
330
2
100
AcDbSymbolTableRecord
100
AcDbLayerTableRecord
  2
0
 70
     0
 62
     7
  6
CONTINUOUS
  0
LAYER
  5
30
330
2
100
AcDbSymbolTableRecord
100
AcDbLayerTableRecord
  2
MEGA_002129
 70
     0
 62
     7
  6
CONTINUOUS
  0
LAYER
  5
46
330
2
100
AcDbSymbolTableRecord
100
AcDbLayerTableRecord
  2
MEGA_002153
 70
     0
 62
     7
  6
CONTINUOUS
  0
LAYER
  5
4A
330
2
100
AcDbSymbolTableRecord
100
AcDbLayerTableRecord
  2
SCHRAUBE_DIN_EN_
 70
     0
 62
     7
  6
CONTINUOUS
  0
LAYER
  5
64
330
2
100
AcDbSymbolTableRecord
100
AcDbLayerTableRecord
  2
STANDARD
 70
     0
 62
     7
  6
CONTINUOUS
  0
LAYER
  5
71
330
2
100
AcDbSymbolTableRecord
100
AcDbLayerTableRecord
  2
DEFAULT
 70
     0
 62
     7
  6
CONTINUOUS
  0
ENDTAB
  0
TABLE
  2
STYLE
  5
3
330
0
100
AcDbSymbolTable
 70
     3
  0
STYLE
  5
11
330
3
100
AcDbSymbolTableRecord
100
AcDbTextStyleTableRecord
  2
STANDARD
 70
     0
 40
0.0
 41
1.0
 50
0.0
 71
     0
 42
0.2
  3
txt
  4

  0
STYLE
  5
76
330
3
100
AcDbSymbolTableRecord
100
AcDbTextStyleTableRecord
  2
SEACAD_SEISO_TTF
 70
     0
 40
0.2
 41
1.0
 50
0.0
 71
     0
 42
0.2
  3
seiso.ttf
  4

  0
STYLE
  5
78
330
3
100
AcDbSymbolTableRecord
100
AcDbTextStyleTableRecord
  2
SEACAD_SEMECI1_TTF
 70
     0
 40
0.2
 41
1.0
 50
0.0
 71
     0
 42
0.2
  3
semeci1.ttf
  4

  0
ENDTAB
  0
TABLE
  2
VIEW
  5
6
330
0
100
AcDbSymbolTable
 70
     0
  0
ENDTAB
  0
TABLE
  2
UCS
  5
7
330
0
100
AcDbSymbolTable
 70
     0
  0
ENDTAB
  0
TABLE
  2
APPID
  5
9
330
0
100
AcDbSymbolTable
 70
     1
  0
APPID
  5
12
330
9
100
AcDbSymbolTableRecord
100
AcDbRegAppTableRecord
  2
ACAD
 70
     0
  0
ENDTAB
  0
TABLE
  2
DIMSTYLE
  5
A
330
0
100
AcDbSymbolTable
 70
     1
  0
DIMSTYLE
105
27
330
A
100
AcDbSymbolTableRecord
100
AcDbDimStyleTableRecord
  2
STANDARD
 70
     0
  3

  4

  5

  6

  7

 40
1.0
 41
0.18
 42
0.0625
 43
0.38
 44
0.18
 45
0.0
 46
0.0
 47
0.0
 48
0.0
140
0.18
141
0.09
142
0.0
143
25.4
144
1.0
145
0.0
146
1.0
147
0.09
 71
     0
 72
     0
 73
     1
 74
     1
 75
     0
 76
     0
 77
     0
 78
     0
170
     0
171
     2
172
     0
173
     0
174
     0
175
     0
176
     0
177
     0
178
     0
270
     2
271
     4
272
     4
273
     2
274
     2
340
11
275
     0
280
     0
281
     0
282
     0
283
     1
284
     0
285
     0
286
     0
287
     3
288
     0
  0
ENDTAB
  0
TABLE
  2
BLOCK_RECORD
  5
1
330
0
100
AcDbSymbolTable
 70
     6
  0
BLOCK_RECORD
  5
1F
330
1
100
AcDbSymbolTableRecord
100
AcDbBlockTableRecord
  2
*MODEL_SPACE
  0
BLOCK_RECORD
  5
1B
330
1
100
AcDbSymbolTableRecord
100
AcDbBlockTableRecord
  2
*PAPER_SPACE
  0
BLOCK_RECORD
  5
2E
330
1
100
AcDbSymbolTableRecord
100
AcDbBlockTableRecord
  2
SE
  0
BLOCK_RECORD
  5
6F
330
1
100
AcDbSymbolTableRecord
100
AcDbBlockTableRecord
  2
SE1
  0
BLOCK_RECORD
  5
7C
330
1
100
AcDbSymbolTableRecord
100
AcDbBlockTableRecord
  2
SE2
  0
BLOCK_RECORD
  5
85
330
1
100
AcDbSymbolTableRecord
100
AcDbBlockTableRecord
  2
SE3
  0
BLOCK_RECORD
  5
8F
330
1
100
AcDbSymbolTableRecord
100
AcDbBlockTableRecord
  2
SE4
  0
ENDTAB
  0
ENDSEC
  0
SECTION
  2
BLOCKS
  0
BLOCK
  5
20
330
1F
100
AcDbEntity
  8
0
100
AcDbBlockBegin
  2
*MODEL_SPACE
 70
     0
 71
     0
 10
0.0
 20
0.0
 30
0.0
  3
*MODEL_SPACE
  1

  0
ENDBLK
  5
21
330
1F
100
AcDbEntity
  8
0
100
AcDbBlockEnd
  0
BLOCK
  5
1C
330
1B
100
AcDbEntity
 67
     1
  8
0
100
AcDbBlockBegin
  2
*PAPER_SPACE
 70
     0
 71
     0
 10
0.0
 20
0.0
 30
0.0
  3
*PAPER_SPACE
  1

  0
ENDBLK
  5
1D
330
1B
100
AcDbEntity
 67
     1
  8
0
100
AcDbBlockEnd
  0
BLOCK
  5
6D
330
2E
100
AcDbEntity
  8
0
100
AcDbBlockBegin
  2
SE
 70
     0
 71
     0
 10
0.0
 20
0.0
 30
0.0
  3
SE
  1

  0
LINE
  5
31
330
2E
100
AcDbEntity
  8
MEGA_002129
  6
CONTINUOUS
 62
     7
 48
25.4
100
AcDbLine
 10
72.9169810152
 20
174.6283226241
 30
0.0
 11
72.9169810152
 21
137.3783226241
 31
0.0
  0
LINE
  5
32
330
2E
100
AcDbEntity
  8
MEGA_002129
  6
CONTINUOUS
 62
     7
 48
25.4
100
AcDbLine
 10
90.9169810152
 20
164.5533226241
 30
0.0
 11
90.9169810152
 21
147.4533226241
 31
0.0
  0
LINE
  5
33
330
2E
100
AcDbEntity
  8
MEGA_002129
  6
CONTINUOUS
 62
     7
 48
25.4
100
AcDbLine
 10
71.9169810152
 20
133.5033226241
 30
0.0
 11
66.4169810152
 21
133.5033226241
 31
0.0
  0
LINE
  5
34
330
2E
100
AcDbEntity
  8
MEGA_002129
  6
CONTINUOUS
 62
     7
 48
25.4
100
AcDbLine
 10
71.9169810152
 20
178.5033226241
 30
0.0
 11
66.4169810152
 21
178.5033226241
 31
0.0
  0
LINE
  5
35
330
2E
100
AcDbEntity
  8
MEGA_002129
  6
CONTINUOUS
 62
     7
 48
25.4
100
AcDbLine
 10
65.9169810152
 20
135.5033226241
 30
0.0
 11
65.9169810152
 21
176.5033226241
 31
0.0
  0
ARC
  5
36
330
2E
100
AcDbEntity
  8
MEGA_002129
  6
CONTINUOUS
 62
     7
 48
25.4
100
AcDbCircle
 10
87.8679523293
 20
173.3404704318
 30
0.0
 40
8.767124424599999
100
AcDbArc
 50
256.3297310026
 51
277.6683861687
  0
LINE
  5
37
330
2E
100
AcDbEntity
  8
MEGA_002129
  6
CONTINUOUS
 62
     7
 48
25.4
100
AcDbLine
 10
65.9169810152
 20
176.5033226241
 30
0.0
 11
65.9169810152
 21
178.0033226241
 31
0.0
  0
LINE
  5
38
330
2E
100
AcDbEntity
  8
MEGA_002129
  6
CONTINUOUS
 62
     7
 48
25.4
100
AcDbLine
 10
65.9169810152
 20
134.0033226241
 30
0.0
 11
65.9169810152
 21
135.5033226241
 31
0.0
  0
LINE
  5
39
330
2E
100
AcDbEntity
  8
MEGA_002129
  6
CONTINUOUS
 62
     7
 48
25.4
100
AcDbLine
 10
72.9169810152
 20
136.889075737
 30
0.0
 11
72.9169810152
 21
135.5033226241
 31
0.0
  0
LINE
  5
3A
330
2E
100
AcDbEntity
  8
MEGA_002129
  6
CONTINUOUS
 62
     7
 48
25.4
100
AcDbLine
 10
72.9169810152
 20
176.5033226241
 30
0.0
 11
72.9169810152
 21
175.1175695112
 31
0.0
  0
LINE
  5
3B
330
2E
100
AcDbEntity
  8
MEGA_002129
  6
CONTINUOUS
 62
     7
 48
25.4
100
AcDbLine
 10
72.9169810152
 20
135.5033226241
 30
0.0
 11
72.9169810152
 21
134.5033226241
 31
0.0
  0
LINE
  5
3C
330
2E
100
AcDbEntity
  8
MEGA_002129
  6
CONTINUOUS
 62
     7
 48
25.4
100
AcDbLine
 10
72.9169810152
 20
175.1175695112
 30
0.0
 11
72.9169810152
 21
174.6283226241
 31
0.0
  0
LINE
  5
3D
330
2E
100
AcDbEntity
  8
MEGA_002129
  6
CONTINUOUS
 62
     7
 48
25.4
100
AcDbLine
 10
72.9169810152
 20
177.5033226241
 30
0.0
 11
72.9169810152
 21
176.5033226241
 31
0.0
  0
ARC
  5
3E
330
2E
100
AcDbEntity
  8
MEGA_002129
  6
CONTINUOUS
 62
     7
 48
25.4
100
AcDbCircle
 10
71.9169810152
 20
177.5033226241
 30
0.0
 40
1.0
100
AcDbArc
 50
0.0
 51
90.0
  0
ARC
  5
3F
330
2E
100
AcDbEntity
  8
MEGA_002129
  6
CONTINUOUS
 62
     7
 48
25.4
100
AcDbCircle
 10
66.4169810152
 20
134.0033226241
 30
0.0
 40
0.5
100
AcDbArc
 50
180.0
 51
270.0
  0
ARC
  5
40
330
2E
100
AcDbEntity
  8
MEGA_002129
  6
CONTINUOUS
 62
     7
 48
25.4
100
AcDbCircle
 10
71.9169810152
 20
134.5033226241
 30
0.0
 40
1.0
100
AcDbArc
 50
270.0
 51
360.0
  0
ARC
  5
41
330
2E
100
AcDbEntity
  8
MEGA_002129
  6
CONTINUOUS
 62
     7
 48
25.4
100
AcDbCircle
 10
66.4169810152
 20
178.0033226241
 30
0.0
 40
0.5
100
AcDbArc
 50
90.0
 51
180.0
  0
LINE
  5
42
330
2E
100
AcDbEntity
  8
MEGA_002129
  6
CONTINUOUS
 62
     7
 48
25.4
100
AcDbLine
 10
72.9169810152
 20
146.509982597
 30
0.0
 11
90.9169810152
 21
147.4533226241
 31
0.0
  0
LINE
  5
43
330
2E
100
AcDbEntity
  8
MEGA_002129
  6
CONTINUOUS
 62
     7
 48
25.4
100
AcDbLine
 10
85.7971969138
 20
164.8216391392
 30
0.0
 11
72.9169810152
 21
165.4966626512
 31
0.0
  0
LINE
  5
44
330
2E
100
AcDbEntity
  8
MEGA_002129
  6
CONTINUOUS
 62
     7
 48
25.4
100
AcDbLine
 10
72.9169810152
 20
137.3783226241
 30
0.0
 11
72.9169810152
 21
136.889075737
 31
0.0
  0
LINE
  5
45
330
2E
100
AcDbEntity
  8
MEGA_002129
  6
CONTINUOUS
 62
     7
 48
25.4
100
AcDbLine
 10
90.9169810152
 20
164.5533226241
 30
0.0
 11
89.033728033
 21
164.6520197307
 31
0.0
  0
LINE
  5
47
330
2E
100
AcDbEntity
  8
MEGA_002153
  6
CONTINUOUS
 62
     7
 48
25.4
100
AcDbLine
 10
128.9169810152
 20
159.5033226241
 30
0.0
 11
90.9169810152
 21
159.5033226241
 31
0.0
  0
LINE
  5
48
330
2E
100
AcDbEntity
  8
MEGA_002153
  6
CONTINUOUS
 62
     7
 48
25.4
100
AcDbLine
 10
128.9169810152
 20
152.5033226241
 30
0.0
 11
90.9169810152
 21
152.5033226241
 31
0.0
  0
LINE
  5
49
330
2E
100
AcDbEntity
  8
MEGA_002153
  6
CONTINUOUS
 62
     7
 48
25.4
100
AcDbLine
 10
128.9169810152
 20
152.5033226241
 30
0.0
 11
128.9169810152
 21
159.5033226241
 31
0.0
  0
LINE
  5
4B
330
2E
100
AcDbEntity
  8
SCHRAUBE_DIN_EN_
  6
CONTINUOUS
 62
     7
 48
25.4
100
AcDbLine
 10
153.4153958386
 20
159.9034253351
 30
0.0
 11
151.6919204556
 21
159.9034253351
 31
0.0
  0
ARC
  5
4C
330
2E
100
AcDbEntity
  8
SCHRAUBE_DIN_EN_
  6
CONTINUOUS
 62
     7
 48
25.4
100
AcDbCircle
 10
151.4919204556
 20
157.9034253351
 30
0.0
 40
0.1999999999999886
100
AcDbArc
 50
180.0
 51
360.0
  0
ARC
  5
4D
330
2E
100
AcDbEntity
  8
SCHRAUBE_DIN_EN_
  6
CONTINUOUS
 62
     7
 48
25.4
100
AcDbCircle
 10
148.2919204556
 20
155.9034253351
 30
0.0
 40
6.500000000000001
100
AcDbArc
 50
17.0628877539
 51
37.9798724449
  0
LINE
  5
4E
330
2E
100
AcDbEntity
  8
SCHRAUBE_DIN_EN_
  6
CONTINUOUS
 62
     7
 48
25.4
100
AcDbLine
 10
151.2919204556
 20
157.9034253351
 30
0.0
 11
144.7919204556
 21
157.9034253351
 31
0.0
  0
ARC
  5
4F
330
2E
100
AcDbEntity
  8
SCHRAUBE_DIN_EN_
  6
CONTINUOUS
 62
     7
 48
25.4
100
AcDbCircle
 10
146.3467691238
 20
155.9034253351
 30
0.0
 40
8.159045035899993
100
AcDbArc
 50
357.7745879894
 51
2.2254120106
  0
LINE
  5
50
330
2E
100
AcDbEntity
  8
SCHRAUBE_DIN_EN_
  6
CONTINUOUS
 62
     7
 48
25.4
100
AcDbLine
 10
151.6919204556
 20
151.9034253351
 30
0.0
 11
153.4153958386
 21
151.9034253351
 31
0.0
  0
ELLIPSE
  5
51
330
2E
100
AcDbEntity
  8
SCHRAUBE_DIN_EN_
  6
CONTINUOUS
 62
     7
 48
25.4
100
AcDbEllipse
 10
148.2919204532
 20
155.903425335
 30
0.0
 11
6.500000002429479
 21
1.124294000000000E-10
 31
0.0
210
0.0
220
0.0
230
1.0
 40
0.1643989873
 41
0.2511074379412999
 42
0.3010119889611704
  0
LINE
  5
52
330
2E
100
AcDbEntity
  8
SCHRAUBE_DIN_EN_
  6
CONTINUOUS
 62
     7
 48
25.4
100
AcDbLine
 10
154.5880664356
 20
156.168946027
 30
0.0
 11
154.5018667081
 21
156.157185444
 31
0.0
  0
ELLIPSE
  5
53
330
2E
100
AcDbEntity
  8
SCHRAUBE_DIN_EN_
  6
CONTINUOUS
 62
     7
 48
25.4
100
AcDbEllipse
 10
149.0186860656
 20
154.4119040947
 30
0.0
 11
5.620372749212804
 21
2.738609091534778
 31
0.0
210
0.0
220
0.0
230
1.0
 40
0.3595098918
 41
5.890534044808683
 42
6.050343881469209
  0
ELLIPSE
  5
54
330
2E
100
AcDbEntity
  8
SCHRAUBE_DIN_EN_
  6
CONTINUOUS
 62
     7
 48
25.4
100
AcDbEllipse
 10
149.0186860657
 20
155.2642019464
 30
0.0
 11
4.129099157337571
 21
4.69458302139669
 31
0.0
210
0.0
220
0.0
230
1.0
 40
0.8388564142
 41
5.580885677728211
 42
5.740695514389299
  0
ELLIPSE
  5
55
330
2E
100
AcDbEntity
  8
SCHRAUBE_DIN_EN_
  6
CONTINUOUS
 62
     7
 48
25.4
100
AcDbEllipse
 10
148.2919204497
 20
155.9034253335
 30
0.0
 11
6.500000005901313
 21
5.868245980000000E-8
 31
0.0
210
0.0
220
0.0
230
1.0
 40
0.9863939234
 41
0.2511074289729401
 42
0.3010119799787997
  0
LINE
  5
56
330
2E
100
AcDbEntity
  8
SCHRAUBE_DIN_EN_
  6
CONTINUOUS
 62
     7
 48
25.4
100
AcDbLine
 10
154.4996605447
 20
157.8043686821
 30
0.0
 11
154.505811732
 21
157.8106629202
 31
0.0
  0
LINE
  5
57
330
2E
100
AcDbEntity
  8
SCHRAUBE_DIN_EN_
  6
CONTINUOUS
 62
     7
 48
25.4
100
AcDbLine
 10
154.4996605447
 20
154.0024819882
 30
0.0
 11
154.505811732
 21
153.99618775
 31
0.0
  0
ELLIPSE
  5
58
330
2E
100
AcDbEntity
  8
SCHRAUBE_DIN_EN_
  6
CONTINUOUS
 62
     7
 48
25.4
100
AcDbEllipse
 10
148.2919204499
 20
155.9034253367
 30
0.0
 11
6.50000000571721
 21
-5.657096130000000E-8
 31
0.0
210
0.0
220
0.0
230
0.9999999999999999
 40
0.9863939235
 41
5.982173326876589
 42
6.032077877882936
  0
LINE
  5
59
330
2E
100
AcDbEntity
  8
SCHRAUBE_DIN_EN_
  6
CONTINUOUS
 62
     7
 48
25.4
100
AcDbLine
 10
154.5880664356
 20
155.6379046433
 30
0.0
 11
154.5018667081
 21
155.6496652263
 31
0.0
  0
LINE
  5
5A
330
2E
100
AcDbEntity
  8
SCHRAUBE_DIN_EN_
  6
CONTINUOUS
 62
     7
 48
25.4
100
AcDbLine
 10
151.6919204556
 20
151.9034253351
 30
0.0
 11
151.6919204556
 21
159.9034253351
 31
0.0
  0
ELLIPSE
  5
5B
330
2E
100
AcDbEntity
  8
SCHRAUBE_DIN_EN_
  6
CONTINUOUS
 62
     7
 48
25.4
100
AcDbEllipse
 10
148.291920455
 20
155.9034253352
 30
0.0
 11
6.500000000605535
 21
-2.918910000000000E-11
 31
0.0
210
0.0
220
0.0
230
0.9999999999999999
 40
0.1643989873
 41
5.982173318174203
 42
6.032077869201262
  0
ELLIPSE
  5
5C
330
2E
100
AcDbEntity
  8
SCHRAUBE_DIN_EN_
  6
CONTINUOUS
 62
     7
 48
25.4
100
AcDbEllipse
 10
149.0186860656
 20
156.5426487239
 30
0.0
 11
4.129099157515332
 21
-4.694583021366162
 31
0.0
210
0.0
220
0.0
230
1.0
 40
0.8388564142
 41
0.5424897927660922
 42
0.7022996294257017
  0
ELLIPSE
  5
5D
330
2E
100
AcDbEntity
  8
SCHRAUBE_DIN_EN_
  6
CONTINUOUS
 62
     7
 48
25.4
100
AcDbEllipse
 10
149.0186860657
 20
157.3949465756
 30
0.0
 11
5.620372749176345
 21
-2.738609091522698
 31
0.0
210
0.0
220
0.0
230
1.0
 40
0.3595098918
 41
0.2328414257113989
 42
0.3926512623724163
  0
LINE
  5
5E
330
2E
100
AcDbEntity
  8
SCHRAUBE_DIN_EN_
  6
CONTINUOUS
 62
     7
 48
25.4
100
AcDbLine
 10
151.2919204556
 20
153.9034253351
 30
0.0
 11
151.2919204556
 21
157.9034253351
 31
0.0
  0
LINE
  5
5F
330
2E
100
AcDbEntity
  8
SCHRAUBE_DIN_EN_
  6
CONTINUOUS
 62
     7
 48
25.4
100
AcDbLine
 10
144.7919204556
 20
153.9034253351
 30
0.0
 11
144.7919204556
 21
157.9034253351
 31
0.0
  0
LINE
  5
60
330
2E
100
AcDbEntity
  8
SCHRAUBE_DIN_EN_
  6
CONTINUOUS
 62
     7
 48
25.4
100
AcDbLine
 10
153.4153958386
 20
151.9034253351
 30
0.0
 11
153.4153958386
 21
159.9034253351
 31
0.0
  0
ARC
  5
61
330
2E
100
AcDbEntity
  8
SCHRAUBE_DIN_EN_
  6
CONTINUOUS
 62
     7
 48
25.4
100
AcDbCircle
 10
151.4919204556
 20
153.9034253351
 30
0.0
 40
0.1999999999999886
100
AcDbArc
 50
0.0
 51
180.0
  0
ARC
  5
62
330
2E
100
AcDbEntity
  8
SCHRAUBE_DIN_EN_
  6
CONTINUOUS
 62
     7
 48
25.4
100
AcDbCircle
 10
148.2919204556
 20
155.9034253351
 30
0.0
 40
6.500000000000001
100
AcDbArc
 50
322.0201275551
 51
342.9371122461
  0
LINE
  5
63
330
2E
100
AcDbEntity
  8
SCHRAUBE_DIN_EN_
  6
CONTINUOUS
 62
     7
 48
25.4
100
AcDbLine
 10
144.7919204556
 20
153.9034253351
 30
0.0
 11
151.2919204556
 21
153.9034253351
 31
0.0
  0
LINE
  5
66
330
2E
100
AcDbEntity
  8
STANDARD
  6
CENTER2
 62
     7
 48
25.4
100
AcDbLine
 10
65.9169810152
 20
156.0033226241
 30
0.0
 11
128.9169810152
 21
156.0033226241
 31
0.0
  0
LINE
  5
67
330
2E
100
AcDbEntity
  8
STANDARD
  6
CONTINUOUS
 62
     7
 48
25.4
100
AcDbLine
 10
90.9169810152
 20
152.5033226241
 30
0.0
 11
128.9169810152
 21
159.5033226241
 31
0.0
  0
LINE
  5
68
330
2E
100
AcDbEntity
  8
STANDARD
  6
CONTINUOUS
 62
     7
 48
25.4
100
AcDbLine
 10
90.9169810152
 20
159.5033226241
 30
0.0
 11
128.9169810152
 21
152.5033226241
 31
0.0
  0
LINE
  5
69
330
2E
100
AcDbEntity
  8
STANDARD
  6
CENTER2
 62
     7
 48
25.4
100
AcDbLine
 10
144.7919204556
 20
155.9034253351
 30
0.0
 11
156.2092238572
 21
155.9034253351
 31
0.0
  0
LINE
  5
6A
330
2E
100
AcDbEntity
  8
STANDARD
  6
CENTER2
 62
     7
 48
25.4
100
AcDbLine
 10
128.9169810152
 20
156.0033226241
 30
0.0
 11
132.2784898097
 21
156.0033226241
 31
0.0
  0
LINE
  5
6B
330
2E
100
AcDbEntity
  8
STANDARD
  6
CENTER2
 62
     7
 48
25.4
100
AcDbLine
 10
144.7919204556
 20
155.9034253351
 30
0.0
 11
142.5942286244
 21
155.9034253351
 31
0.0
  0
LINE
  5
6C
330
2E
100
AcDbEntity
  8
STANDARD
  6
CENTER2
 62
     7
 48
25.4
100
AcDbLine
 10
65.9169810152
 20
156.0033226241
 30
0.0
 11
62.5012753747
 21
156.0033226241
 31
0.0
  0
ENDBLK
  5
6E
330
2E
100
AcDbEntity
  8
0
100
AcDbBlockEnd
  0
BLOCK
  5
7A
330
6F
100
AcDbEntity
  8
0
100
AcDbBlockBegin
  2
SE1
 70
     0
 71
     0
 10
0.0
 20
0.0
 30
0.0
  3
SE1
  1

  0
POLYLINE
  5
72
330
6F
100
AcDbEntity
  8
DEFAULT
  6
CONTINUOUS
 62
     7
 48
25.4
100
AcDb2dPolyline
 66
     1
 10
0.0
 20
0.0
 30
0.0
 70
     1
  0
VERTEX
  5
9A
330
72
100
AcDbEntity
  8
DEFAULT
  6
CONTINUOUS
 62
     7
100
AcDbVertex
100
AcDb2dVertex
 10
50.9982476375
 20
136.5033226502
 30
0.0
  0
VERTEX
  5
9B
330
72
100
AcDbEntity
  8
DEFAULT
  6
CONTINUOUS
 62
     7
100
AcDbVertex
100
AcDb2dVertex
 10
51.4982476419
 20
133.5033226241
 30
0.0
  0
VERTEX
  5
9C
330
72
100
AcDbEntity
  8
DEFAULT
  6
CONTINUOUS
 62
     7
100
AcDbVertex
100
AcDb2dVertex
 10
51.9982476462
 20
136.5033226502
 30
0.0
  0
VERTEX
  5
9D
330
72
100
AcDbEntity
  8
DEFAULT
  6
CONTINUOUS
 62
     7
100
AcDbVertex
100
AcDb2dVertex
 10
50.9982476375
 20
136.5033226502
 30
0.0
  0
SEQEND
  5
99
330
72
100
AcDbEntity
  8
DEFAULT
  6
CONTINUOUS
 62
     7
 48
25.4
  0
LINE
  5
73
330
6F
100
AcDbEntity
  8
DEFAULT
  6
CONTINUOUS
 62
     7
 48
25.4
100
AcDbLine
 10
69.1669810152
 20
178.5033226241
 30
0.0
 11
49.9982476289
 21
178.5033226241
 31
0.0
  0
LINE
  5
74
330
6F
100
AcDbEntity
  8
DEFAULT
  6
CONTINUOUS
 62
     7
 48
25.4
100
AcDbLine
 10
69.1669810152
 20
133.5033226241
 30
0.0
 11
49.9982476289
 21
133.5033226241
 31
0.0
  0
LINE
  5
75
330
6F
100
AcDbEntity
  8
DEFAULT
  6
CONTINUOUS
 62
     7
 48
25.4
100
AcDbLine
 10
51.4982476419
 20
178.5033226241
 30
0.0
 11
51.4982476419
 21
133.5033208359
 31
0.0
  0
TEXT
  5
77
330
6F
100
AcDbEntity
  8
DEFAULT
  6
CONTINUOUS
 62
     7
 48
25.4
100
AcDbText
 10
50.7482476419
 20
156.1177421349
 30
0.0
 40
3.0
  1
45
 50
90.0
  7
SEACAD_SEISO_TTF
 11
47.7482476419
 21
156.1177421349
 31
0.0
100
AcDbText
 73
     3
  0
TEXT
  5
79
330
6F
100
AcDbEntity
  8
DEFAULT
  6
CONTINUOUS
 62
     7
 48
25.4
100
AcDbText
 10
50.7482476419
 20
152.4116285978
 30
0.0
 40
3.0
  1
q
 50
90.0
  7
SEACAD_SEMECI1_TTF
 11
47.7482476419
 21
152.4116285978
 31
0.0
100
AcDbText
 73
     3
  0
ENDBLK
  5
7B
330
6F
100
AcDbEntity
  8
0
100
AcDbBlockEnd
  0
BLOCK
  5
83
330
7C
100
AcDbEntity
  8
0
100
AcDbBlockBegin
  2
SE2
 70
     0
 71
     0
 10
0.0
 20
0.0
 30
0.0
  3
SE2
  1

  0
POLYLINE
  5
7E
330
7C
100
AcDbEntity
  8
DEFAULT
  6
CONTINUOUS
 62
     7
 48
25.4
100
AcDb2dPolyline
 66
     1
 10
0.0
 20
0.0
 30
0.0
 70
     1
  0
VERTEX
  5
9F
330
7E
100
AcDbEntity
  8
DEFAULT
  6
CONTINUOUS
 62
     7
100
AcDbVertex
100
AcDb2dVertex
 10
117.916405595
 20
162.5033226502
 30
0.0
  0
VERTEX
  5
A0
330
7E
100
AcDbEntity
  8
DEFAULT
  6
CONTINUOUS
 62
     7
100
AcDbVertex
100
AcDb2dVertex
 10
118.4164055994
 20
159.5033226241
 30
0.0
  0
VERTEX
  5
A1
330
7E
100
AcDbEntity
  8
DEFAULT
  6
CONTINUOUS
 62
     7
100
AcDbVertex
100
AcDb2dVertex
 10
118.9164056037
 20
162.5033226502
 30
0.0
  0
VERTEX
  5
A2
330
7E
100
AcDbEntity
  8
DEFAULT
  6
CONTINUOUS
 62
     7
100
AcDbVertex
100
AcDb2dVertex
 10
117.916405595
 20
162.5033226502
 30
0.0
  0
SEQEND
  5
9E
330
7E
100
AcDbEntity
  8
DEFAULT
  6
CONTINUOUS
 62
     7
 48
25.4
  0
POLYLINE
  5
7F
330
7C
100
AcDbEntity
  8
DEFAULT
  6
CONTINUOUS
 62
     7
 48
25.4
100
AcDb2dPolyline
 66
     1
 10
0.0
 20
0.0
 30
0.0
 70
     1
  0
VERTEX
  5
A4
330
7F
100
AcDbEntity
  8
DEFAULT
  6
CONTINUOUS
 62
     7
100
AcDbVertex
100
AcDb2dVertex
 10
117.916405595
 20
149.503322598
 30
0.0
  0
VERTEX
  5
A5
330
7F
100
AcDbEntity
  8
DEFAULT
  6
CONTINUOUS
 62
     7
100
AcDbVertex
100
AcDb2dVertex
 10
118.4164055994
 20
152.5033226241
 30
0.0
  0
VERTEX
  5
A6
330
7F
100
AcDbEntity
  8
DEFAULT
  6
CONTINUOUS
 62
     7
100
AcDbVertex
100
AcDb2dVertex
 10
118.9164056037
 20
149.503322598
 30
0.0
  0
VERTEX
  5
A7
330
7F
100
AcDbEntity
  8
DEFAULT
  6
CONTINUOUS
 62
     7
100
AcDbVertex
100
AcDb2dVertex
 10
117.916405595
 20
149.503322598
 30
0.0
  0
SEQEND
  5
A3
330
7F
100
AcDbEntity
  8
DEFAULT
  6
CONTINUOUS
 62
     7
 48
25.4
  0
LINE
  5
80
330
7C
100
AcDbEntity
  8
DEFAULT
  6
CONTINUOUS
 62
     7
 48
25.4
100
AcDbLine
 10
118.4164055994
 20
174.069071718
 30
0.0
 11
118.4164055994
 21
146.5033223559
 31
0.0
  0
TEXT
  5
81
330
7C
100
AcDbEntity
  8
DEFAULT
  6
CONTINUOUS
 62
     7
 48
25.4
100
AcDbText
 10
117.6664055994
 20
171.1099805245
 30
0.0
 40
3.0
  1
7
 50
90.0
  7
SEACAD_SEISO_TTF
 11
114.6664055994
 21
171.1099805245
 31
0.0
100
AcDbText
 73
     3
  0
TEXT
  5
82
330
7C
100
AcDbEntity
  8
DEFAULT
  6
CONTINUOUS
 62
     7
 48
25.4
100
AcDbText
 10
117.6664055994
 20
167.4038669873
 30
0.0
 40
3.0
  1
q
 50
90.0
  7
SEACAD_SEMECI1_TTF
 11
114.6664055994
 21
167.4038669873
 31
0.0
100
AcDbText
 73
     3
  0
ENDBLK
  5
84
330
7C
100
AcDbEntity
  8
0
100
AcDbBlockEnd
  0
BLOCK
  5
8D
330
85
100
AcDbEntity
  8
0
100
AcDbBlockBegin
  2
SE3
 70
     0
 71
     0
 10
0.0
 20
0.0
 30
0.0
  3
SE3
  1

  0
POLYLINE
  5
87
330
85
100
AcDbEntity
  8
DEFAULT
  6
CONTINUOUS
 62
     7
 48
25.4
100
AcDb2dPolyline
 66
     1
 10
0.0
 20
0.0
 30
0.0
 70
     1
  0
VERTEX
  5
A9
330
87
100
AcDbEntity
  8
DEFAULT
  6
CONTINUOUS
 62
     7
100
AcDbVertex
100
AcDb2dVertex
 10
87.9169809891
 20
114.1038245266
 30
0.0
  0
VERTEX
  5
AA
330
87
100
AcDbEntity
  8
DEFAULT
  6
CONTINUOUS
 62
     7
100
AcDbVertex
100
AcDb2dVertex
 10
90.9169810152
 20
114.603824531
 30
0.0
  0
VERTEX
  5
AB
330
87
100
AcDbEntity
  8
DEFAULT
  6
CONTINUOUS
 62
     7
100
AcDbVertex
100
AcDb2dVertex
 10
87.9169809891
 20
115.1038245353
 30
0.0
  0
VERTEX
  5
AC
330
87
100
AcDbEntity
  8
DEFAULT
  6
CONTINUOUS
 62
     7
100
AcDbVertex
100
AcDb2dVertex
 10
87.9169809891
 20
114.1038245266
 30
0.0
  0
SEQEND
  5
A8
330
87
100
AcDbEntity
  8
DEFAULT
  6
CONTINUOUS
 62
     7
 48
25.4
  0
POLYLINE
  5
88
330
85
100
AcDbEntity
  8
DEFAULT
  6
CONTINUOUS
 62
     7
 48
25.4
100
AcDb2dPolyline
 66
     1
 10
0.0
 20
0.0
 30
0.0
 70
     1
  0
VERTEX
  5
AE
330
88
100
AcDbEntity
  8
DEFAULT
  6
CONTINUOUS
 62
     7
100
AcDbVertex
100
AcDb2dVertex
 10
68.9169810413
 20
114.1038245266
 30
0.0
  0
VERTEX
  5
AF
330
88
100
AcDbEntity
  8
DEFAULT
  6
CONTINUOUS
 62
     7
100
AcDbVertex
100
AcDb2dVertex
 10
65.9169810152
 20
114.603824531
 30
0.0
  0
VERTEX
  5
B0
330
88
100
AcDbEntity
  8
DEFAULT
  6
CONTINUOUS
 62
     7
100
AcDbVertex
100
AcDb2dVertex
 10
68.9169810413
 20
115.1038245353
 30
0.0
  0
VERTEX
  5
B1
330
88
100
AcDbEntity
  8
DEFAULT
  6
CONTINUOUS
 62
     7
100
AcDbVertex
100
AcDb2dVertex
 10
68.9169810413
 20
114.1038245266
 30
0.0
  0
SEQEND
  5
AD
330
88
100
AcDbEntity
  8
DEFAULT
  6
CONTINUOUS
 62
     7
 48
25.4
  0
LINE
  5
89
330
85
100
AcDbEntity
  8
DEFAULT
  6
CONTINUOUS
 62
     7
 48
25.4
100
AcDbLine
 10
90.9169810152
 20
147.4533226241
 30
0.0
 11
90.9169810152
 21
113.1038245179
 31
0.0
  0
LINE
  5
8A
330
85
100
AcDbEntity
  8
DEFAULT
  6
CONTINUOUS
 62
     7
 48
25.4
100
AcDbLine
 10
65.9169810152
 20
135.5033226241
 30
0.0
 11
65.9169810152
 21
113.1038245179
 31
0.0
  0
LINE
  5
8B
330
85
100
AcDbEntity
  8
DEFAULT
  6
CONTINUOUS
 62
     7
 48
25.4
100
AcDbLine
 10
90.9169810152
 20
114.603824531
 30
0.0
 11
65.9169806426
 21
114.603824531
 31
0.0
  0
TEXT
  5
8C
330
85
100
AcDbEntity
  8
DEFAULT
  6
CONTINUOUS
 62
     7
 48
25.4
100
AcDbText
 10
76.6442535562
 20
115.353824531
 30
0.0
 40
3.0
  1
25
  7
SEACAD_SEISO_TTF
 11
76.6442535562
 21
118.353824531
 31
0.0
100
AcDbText
 73
     3
  0
ENDBLK
  5
8E
330
85
100
AcDbEntity
  8
0
100
AcDbBlockEnd
  0
BLOCK
  5
97
330
8F
100
AcDbEntity
  8
0
100
AcDbBlockBegin
  2
SE4
 70
     0
 71
     0
 10
0.0
 20
0.0
 30
0.0
  3
SE4
  1

  0
POLYLINE
  5
91
330
8F
100
AcDbEntity
  8
DEFAULT
  6
CONTINUOUS
 62
     7
 48
25.4
100
AcDb2dPolyline
 66
     1
 10
0.0
 20
0.0
 30
0.0
 70
     1
  0
VERTEX
  5
B3
330
91
100
AcDbEntity
  8
DEFAULT
  6
CONTINUOUS
 62
     7
100
AcDbVertex
100
AcDb2dVertex
 10
75.9169810413
 20
121.5391753202
 30
0.0
  0
VERTEX
  5
B4
330
91
100
AcDbEntity
  8
DEFAULT
  6
CONTINUOUS
 62
     7
100
AcDbVertex
100
AcDb2dVertex
 10
72.9169810152
 20
122.0391753246
 30
0.0
  0
VERTEX
  5
B5
330
91
100
AcDbEntity
  8
DEFAULT
  6
CONTINUOUS
 62
     7
100
AcDbVertex
100
AcDb2dVertex
 10
75.9169810413
 20
122.5391753289
 30
0.0
  0
VERTEX
  5
B6
330
91
100
AcDbEntity
  8
DEFAULT
  6
CONTINUOUS
 62
     7
100
AcDbVertex
100
AcDb2dVertex
 10
75.9169810413
 20
121.5391753202
 30
0.0
  0
SEQEND
  5
B2
330
91
100
AcDbEntity
  8
DEFAULT
  6
CONTINUOUS
 62
     7
 48
25.4
  0
POLYLINE
  5
92
330
8F
100
AcDbEntity
  8
DEFAULT
  6
CONTINUOUS
 62
     7
 48
25.4
100
AcDb2dPolyline
 66
     1
 10
0.0
 20
0.0
 30
0.0
 70
     1
  0
VERTEX
  5
B8
330
92
100
AcDbEntity
  8
DEFAULT
  6
CONTINUOUS
 62
     7
100
AcDbVertex
100
AcDb2dVertex
 10
62.9169809891
 20
121.5391753202
 30
0.0
  0
VERTEX
  5
B9
330
92
100
AcDbEntity
  8
DEFAULT
  6
CONTINUOUS
 62
     7
100
AcDbVertex
100
AcDb2dVertex
 10
65.9169810152
 20
122.0391753246
 30
0.0
  0
VERTEX
  5
BA
330
92
100
AcDbEntity
  8
DEFAULT
  6
CONTINUOUS
 62
     7
100
AcDbVertex
100
AcDb2dVertex
 10
62.9169809891
 20
122.5391753289
 30
0.0
  0
VERTEX
  5
BB
330
92
100
AcDbEntity
  8
DEFAULT
  6
CONTINUOUS
 62
     7
100
AcDbVertex
100
AcDb2dVertex
 10
62.9169809891
 20
121.5391753202
 30
0.0
  0
SEQEND
  5
B7
330
92
100
AcDbEntity
  8
DEFAULT
  6
CONTINUOUS
 62
     7
 48
25.4
  0
LINE
  5
93
330
8F
100
AcDbEntity
  8
DEFAULT
  6
CONTINUOUS
 62
     7
 48
25.4
100
AcDbLine
 10
72.9169810152
 20
137.3783226241
 30
0.0
 11
72.9169810152
 21
120.5391753115
 31
0.0
  0
LINE
  5
94
330
8F
100
AcDbEntity
  8
DEFAULT
  6
CONTINUOUS
 62
     7
 48
25.4
100
AcDbLine
 10
65.9169810152
 20
135.5033226241
 30
0.0
 11
65.9169810152
 21
120.5391753115
 31
0.0
  0
LINE
  5
95
330
8F
100
AcDbEntity
  8
DEFAULT
  6
CONTINUOUS
 62
     7
 48
25.4
100
AcDbLine
 10
78.9169810673
 20
122.0391753246
 30
0.0
 11
59.916980747
 21
122.0391753246
 31
0.0
  0
TEXT
  5
96
330
8F
100
AcDbEntity
  8
DEFAULT
  6
CONTINUOUS
 62
     7
 48
25.4
100
AcDbText
 10
68.4624354526
 20
122.7891753246
 30
0.0
 40
3.0
  1
7
  7
SEACAD_SEISO_TTF
 11
68.4624354526
 21
125.7891753246
 31
0.0
100
AcDbText
 73
     3
  0
ENDBLK
  5
98
330
8F
100
AcDbEntity
  8
0
100
AcDbBlockEnd
  0
ENDSEC
  0
SECTION
  2
ENTITIES
  0
INSERT
  5
2F
330
1F
100
AcDbEntity
  8
0
100
AcDbBlockReference
  2
SE
 10
0.0
 20
0.0
 30
0.0
  0
INSERT
  5
70
330
1F
100
AcDbEntity
  8
0
100
AcDbBlockReference
  2
SE1
 10
0.0
 20
0.0
 30
0.0
  0
INSERT
  5
7D
330
1F
100
AcDbEntity
  8
0
100
AcDbBlockReference
  2
SE2
 10
0.0
 20
0.0
 30
0.0
  0
INSERT
  5
86
330
1F
100
AcDbEntity
  8
0
100
AcDbBlockReference
  2
SE3
 10
0.0
 20
0.0
 30
0.0
  0
INSERT
  5
90
330
1F
100
AcDbEntity
  8
0
100
AcDbBlockReference
  2
SE4
 10
0.0
 20
0.0
 30
0.0
  0
ENDSEC
  0
SECTION
  2
OBJECTS
  0
DICTIONARY
  5
C
330
0
100
AcDbDictionary
  3
ACAD_GROUP
350
D
  3
ACAD_LAYOUT
350
1A
  3
ACAD_MLINESTYLE
350
17
  3
ACAD_PLOTSETTINGS
350
19
  3
ACAD_TABLESTYLE
350
2A
  3
ACDBVARIABLEDICTIONARY
350
2C
1001
ACAD
1000
TREAT_AS_HARD
1070
     0
  0
DICTIONARY
  5
BC
330
29
100
AcDbDictionary
  3
ACAD_XREC_ROUNDTRIP
360
BD
  0
DICTIONARY
  5
D
102
{ACAD_REACTORS
330
C
102
}
330
C
100
AcDbDictionary
1001
ACAD
1000
TREAT_AS_HARD
1070
     0
  0
DICTIONARY
  5
1A
102
{ACAD_REACTORS
330
C
102
}
330
C
100
AcDbDictionary
1001
ACAD
1000
TREAT_AS_HARD
1070
     0
  0
DICTIONARY
  5
17
102
{ACAD_REACTORS
330
C
102
}
330
C
100
AcDbDictionary
  3
STANDARD
350
18
1001
ACAD
1000
TREAT_AS_HARD
1070
     0
  0
DICTIONARY
  5
19
102
{ACAD_REACTORS
330
C
102
}
330
C
100
AcDbDictionary
1001
ACAD
1000
TREAT_AS_HARD
1070
     0
  0
DICTIONARY
  5
2A
102
{ACAD_REACTORS
330
C
102
}
330
C
100
AcDbDictionary
  3
STANDARD
350
2B
1001
ACAD
1000
TREAT_AS_HARD
1070
     0
  0
DICTIONARY
  5
2C
102
{ACAD_REACTORS
330
C
102
}
330
C
100
AcDbDictionary
  3
CTABLESTYLE
350
2D
1001
ACAD
1000
TREAT_AS_HARD
1070
     0
  0
XRECORD
  5
BD
102
{ACAD_REACTORS
330
BC
102
}
330
BC
100
AcDbXrecord
102
UCS
 74
     0
 71
     1
 10
0.0
 20
0.0
 30
0.0
 10
1.0
 20
0.0
 30
0.0
 10
0.0
 20
1.0
 30
0.0
146
0.0
 79
     0
102
VIEW
281
     0
  0
MLINESTYLE
  5
18
102
{ACAD_REACTORS
330
17
102
}
330
17
100
AcDbMlineStyle
  2
Standard
 70
     0
  3

 62
   256
 51
90.0
 52
90.0
 71
     2
 49
0.5
 62
   256
  6
BYLAYER
 49
-0.5
 62
   256
  6
BYLAYER
  0
TABLESTYLE
  5
2B
102
{ACAD_REACTORS
330
2A
102
}
330
2A
100
AcDbTableStyle
  3
Standard
 70
     0
 71
     0
 40
0.06
 41
0.06
280
     0
281
     0
  7
STANDARD
140
0.18
170
     2
 62
     0
 63
     7
283
     0
274
    -2
284
     1
 64
     0
275
    -2
285
     1
 65
     0
276
    -2
286
     1
 66
     0
277
    -2
287
     1
 67
     0
278
    -2
288
     1
 68
     0
279
    -2
289
     1
 69
     0
  7
STANDARD
140
0.25
170
     5
 62
     0
 63
     7
283
     0
274
    -2
284
     1
 64
     0
275
    -2
285
     1
 65
     0
276
    -2
286
     1
 66
     0
277
    -2
287
     1
 67
     0
278
    -2
288
     1
 68
     0
279
    -2
289
     1
 69
     0
  7
STANDARD
140
0.18
170
     5
 62
     0
 63
     7
283
     0
274
    -2
284
     1
 64
     0
275
    -2
285
     1
 65
     0
276
    -2
286
     1
 66
     0
277
    -2
287
     1
 67
     0
278
    -2
288
     1
 68
     0
279
    -2
289
     1
 69
     0
  0
DICTIONARYVAR
  5
2D
102
{ACAD_REACTORS
330
2C
102
}
330
2C
100
DictionaryVariables
280
     0
  1
Standard
  0
ENDSEC
  0
EOF
