  0
SECTION
  2
HEADER
  9
$ACADVER
  1
AC1012
  9
$DWGCODEPAGE
  3
ansi_1252
  9
$INSBASE
 10
0.0
 20
0.0
 30
0.0
  9
$EXTMIN
 10
0.0
 20
0.0
 30
0.0
  9
$EXTMAX
 10
210.0
 20
297.0
 30
0.0
  9
$LIMMIN
 10
0.0
 20
0.0
  9
$LIMMAX
 10
210.0
 20
297.0
  9
$ORTHOMODE
 70
     0
  9
$REGENMODE
 70
     1
  9
$FILLMODE
 70
     1
  9
$QTEXTMODE
 70
     0
  9
$MIRRTEXT
 70
     1
  9
$DRAGMODE
 70
     2
  9
$LTSCALE
 40
1.0
  9
$OSMODE
 70
    37
  9
$ATTMODE
 70
     1
  9
$TEXTSIZE
 40
0.2
  9
$TRACEWID
 40
0.05
  9
$TEXTSTYLE
  7
STANDARD
  9
$CLAYER
  8
0
  9
$CELTYPE
  6
BYLAYER
  9
$CECOLOR
 62
   256
  9
$CELTSCALE
 40
25.4
  9
$DELOBJ
 70
     1
  9
$DISPSILH
 70
     0
  9
$DIMSCALE
 40
1.0
  9
$DIMASZ
 40
0.18
  9
$DIMEXO
 40
0.0625
  9
$DIMDLI
 40
0.38
  9
$DIMRND
 40
0.0
  9
$DIMDLE
 40
0.0
  9
$DIMEXE
 40
0.18
  9
$DIMTP
 40
0.0
  9
$DIMTM
 40
0.0
  9
$DIMTXT
 40
0.18
  9
$DIMCEN
 40
0.09
  9
$DIMTSZ
 40
0.0
  9
$DIMTOL
 70
     0
  9
$DIMLIM
 70
     0
  9
$DIMTIH
 70
     1
  9
$DIMTOH
 70
     1
  9
$DIMSE1
 70
     0
  9
$DIMSE2
 70
     0
  9
$DIMTAD
 70
     0
  9
$DIMZIN
 70
     0
  9
$DIMBLK
  1

  9
$DIMASO
 70
     1
  9
$DIMSHO
 70
     1
  9
$DIMPOST
  1

  9
$DIMAPOST
  1

  9
$DIMALT
 70
     0
  9
$DIMALTD
 70
     2
  9
$DIMALTF
 40
25.4
  9
$DIMLFAC
 40
1.0
  9
$DIMTOFL
 70
     0
  9
$DIMTVP
 40
0.0
  9
$DIMTIX
 70
     0
  9
$DIMSOXD
 70
     0
  9
$DIMSAH
 70
     0
  9
$DIMBLK1
  1

  9
$DIMBLK2
  1

  9
$DIMSTYLE
  2
STANDARD
  9
$DIMCLRD
 70
     0
  9
$DIMCLRE
 70
     0
  9
$DIMCLRT
 70
     0
  9
$DIMTFAC
 40
1.0
  9
$DIMGAP
 40
0.09
  9
$DIMJUST
 70
     0
  9
$DIMSD1
 70
     0
  9
$DIMSD2
 70
     0
  9
$DIMTOLJ
 70
     1
  9
$DIMTZIN
 70
     0
  9
$DIMALTZ
 70
     0
  9
$DIMALTTZ
 70
     0
  9
$DIMFIT
 70
     3
  9
$DIMUPT
 70
     0
  9
$DIMUNIT
 70
     2
  9
$DIMDEC
 70
     4
  9
$DIMTDEC
 70
     4
  9
$DIMALTU
 70
     2
  9
$DIMALTTD
 70
     2
  9
$DIMTXSTY
  7
STANDARD
  9
$DIMAUNIT
 70
     0
  9
$LUNITS
 70
     2
  9
$LUPREC
 70
     4
  9
$SKETCHINC
 40
0.1
  9
$FILLETRAD
 40
0.5
  9
$AUNITS
 70
     0
  9
$AUPREC
 70
     0
  9
$MENU
  1
.
  9
$ELEVATION
 40
0.0
  9
$PELEVATION
 40
0.0
  9
$THICKNESS
 40
0.0
  9
$LIMCHECK
 70
     0
  9
$CHAMFERA
 40
0.5
  9
$CHAMFERB
 40
0.5
  9
$CHAMFERC
 40
1.0
  9
$CHAMFERD
 40
0.0
  9
$SKPOLY
 70
     0
  9
$TDCREATE
 40
2453762.54517191
  9
$TDUPDATE
 40
2453762.545171921
  9
$TDINDWG
 40
0.0000000116
  9
$TDUSRTIMER
 40
0.0000000116
  9
$USRTIMER
 70
     1
  9
$ANGBASE
 50
0.0
  9
$ANGDIR
 70
     0
  9
$PDMODE
 70
     0
  9
$PDSIZE
 40
0.0
  9
$PLINEWID
 40
0.0
  9
$COORDS
 70
     1
  9
$SPLFRAME
 70
     0
  9
$SPLINETYPE
 70
     6
  9
$SPLINESEGS
 70
     8
  9
$ATTDIA
 70
     0
  9
$ATTREQ
 70
     1
  9
$HANDLING
 70
     1
  9
$HANDSEED
  5
F1
  9
$SURFTAB1
 70
     6
  9
$SURFTAB2
 70
     6
  9
$SURFTYPE
 70
     6
  9
$SURFU
 70
     6
  9
$SURFV
 70
     6
  9
$UCSNAME
  2

  9
$UCSORG
 10
0.0
 20
0.0
 30
0.0
  9
$UCSXDIR
 10
1.0
 20
0.0
 30
0.0
  9
$UCSYDIR
 10
0.0
 20
1.0
 30
0.0
  9
$PUCSNAME
  2

  9
$PUCSORG
 10
0.0
 20
0.0
 30
0.0
  9
$PUCSXDIR
 10
1.0
 20
0.0
 30
0.0
  9
$PUCSYDIR
 10
0.0
 20
1.0
 30
0.0
  9
$USERI1
 70
     0
  9
$USERI2
 70
     0
  9
$USERI3
 70
     0
  9
$USERI4
 70
     0
  9
$USERI5
 70
     0
  9
$USERR1
 40
0.0
  9
$USERR2
 40
0.0
  9
$USERR3
 40
0.0
  9
$USERR4
 40
0.0
  9
$USERR5
 40
0.0
  9
$WORLDVIEW
 70
     1
  9
$SHADEDGE
 70
     3
  9
$SHADEDIF
 70
    70
  9
$TILEMODE
 70
     1
  9
$MAXACTVP
 70
    64
  9
$PINSBASE
 10
0.0
 20
0.0
 30
0.0
  9
$PLIMCHECK
 70
     0
  9
$PEXTMIN
 10
0.0
 20
0.0
 30
0.0
  9
$PEXTMAX
 10
210.0
 20
297.0
 30
0.0
  9
$PLIMMIN
 10
0.0
 20
0.0
  9
$PLIMMAX
 10
12.0
 20
9.0
  9
$UNITMODE
 70
     0
  9
$VISRETAIN
 70
     1
  9
$PLINEGEN
 70
     0
  9
$PSLTSCALE
 70
     1
  9
$TREEDEPTH
 70
  3020
  9
$PICKSTYLE
 70
     1
  9
$CMLSTYLE
  2
STANDARD
  9
$CMLJUST
 70
     0
  9
$CMLSCALE
 40
1.0
  9
$SAVEIMAGES
 70
     1
  0
ENDSEC
  0
SECTION
  2
CLASSES
  0
CLASS
  1
ACDBDICTIONARYWDFLT
  2
AcDbDictionaryWithDefault
  3
ObjectDBX Classes
 90
        0
280
     0
281
     0
  0
CLASS
  1
TABLESTYLE
  2
AcDbTableStyle
  3
ObjectDBX Classes
 90
     2047
280
     0
281
     0
  0
CLASS
  1
DICTIONARYVAR
  2
AcDbDictionaryVar
  3
ObjectDBX Classes
 90
        0
280
     0
281
     0
  0
CLASS
  1
XRECORD
  2
AcDbXrecord
  3
AutoCAD 2000
 90
    32768
280
     0
281
     0
  0
CLASS
  1
LWPOLYLINE
  2
AcDbPolyline
  3
AutoCAD 2000
 90
    32768
280
     0
281
     1
  0
CLASS
  1
HATCH
  2
AcDbHatch
  3
AutoCAD 2000
 90
    32768
280
     0
281
     1
  0
CLASS
  1
ACDBPLACEHOLDER
  2
AcDbPlaceHolder
  3
ObjectDBX Classes
 90
        0
280
     0
281
     0
  0
CLASS
  1
LAYOUT
  2
AcDbLayout
  3
ObjectDBX Classes
 90
        0
280
     0
281
     0
  0
ENDSEC
  0
SECTION
  2
TABLES
  0
TABLE
  2
VPORT
  5
8
330
0
100
AcDbSymbolTable
 70
     2
  0
VPORT
  5
29
102
{ACAD_XDICTIONARY
360
EF
102
}
330
8
100
AcDbSymbolTableRecord
100
AcDbViewportTableRecord
  2
*ACTIVE
 70
     0
 10
0.0
 20
0.0
 11
1.0
 21
1.0
 12
10.4299065421
 22
4.5
 13
0.0
 23
0.0
 14
0.5
 24
0.5
 15
0.5
 25
0.5
 16
0.0
 26
0.0
 36
1.0
 17
0.0
 27
0.0
 37
0.0
 40
9.0
 41
1.9729729729
 42
50.0
 43
0.0
 44
0.0
 50
0.0
 51
0.0
 71
     0
 72
   100
 73
     1
 74
     3
 75
     0
 76
     0
 77
     0
 78
     0
  0
ENDTAB
  0
TABLE
  2
LTYPE
  5
5
330
0
100
AcDbSymbolTable
 70
     2
  0
LTYPE
  5
14
330
5
100
AcDbSymbolTableRecord
100
AcDbLinetypeTableRecord
  2
BYBLOCK
 70
     0
  3

 72
    65
 73
     0
 40
0.0
  0
LTYPE
  5
15
330
5
100
AcDbSymbolTableRecord
100
AcDbLinetypeTableRecord
  2
BYLAYER
 70
     0
  3

 72
    65
 73
     0
 40
0.0
  0
LTYPE
  5
16
330
5
100
AcDbSymbolTableRecord
100
AcDbLinetypeTableRecord
  2
CONTINUOUS
 70
     0
  3
Solid line
 72
    65
 73
     0
 40
0.0
  0
LTYPE
  5
5B
330
5
100
AcDbSymbolTableRecord
100
AcDbLinetypeTableRecord
  2
CENTER2
 70
     0
  3
___ _ ___ _ ___ _ ___ _ ___ _ ___ _ ___ _ ___ _
 72
    65
 73
     4
 40
1.125
 49
0.75
 74
     4
 75
     0
340
0
 46
0.0
 50
0.0
 44
0.0
 45
0.0
 49
-0.125
 74
     4
 75
     0
340
0
 46
0.0
 50
0.0
 44
0.0
 45
0.0
 49
0.125
 74
     4
 75
     0
340
0
 46
0.0
 50
0.0
 44
0.0
 45
0.0
 49
-0.125
 74
     4
 75
     0
340
0
 46
0.0
 50
0.0
 44
0.0
 45
0.0
  0
ENDTAB
  0
TABLE
  2
LAYER
  5
2
330
0
100
AcDbSymbolTable
 70
     6
  0
LAYER
  5
10
330
2
100
AcDbSymbolTableRecord
100
AcDbLayerTableRecord
  2
0
 70
     0
 62
     7
  6
CONTINUOUS
  0
LAYER
  5
30
330
2
100
AcDbSymbolTableRecord
100
AcDbLayerTableRecord
  2
MEGA_002163
 70
     0
 62
     7
  6
CONTINUOUS
  0
LAYER
  5
3D
330
2
100
AcDbSymbolTableRecord
100
AcDbLayerTableRecord
  2
MEGA_002164
 70
     0
 62
     7
  6
CONTINUOUS
  0
LAYER
  5
41
330
2
100
AcDbSymbolTableRecord
100
AcDbLayerTableRecord
  2
SCHRAUBE_DIN_EN_
 70
     0
 62
     7
  6
CONTINUOUS
  0
LAYER
  5
59
330
2
100
AcDbSymbolTableRecord
100
AcDbLayerTableRecord
  2
STANDARD
 70
     0
 62
     7
  6
CONTINUOUS
  0
LAYER
  5
65
330
2
100
AcDbSymbolTableRecord
100
AcDbLayerTableRecord
  2
DEFAULT
 70
     0
 62
     7
  6
CONTINUOUS
  0
ENDTAB
  0
TABLE
  2
STYLE
  5
3
330
0
100
AcDbSymbolTable
 70
     3
  0
STYLE
  5
11
330
3
100
AcDbSymbolTableRecord
100
AcDbTextStyleTableRecord
  2
STANDARD
 70
     0
 40
0.0
 41
1.0
 50
0.0
 71
     0
 42
0.2
  3
txt
  4

  0
STYLE
  5
6A
330
3
100
AcDbSymbolTableRecord
100
AcDbTextStyleTableRecord
  2
SEACAD_SEISO_TTF
 70
     0
 40
0.2
 41
1.0
 50
0.0
 71
     0
 42
0.2
  3
seiso.ttf
  4

  0
STYLE
  5
77
330
3
100
AcDbSymbolTableRecord
100
AcDbTextStyleTableRecord
  2
SEACAD_SEMECI1_TTF
 70
     0
 40
0.2
 41
1.0
 50
0.0
 71
     0
 42
0.2
  3
semeci1.ttf
  4

  0
ENDTAB
  0
TABLE
  2
VIEW
  5
6
330
0
100
AcDbSymbolTable
 70
     0
  0
ENDTAB
  0
TABLE
  2
UCS
  5
7
330
0
100
AcDbSymbolTable
 70
     0
  0
ENDTAB
  0
TABLE
  2
APPID
  5
9
330
0
100
AcDbSymbolTable
 70
     1
  0
APPID
  5
12
330
9
100
AcDbSymbolTableRecord
100
AcDbRegAppTableRecord
  2
ACAD
 70
     0
  0
ENDTAB
  0
TABLE
  2
DIMSTYLE
  5
A
330
0
100
AcDbSymbolTable
 70
     1
  0
DIMSTYLE
105
27
330
A
100
AcDbSymbolTableRecord
100
AcDbDimStyleTableRecord
  2
STANDARD
 70
     0
  3

  4

  5

  6

  7

 40
1.0
 41
0.18
 42
0.0625
 43
0.38
 44
0.18
 45
0.0
 46
0.0
 47
0.0
 48
0.0
140
0.18
141
0.09
142
0.0
143
25.4
144
1.0
145
0.0
146
1.0
147
0.09
 71
     0
 72
     0
 73
     1
 74
     1
 75
     0
 76
     0
 77
     0
 78
     0
170
     0
171
     2
172
     0
173
     0
174
     0
175
     0
176
     0
177
     0
178
     0
270
     2
271
     4
272
     4
273
     2
274
     2
340
11
275
     0
280
     0
281
     0
282
     0
283
     1
284
     0
285
     0
286
     0
287
     3
288
     0
  0
ENDTAB
  0
TABLE
  2
BLOCK_RECORD
  5
1
330
0
100
AcDbSymbolTable
 70
     9
  0
BLOCK_RECORD
  5
1F
330
1
100
AcDbSymbolTableRecord
100
AcDbBlockTableRecord
  2
*MODEL_SPACE
  0
BLOCK_RECORD
  5
1B
330
1
100
AcDbSymbolTableRecord
100
AcDbBlockTableRecord
  2
*PAPER_SPACE
  0
BLOCK_RECORD
  5
2E
330
1
100
AcDbSymbolTableRecord
100
AcDbBlockTableRecord
  2
SE
  0
BLOCK_RECORD
  5
63
330
1
100
AcDbSymbolTableRecord
100
AcDbBlockTableRecord
  2
SE1
  0
BLOCK_RECORD
  5
6F
330
1
100
AcDbSymbolTableRecord
100
AcDbBlockTableRecord
  2
SE2
  0
BLOCK_RECORD
  5
7B
330
1
100
AcDbSymbolTableRecord
100
AcDbBlockTableRecord
  2
SE3
  0
BLOCK_RECORD
  5
85
330
1
100
AcDbSymbolTableRecord
100
AcDbBlockTableRecord
  2
SE4
  0
BLOCK_RECORD
  5
8F
330
1
100
AcDbSymbolTableRecord
100
AcDbBlockTableRecord
  2
SE5
  0
BLOCK_RECORD
  5
99
330
1
100
AcDbSymbolTableRecord
100
AcDbBlockTableRecord
  2
SE6
  0
BLOCK_RECORD
  5
A3
330
1
100
AcDbSymbolTableRecord
100
AcDbBlockTableRecord
  2
SE7
  0
ENDTAB
  0
ENDSEC
  0
SECTION
  2
BLOCKS
  0
BLOCK
  5
20
330
1F
100
AcDbEntity
  8
0
100
AcDbBlockBegin
  2
*MODEL_SPACE
 70
     0
 71
     0
 10
0.0
 20
0.0
 30
0.0
  3
*MODEL_SPACE
  1

  0
ENDBLK
  5
21
330
1F
100
AcDbEntity
  8
0
100
AcDbBlockEnd
  0
BLOCK
  5
1C
330
1B
100
AcDbEntity
 67
     1
  8
0
100
AcDbBlockBegin
  2
*PAPER_SPACE
 70
     0
 71
     0
 10
0.0
 20
0.0
 30
0.0
  3
*PAPER_SPACE
  1

  0
ENDBLK
  5
1D
330
1B
100
AcDbEntity
 67
     1
  8
0
100
AcDbBlockEnd
  0
BLOCK
  5
61
330
2E
100
AcDbEntity
  8
0
100
AcDbBlockBegin
  2
SE
 70
     0
 71
     0
 10
0.0
 20
0.0
 30
0.0
  3
SE
  1

  0
ARC
  5
31
330
2E
100
AcDbEntity
  8
MEGA_002163
  6
CONTINUOUS
 62
     7
 48
25.4
100
AcDbCircle
 10
80.2044097121
 20
171.2719840328
 30
0.0
 40
2.0
100
AcDbArc
 50
0.0
 51
93.0
  0
ARC
  5
32
330
2E
100
AcDbEntity
  8
MEGA_002163
  6
CONTINUOUS
 62
     7
 48
25.4
100
AcDbCircle
 10
250.2044097121
 20
145.8795442833
 30
0.0
 40
180.0
100
AcDbArc
 50
171.9046438437
 51
188.0953561563
  0
ARC
  5
33
330
2E
100
AcDbEntity
  8
MEGA_002163
  6
CONTINUOUS
 62
     7
 48
25.4
100
AcDbCircle
 10
73.9781664403
 20
120.813408117
 30
0.0
 40
2.0
100
AcDbArc
 50
188.0953561563
 51
267.0
  0
LINE
  5
34
330
2E
100
AcDbEntity
  8
MEGA_002163
  6
CONTINUOUS
 62
     7
 48
25.4
100
AcDbLine
 10
80.0997377996
 20
173.2692431023
 30
0.0
 11
73.8734945278
 21
172.9429395191
 31
0.0
  0
LINE
  5
35
330
2E
100
AcDbEntity
  8
MEGA_002163
  6
CONTINUOUS
 62
     7
 48
25.4
100
AcDbLine
 10
82.2044097121
 20
135.8795442833
 30
0.0
 11
97.2044097121
 21
135.8795442833
 31
0.0
  0
ARC
  5
36
330
2E
100
AcDbEntity
  8
MEGA_002163
  6
CONTINUOUS
 62
     7
 48
25.4
100
AcDbCircle
 10
73.9781664403
 20
170.9456804496
 30
0.0
 40
2.0
100
AcDbArc
 50
93.0
 51
171.9046438437
  0
LINE
  5
37
330
2E
100
AcDbEntity
  8
MEGA_002163
  6
CONTINUOUS
 62
     7
 48
25.4
100
AcDbLine
 10
73.8734945278
 20
118.8161490475
 30
0.0
 11
80.0997377996
 21
118.4898454644
 31
0.0
  0
LINE
  5
38
330
2E
100
AcDbEntity
  8
MEGA_002163
  6
CONTINUOUS
 62
     7
 48
25.4
100
AcDbLine
 10
97.2044097121
 20
155.8795442833
 30
0.0
 11
82.2044097121
 21
155.8795442833
 31
0.0
  0
LINE
  5
39
330
2E
100
AcDbEntity
  8
MEGA_002163
  6
CONTINUOUS
 62
     7
 48
25.4
100
AcDbLine
 10
82.2044097121
 20
120.4871045339
 30
0.0
 11
82.2044097121
 21
171.2719840328
 31
0.0
  0
LINE
  5
3A
330
2E
100
AcDbEntity
  8
MEGA_002163
  6
CONTINUOUS
 62
     7
 48
25.4
100
AcDbLine
 10
73.8734945278
 20
118.8161490475
 30
0.0
 11
73.8734945278
 21
172.9429395191
 31
0.0
  0
LINE
  5
3B
330
2E
100
AcDbEntity
  8
MEGA_002163
  6
CONTINUOUS
 62
     7
 48
25.4
100
AcDbLine
 10
97.2044097121
 20
135.8795442833
 30
0.0
 11
97.2044097121
 21
155.8795442833
 31
0.0
  0
ARC
  5
3C
330
2E
100
AcDbEntity
  8
MEGA_002163
  6
CONTINUOUS
 62
     7
 48
25.4
100
AcDbCircle
 10
80.2044097121
 20
120.4871045339
 30
0.0
 40
2.0
100
AcDbArc
 50
267.0
 51
360.0
  0
LINE
  5
3E
330
2E
100
AcDbEntity
  8
MEGA_002164
  6
CONTINUOUS
 62
     7
 48
25.4
100
AcDbLine
 10
132.2044097121
 20
149.3795442833
 30
0.0
 11
132.2044097121
 21
142.3795442833
 31
0.0
  0
LINE
  5
3F
330
2E
100
AcDbEntity
  8
MEGA_002164
  6
CONTINUOUS
 62
     7
 48
25.4
100
AcDbLine
 10
132.2044097121
 20
142.3795442833
 30
0.0
 11
97.2044097121
 21
142.3795442833
 31
0.0
  0
LINE
  5
40
330
2E
100
AcDbEntity
  8
MEGA_002164
  6
CONTINUOUS
 62
     7
 48
25.4
100
AcDbLine
 10
132.2044097121
 20
149.3795442833
 30
0.0
 11
97.2044097121
 21
149.3795442833
 31
0.0
  0
LINE
  5
42
330
2E
100
AcDbEntity
  8
SCHRAUBE_DIN_EN_
  6
CONTINUOUS
 62
     7
 48
25.4
100
AcDbLine
 10
137.2044097121
 20
141.8795442833
 30
0.0
 11
138.927885095
 21
141.8795442833
 31
0.0
  0
LINE
  5
43
330
2E
100
AcDbEntity
  8
SCHRAUBE_DIN_EN_
  6
CONTINUOUS
 62
     7
 48
25.4
100
AcDbLine
 10
140.0121498011
 20
143.9786009364
 30
0.0
 11
140.0183009884
 21
143.9723066982
 31
0.0
  0
ELLIPSE
  5
44
330
2E
100
AcDbEntity
  8
SCHRAUBE_DIN_EN_
  6
CONTINUOUS
 62
     7
 48
25.4
100
AcDbEllipse
 10
133.8044097254
 20
145.8795442796
 30
0.0
 11
6.499999986671672
 21
1.331535182000000E-7
 31
0.0
210
0.0
220
0.0
230
1.0
 40
0.9863939247
 41
5.982173297648163
 42
6.032077848730546
  0
LINE
  5
45
330
2E
100
AcDbEntity
  8
SCHRAUBE_DIN_EN_
  6
CONTINUOUS
 62
     7
 48
25.4
100
AcDbLine
 10
140.1005556921
 20
145.6140235915
 30
0.0
 11
140.0143559646
 21
145.6257841745
 31
0.0
  0
ELLIPSE
  5
46
330
2E
100
AcDbEntity
  8
SCHRAUBE_DIN_EN_
  6
CONTINUOUS
 62
     7
 48
25.4
100
AcDbEllipse
 10
134.5311753221
 20
146.5187676721
 30
0.0
 11
4.12909915736185
 21
-4.694583021392177
 31
0.0
210
0.0
220
0.0
230
1.0
 40
0.8388564142
 41
0.5424897927869102
 42
0.7022996294478023
  0
ELLIPSE
  5
47
330
2E
100
AcDbEntity
  8
SCHRAUBE_DIN_EN_
  6
CONTINUOUS
 62
     7
 48
25.4
100
AcDbEllipse
 10
134.5311753221
 20
147.3710655238
 30
0.0
 11
5.620372749216439
 21
-2.738609091536738
 31
0.0
210
0.0
220
0.0
230
1.0
 40
0.3595098918
 41
0.2328414257103476
 42
0.3926512623708245
  0
ELLIPSE
  5
48
330
2E
100
AcDbEntity
  8
SCHRAUBE_DIN_EN_
  6
CONTINUOUS
 62
     7
 48
25.4
100
AcDbEllipse
 10
133.8044097073
 20
145.8795442836
 30
0.0
 11
6.500000004803081
 21
-2.226015000000000E-10
 31
0.0
210
0.0
220
0.0
230
1.0
 40
0.1643989873
 41
5.982173318275465
 42
6.032077869285815
  0
ARC
  5
49
330
2E
100
AcDbEntity
  8
SCHRAUBE_DIN_EN_
  6
CONTINUOUS
 62
     7
 48
25.4
100
AcDbCircle
 10
131.8592583803
 20
145.8795442833
 30
0.0
 40
8.159045035899993
100
AcDbArc
 50
357.7745879894
 51
2.2254120106
  0
LINE
  5
4A
330
2E
100
AcDbEntity
  8
SCHRAUBE_DIN_EN_
  6
CONTINUOUS
 62
     7
 48
25.4
100
AcDbLine
 10
140.1005556921
 20
146.1450649752
 30
0.0
 11
140.0143559646
 21
146.1333043922
 31
0.0
  0
ELLIPSE
  5
4B
330
2E
100
AcDbEntity
  8
SCHRAUBE_DIN_EN_
  6
CONTINUOUS
 62
     7
 48
25.4
100
AcDbEllipse
 10
133.8044097068
 20
145.8795442831
 30
0.0
 11
6.500000005308864
 21
2.434397000000000E-10
 31
0.0
210
0.0
220
0.0
230
1.0
 40
0.1643989872
 41
0.2511074378833993
 42
0.301011988891759
  0
ELLIPSE
  5
4C
330
2E
100
AcDbEntity
  8
SCHRAUBE_DIN_EN_
  6
CONTINUOUS
 62
     7
 48
25.4
100
AcDbEllipse
 10
134.531175322
 20
144.3880230428
 30
0.0
 11
5.620372749296848
 21
2.738609091563312
 31
0.0
210
0.0
220
0.0
230
0.9999999999999999
 40
0.3595098918
 41
5.89053404481205
 42
6.0503438814714
  0
LINE
  5
4D
330
2E
100
AcDbEntity
  8
SCHRAUBE_DIN_EN_
  6
CONTINUOUS
 62
     7
 48
25.4
100
AcDbLine
 10
137.2044097121
 20
141.8795442833
 30
0.0
 11
137.2044097121
 21
149.8795442833
 31
0.0
  0
ELLIPSE
  5
4E
330
2E
100
AcDbEntity
  8
SCHRAUBE_DIN_EN_
  6
CONTINUOUS
 62
     7
 48
25.4
100
AcDbEllipse
 10
133.804409711
 20
145.879544283
 30
0.0
 11
6.500000001043123
 21
1.037667730000000E-8
 31
0.0
210
0.0
220
0.0
230
1.0
 40
0.9863939238
 41
0.2511074363953682
 42
0.30101198742034
  0
ELLIPSE
  5
4F
330
2E
100
AcDbEntity
  8
SCHRAUBE_DIN_EN_
  6
CONTINUOUS
 62
     7
 48
25.4
100
AcDbEllipse
 10
134.5311753221
 20
145.2403208946
 30
0.0
 11
4.12909915736605
 21
4.69458302139136
 31
0.0
210
0.0
220
0.0
230
1.0
 40
0.8388564142
 41
5.580885677732336
 42
5.740695514393186
  0
LINE
  5
50
330
2E
100
AcDbEntity
  8
SCHRAUBE_DIN_EN_
  6
CONTINUOUS
 62
     7
 48
25.4
100
AcDbLine
 10
136.8044097121
 20
143.8795442833
 30
0.0
 11
136.8044097121
 21
147.8795442833
 31
0.0
  0
LINE
  5
51
330
2E
100
AcDbEntity
  8
SCHRAUBE_DIN_EN_
  6
CONTINUOUS
 62
     7
 48
25.4
100
AcDbLine
 10
138.927885095
 20
141.8795442833
 30
0.0
 11
138.927885095
 21
149.8795442833
 31
0.0
  0
ARC
  5
52
330
2E
100
AcDbEntity
  8
SCHRAUBE_DIN_EN_
  6
CONTINUOUS
 62
     7
 48
25.4
100
AcDbCircle
 10
133.8044097121
 20
145.8795442833
 30
0.0
 40
6.500000000000001
100
AcDbArc
 50
17.0628877539
 51
37.9798724449
  0
ARC
  5
53
330
2E
100
AcDbEntity
  8
SCHRAUBE_DIN_EN_
  6
CONTINUOUS
 62
     7
 48
25.4
100
AcDbCircle
 10
137.0044097121
 20
143.8795442833
 30
0.0
 40
0.1999999999999886
100
AcDbArc
 50
0.0
 51
180.0
  0
LINE
  5
54
330
2E
100
AcDbEntity
  8
SCHRAUBE_DIN_EN_
  6
CONTINUOUS
 62
     7
 48
25.4
100
AcDbLine
 10
132.2044097121
 20
143.8795442833
 30
0.0
 11
136.8044097121
 21
143.8795442833
 31
0.0
  0
LINE
  5
55
330
2E
100
AcDbEntity
  8
SCHRAUBE_DIN_EN_
  6
CONTINUOUS
 62
     7
 48
25.4
100
AcDbLine
 10
138.927885095
 20
149.8795442833
 30
0.0
 11
137.2044097121
 21
149.8795442833
 31
0.0
  0
ARC
  5
56
330
2E
100
AcDbEntity
  8
SCHRAUBE_DIN_EN_
  6
CONTINUOUS
 62
     7
 48
25.4
100
AcDbCircle
 10
133.8044097121
 20
145.8795442833
 30
0.0
 40
6.500000000000001
100
AcDbArc
 50
322.0201275551
 51
342.9371122461
  0
ARC
  5
57
330
2E
100
AcDbEntity
  8
SCHRAUBE_DIN_EN_
  6
CONTINUOUS
 62
     7
 48
25.4
100
AcDbCircle
 10
137.0044097121
 20
147.8795442833
 30
0.0
 40
0.1999999999999886
100
AcDbArc
 50
180.0
 51
360.0
  0
LINE
  5
58
330
2E
100
AcDbEntity
  8
SCHRAUBE_DIN_EN_
  6
CONTINUOUS
 62
     7
 48
25.4
100
AcDbLine
 10
140.0121498011
 20
147.7804876303
 30
0.0
 11
140.0183009884
 21
147.7867818684
 31
0.0
  0
LINE
  5
5A
330
2E
100
AcDbEntity
  8
STANDARD
  6
CONTINUOUS
 62
     7
 48
25.4
100
AcDbLine
 10
136.8044097121
 20
147.8795442833
 30
0.0
 11
132.2044097121
 21
147.8795442833
 31
0.0
  0
LINE
  5
5C
330
2E
100
AcDbEntity
  8
STANDARD
  6
CENTER2
 62
     7
 48
25.4
100
AcDbLine
 10
70.2044097121
 20
145.8795442833
 30
0.0
 11
138.927885095
 21
145.8795442833
 31
0.0
  0
LINE
  5
5D
330
2E
100
AcDbEntity
  8
STANDARD
  6
CONTINUOUS
 62
     7
 48
25.4
100
AcDbLine
 10
97.2044097121
 20
142.3795442833
 30
0.0
 11
132.2044097121
 21
149.3795442833
 31
0.0
  0
LINE
  5
5E
330
2E
100
AcDbEntity
  8
STANDARD
  6
CONTINUOUS
 62
     7
 48
25.4
100
AcDbLine
 10
97.2044097121
 20
149.3795442833
 30
0.0
 11
132.2044097121
 21
142.3795442833
 31
0.0
  0
LINE
  5
5F
330
2E
100
AcDbEntity
  8
STANDARD
  6
CENTER2
 62
     7
 48
25.4
100
AcDbLine
 10
70.2044097121
 20
145.8795442833
 30
0.0
 11
66.1395003382
 21
145.8795442833
 31
0.0
  0
LINE
  5
60
330
2E
100
AcDbEntity
  8
STANDARD
  6
CENTER2
 62
     7
 48
25.4
100
AcDbLine
 10
138.927885095
 20
145.8795442833
 30
0.0
 11
143.0107817344
 21
145.8795442833
 31
0.0
  0
ENDBLK
  5
62
330
2E
100
AcDbEntity
  8
0
100
AcDbBlockEnd
  0
BLOCK
  5
6D
330
63
100
AcDbEntity
  8
0
100
AcDbBlockBegin
  2
SE1
 70
     0
 71
     0
 10
0.0
 20
0.0
 30
0.0
  3
SE1
  1

  0
POLYLINE
  5
66
330
63
100
AcDbEntity
  8
DEFAULT
  6
CONTINUOUS
 62
     7
 48
25.4
100
AcDb2dPolyline
 66
     1
 10
0.0
 20
0.0
 30
0.0
 70
     1
  0
VERTEX
  5
AF
330
66
100
AcDbEntity
  8
DEFAULT
  6
CONTINUOUS
 62
     7
100
AcDbVertex
100
AcDb2dVertex
 10
148.1530563363
 20
140.8795442572
 30
0.0
  0
VERTEX
  5
B0
330
66
100
AcDbEntity
  8
DEFAULT
  6
CONTINUOUS
 62
     7
100
AcDbVertex
100
AcDb2dVertex
 10
147.653056332
 20
143.8795442833
 30
0.0
  0
VERTEX
  5
B1
330
66
100
AcDbEntity
  8
DEFAULT
  6
CONTINUOUS
 62
     7
100
AcDbVertex
100
AcDb2dVertex
 10
147.1530563276
 20
140.8795442572
 30
0.0
  0
VERTEX
  5
B2
330
66
100
AcDbEntity
  8
DEFAULT
  6
CONTINUOUS
 62
     7
100
AcDbVertex
100
AcDb2dVertex
 10
148.1530563363
 20
140.8795442572
 30
0.0
  0
SEQEND
  5
AE
330
66
100
AcDbEntity
  8
DEFAULT
  6
CONTINUOUS
 62
     7
 48
25.4
  0
LINE
  5
67
330
63
100
AcDbEntity
  8
DEFAULT
  6
CONTINUOUS
 62
     7
 48
25.4
100
AcDbLine
 10
132.2044097121
 20
147.8795442833
 30
0.0
 11
149.153056345
 21
147.8795442833
 31
0.0
  0
LINE
  5
68
330
63
100
AcDbEntity
  8
DEFAULT
  6
CONTINUOUS
 62
     7
 48
25.4
100
AcDbLine
 10
132.2044097121
 20
143.8795442833
 30
0.0
 11
149.153056345
 21
143.8795442833
 31
0.0
  0
LINE
  5
69
330
63
100
AcDbEntity
  8
DEFAULT
  6
CONTINUOUS
 62
     7
 48
25.4
100
AcDbLine
 10
147.653056332
 20
157.6766749947
 30
0.0
 11
147.653056332
 21
137.8795445068
 31
0.0
  0
TEXT
  5
6B
330
63
100
AcDbEntity
  8
DEFAULT
  6
CONTINUOUS
 62
     7
 48
25.4
100
AcDbText
 10
146.903056332
 20
154.8539473713
 30
0.0
 40
3.0
  1
4
 50
90.0
  7
SEACAD_SEISO_TTF
 11
143.903056332
 21
154.8539473713
 31
0.0
100
AcDbText
 73
     3
  0
TEXT
  5
6C
330
63
100
AcDbEntity
  8
DEFAULT
  6
CONTINUOUS
 62
     7
 48
25.4
100
AcDbText
 10
146.903056332
 20
151.0084928258
 30
0.0
 40
3.0
  1
M 
 50
90.0
  7
SEACAD_SEISO_TTF
 11
143.903056332
 21
151.0084928258
 31
0.0
100
AcDbText
 73
     3
  0
ENDBLK
  5
6E
330
63
100
AcDbEntity
  8
0
100
AcDbBlockEnd
  0
BLOCK
  5
79
330
6F
100
AcDbEntity
  8
0
100
AcDbBlockBegin
  2
SE2
 70
     0
 71
     0
 10
0.0
 20
0.0
 30
0.0
  3
SE2
  1

  0
POLYLINE
  5
71
330
6F
100
AcDbEntity
  8
DEFAULT
  6
CONTINUOUS
 62
     7
 48
25.4
100
AcDb2dPolyline
 66
     1
 10
0.0
 20
0.0
 30
0.0
 70
     1
  0
VERTEX
  5
B4
330
71
100
AcDbEntity
  8
DEFAULT
  6
CONTINUOUS
 62
     7
100
AcDbVertex
100
AcDb2dVertex
 10
155.8161554316
 20
152.3795443094
 30
0.0
  0
VERTEX
  5
B5
330
71
100
AcDbEntity
  8
DEFAULT
  6
CONTINUOUS
 62
     7
100
AcDbVertex
100
AcDb2dVertex
 10
155.3161554272
 20
149.3795442833
 30
0.0
  0
VERTEX
  5
B6
330
71
100
AcDbEntity
  8
DEFAULT
  6
CONTINUOUS
 62
     7
100
AcDbVertex
100
AcDb2dVertex
 10
154.8161554229
 20
152.3795443094
 30
0.0
  0
VERTEX
  5
B7
330
71
100
AcDbEntity
  8
DEFAULT
  6
CONTINUOUS
 62
     7
100
AcDbVertex
100
AcDb2dVertex
 10
155.8161554316
 20
152.3795443094
 30
0.0
  0
SEQEND
  5
B3
330
71
100
AcDbEntity
  8
DEFAULT
  6
CONTINUOUS
 62
     7
 48
25.4
  0
POLYLINE
  5
72
330
6F
100
AcDbEntity
  8
DEFAULT
  6
CONTINUOUS
 62
     7
 48
25.4
100
AcDb2dPolyline
 66
     1
 10
0.0
 20
0.0
 30
0.0
 70
     1
  0
VERTEX
  5
B9
330
72
100
AcDbEntity
  8
DEFAULT
  6
CONTINUOUS
 62
     7
100
AcDbVertex
100
AcDb2dVertex
 10
155.8161554316
 20
139.3795442572
 30
0.0
  0
VERTEX
  5
BA
330
72
100
AcDbEntity
  8
DEFAULT
  6
CONTINUOUS
 62
     7
100
AcDbVertex
100
AcDb2dVertex
 10
155.3161554272
 20
142.3795442833
 30
0.0
  0
VERTEX
  5
BB
330
72
100
AcDbEntity
  8
DEFAULT
  6
CONTINUOUS
 62
     7
100
AcDbVertex
100
AcDb2dVertex
 10
154.8161554229
 20
139.3795442572
 30
0.0
  0
VERTEX
  5
BC
330
72
100
AcDbEntity
  8
DEFAULT
  6
CONTINUOUS
 62
     7
100
AcDbVertex
100
AcDb2dVertex
 10
155.8161554316
 20
139.3795442572
 30
0.0
  0
SEQEND
  5
B8
330
72
100
AcDbEntity
  8
DEFAULT
  6
CONTINUOUS
 62
     7
 48
25.4
  0
LINE
  5
73
330
6F
100
AcDbEntity
  8
DEFAULT
  6
CONTINUOUS
 62
     7
 48
25.4
100
AcDbLine
 10
132.2044097121
 20
149.3795442833
 30
0.0
 11
156.8161554402
 21
149.3795442833
 31
0.0
  0
LINE
  5
74
330
6F
100
AcDbEntity
  8
DEFAULT
  6
CONTINUOUS
 62
     7
 48
25.4
100
AcDbLine
 10
132.2044097121
 20
142.3795442833
 30
0.0
 11
156.8161554402
 21
142.3795442833
 31
0.0
  0
LINE
  5
75
330
6F
100
AcDbEntity
  8
DEFAULT
  6
CONTINUOUS
 62
     7
 48
25.4
100
AcDbLine
 10
155.3161554272
 20
158.8231626405
 30
0.0
 11
155.3161554272
 21
136.3795440151
 31
0.0
  0
TEXT
  5
76
330
6F
100
AcDbEntity
  8
DEFAULT
  6
CONTINUOUS
 62
     7
 48
25.4
100
AcDbText
 10
154.5661554272
 20
155.8640715634
 30
0.0
 40
3.0
  1
7
 50
90.0
  7
SEACAD_SEISO_TTF
 11
151.5661554272
 21
155.8640715634
 31
0.0
100
AcDbText
 73
     3
  0
TEXT
  5
78
330
6F
100
AcDbEntity
  8
DEFAULT
  6
CONTINUOUS
 62
     7
 48
25.4
100
AcDbText
 10
154.5661554272
 20
152.1579580263
 30
0.0
 40
3.0
  1
q
 50
90.0
  7
SEACAD_SEMECI1_TTF
 11
151.5661554272
 21
152.1579580263
 31
0.0
100
AcDbText
 73
     3
  0
ENDBLK
  5
7A
330
6F
100
AcDbEntity
  8
0
100
AcDbBlockEnd
  0
BLOCK
  5
83
330
7B
100
AcDbEntity
  8
0
100
AcDbBlockBegin
  2
SE3
 70
     0
 71
     0
 10
0.0
 20
0.0
 30
0.0
  3
SE3
  1

  0
POLYLINE
  5
7D
330
7B
100
AcDbEntity
  8
DEFAULT
  6
CONTINUOUS
 62
     7
 48
25.4
100
AcDb2dPolyline
 66
     1
 10
0.0
 20
0.0
 30
0.0
 70
     1
  0
VERTEX
  5
BE
330
7D
100
AcDbEntity
  8
DEFAULT
  6
CONTINUOUS
 62
     7
100
AcDbVertex
100
AcDb2dVertex
 10
73.2044097381
 20
180.7253760097
 30
0.0
  0
VERTEX
  5
BF
330
7D
100
AcDbEntity
  8
DEFAULT
  6
CONTINUOUS
 62
     7
100
AcDbVertex
100
AcDb2dVertex
 10
70.2044097121
 20
180.2253760053
 30
0.0
  0
VERTEX
  5
C0
330
7D
100
AcDbEntity
  8
DEFAULT
  6
CONTINUOUS
 62
     7
100
AcDbVertex
100
AcDb2dVertex
 10
73.2044097381
 20
179.725376001
 30
0.0
  0
VERTEX
  5
C1
330
7D
100
AcDbEntity
  8
DEFAULT
  6
CONTINUOUS
 62
     7
100
AcDbVertex
100
AcDb2dVertex
 10
73.2044097381
 20
180.7253760097
 30
0.0
  0
SEQEND
  5
BD
330
7D
100
AcDbEntity
  8
DEFAULT
  6
CONTINUOUS
 62
     7
 48
25.4
  0
POLYLINE
  5
7E
330
7B
100
AcDbEntity
  8
DEFAULT
  6
CONTINUOUS
 62
     7
 48
25.4
100
AcDb2dPolyline
 66
     1
 10
0.0
 20
0.0
 30
0.0
 70
     1
  0
VERTEX
  5
C3
330
7E
100
AcDbEntity
  8
DEFAULT
  6
CONTINUOUS
 62
     7
100
AcDbVertex
100
AcDb2dVertex
 10
79.204409686
 20
180.7253760097
 30
0.0
  0
VERTEX
  5
C4
330
7E
100
AcDbEntity
  8
DEFAULT
  6
CONTINUOUS
 62
     7
100
AcDbVertex
100
AcDb2dVertex
 10
82.2044097121
 20
180.2253760053
 30
0.0
  0
VERTEX
  5
C5
330
7E
100
AcDbEntity
  8
DEFAULT
  6
CONTINUOUS
 62
     7
100
AcDbVertex
100
AcDb2dVertex
 10
79.204409686
 20
179.725376001
 30
0.0
  0
VERTEX
  5
C6
330
7E
100
AcDbEntity
  8
DEFAULT
  6
CONTINUOUS
 62
     7
100
AcDbVertex
100
AcDb2dVertex
 10
79.204409686
 20
180.7253760097
 30
0.0
  0
SEQEND
  5
C2
330
7E
100
AcDbEntity
  8
DEFAULT
  6
CONTINUOUS
 62
     7
 48
25.4
  0
LINE
  5
7F
330
7B
100
AcDbEntity
  8
DEFAULT
  6
CONTINUOUS
 62
     7
 48
25.4
100
AcDbLine
 10
70.2044097121
 20
145.8795442833
 30
0.0
 11
70.2044097121
 21
181.7253760184
 31
0.0
  0
LINE
  5
80
330
7B
100
AcDbEntity
  8
DEFAULT
  6
CONTINUOUS
 62
     7
 48
25.4
100
AcDbLine
 10
82.2044097121
 20
171.2719840328
 30
0.0
 11
82.2044097121
 21
181.7253760184
 31
0.0
  0
LINE
  5
81
330
7B
100
AcDbEntity
  8
DEFAULT
  6
CONTINUOUS
 62
     7
 48
25.4
100
AcDbLine
 10
70.2044097121
 20
180.2253760053
 30
0.0
 11
82.2044098164
 21
180.2253760053
 31
0.0
  0
TEXT
  5
82
330
7B
100
AcDbEntity
  8
DEFAULT
  6
CONTINUOUS
 62
     7
 48
25.4
100
AcDbText
 10
74.6703188551
 20
180.9753760053
 30
0.0
 40
3.0
  1
12
  7
SEACAD_SEISO_TTF
 11
74.6703188551
 21
183.9753760053
 31
0.0
100
AcDbText
 73
     3
  0
ENDBLK
  5
84
330
7B
100
AcDbEntity
  8
0
100
AcDbBlockEnd
  0
BLOCK
  5
8D
330
85
100
AcDbEntity
  8
0
100
AcDbBlockBegin
  2
SE4
 70
     0
 71
     0
 10
0.0
 20
0.0
 30
0.0
  3
SE4
  1

  0
POLYLINE
  5
87
330
85
100
AcDbEntity
  8
DEFAULT
  6
CONTINUOUS
 62
     7
 48
25.4
100
AcDb2dPolyline
 66
     1
 10
0.0
 20
0.0
 30
0.0
 70
     1
  0
VERTEX
  5
C8
330
87
100
AcDbEntity
  8
DEFAULT
  6
CONTINUOUS
 62
     7
100
AcDbVertex
100
AcDb2dVertex
 10
85.2044097381
 20
180.7253756114
 30
0.0
  0
VERTEX
  5
C9
330
87
100
AcDbEntity
  8
DEFAULT
  6
CONTINUOUS
 62
     7
100
AcDbVertex
100
AcDb2dVertex
 10
82.2044097121
 20
180.2253756071
 30
0.0
  0
VERTEX
  5
CA
330
87
100
AcDbEntity
  8
DEFAULT
  6
CONTINUOUS
 62
     7
100
AcDbVertex
100
AcDb2dVertex
 10
85.2044097381
 20
179.7253756027
 30
0.0
  0
VERTEX
  5
CB
330
87
100
AcDbEntity
  8
DEFAULT
  6
CONTINUOUS
 62
     7
100
AcDbVertex
100
AcDb2dVertex
 10
85.2044097381
 20
180.7253756114
 30
0.0
  0
SEQEND
  5
C7
330
87
100
AcDbEntity
  8
DEFAULT
  6
CONTINUOUS
 62
     7
 48
25.4
  0
POLYLINE
  5
88
330
85
100
AcDbEntity
  8
DEFAULT
  6
CONTINUOUS
 62
     7
 48
25.4
100
AcDb2dPolyline
 66
     1
 10
0.0
 20
0.0
 30
0.0
 70
     1
  0
VERTEX
  5
CD
330
88
100
AcDbEntity
  8
DEFAULT
  6
CONTINUOUS
 62
     7
100
AcDbVertex
100
AcDb2dVertex
 10
94.204409686
 20
180.7253756114
 30
0.0
  0
VERTEX
  5
CE
330
88
100
AcDbEntity
  8
DEFAULT
  6
CONTINUOUS
 62
     7
100
AcDbVertex
100
AcDb2dVertex
 10
97.2044097121
 20
180.2253756071
 30
0.0
  0
VERTEX
  5
CF
330
88
100
AcDbEntity
  8
DEFAULT
  6
CONTINUOUS
 62
     7
100
AcDbVertex
100
AcDb2dVertex
 10
94.204409686
 20
179.7253756027
 30
0.0
  0
VERTEX
  5
D0
330
88
100
AcDbEntity
  8
DEFAULT
  6
CONTINUOUS
 62
     7
100
AcDbVertex
100
AcDb2dVertex
 10
94.204409686
 20
180.7253756114
 30
0.0
  0
SEQEND
  5
CC
330
88
100
AcDbEntity
  8
DEFAULT
  6
CONTINUOUS
 62
     7
 48
25.4
  0
LINE
  5
89
330
85
100
AcDbEntity
  8
DEFAULT
  6
CONTINUOUS
 62
     7
 48
25.4
100
AcDbLine
 10
82.2044097121
 20
171.2719840328
 30
0.0
 11
82.2044097121
 21
181.7253756201
 31
0.0
  0
LINE
  5
8A
330
85
100
AcDbEntity
  8
DEFAULT
  6
CONTINUOUS
 62
     7
 48
25.4
100
AcDbLine
 10
97.2044097121
 20
155.8795442833
 30
0.0
 11
97.2044097121
 21
181.7253756201
 31
0.0
  0
LINE
  5
8B
330
85
100
AcDbEntity
  8
DEFAULT
  6
CONTINUOUS
 62
     7
 48
25.4
100
AcDbLine
 10
82.2044097121
 20
180.2253756071
 30
0.0
 11
97.2044093768
 21
180.2253756071
 31
0.0
  0
TEXT
  5
8C
330
85
100
AcDbEntity
  8
DEFAULT
  6
CONTINUOUS
 62
     7
 48
25.4
100
AcDbText
 10
88.2385004535
 20
180.9753756071
 30
0.0
 40
3.0
  1
15
  7
SEACAD_SEISO_TTF
 11
88.2385004535
 21
183.9753756071
 31
0.0
100
AcDbText
 73
     3
  0
ENDBLK
  5
8E
330
85
100
AcDbEntity
  8
0
100
AcDbBlockEnd
  0
BLOCK
  5
97
330
8F
100
AcDbEntity
  8
0
100
AcDbBlockBegin
  2
SE5
 70
     0
 71
     0
 10
0.0
 20
0.0
 30
0.0
  3
SE5
  1

  0
POLYLINE
  5
91
330
8F
100
AcDbEntity
  8
DEFAULT
  6
CONTINUOUS
 62
     7
 48
25.4
100
AcDb2dPolyline
 66
     1
 10
0.0
 20
0.0
 30
0.0
 70
     1
  0
VERTEX
  5
D2
330
91
100
AcDbEntity
  8
DEFAULT
  6
CONTINUOUS
 62
     7
100
AcDbVertex
100
AcDb2dVertex
 10
73.2044097381
 20
188.0133514104
 30
0.0
  0
VERTEX
  5
D3
330
91
100
AcDbEntity
  8
DEFAULT
  6
CONTINUOUS
 62
     7
100
AcDbVertex
100
AcDb2dVertex
 10
70.2044097121
 20
187.513351406
 30
0.0
  0
VERTEX
  5
D4
330
91
100
AcDbEntity
  8
DEFAULT
  6
CONTINUOUS
 62
     7
100
AcDbVertex
100
AcDb2dVertex
 10
73.2044097381
 20
187.0133514017
 30
0.0
  0
VERTEX
  5
D5
330
91
100
AcDbEntity
  8
DEFAULT
  6
CONTINUOUS
 62
     7
100
AcDbVertex
100
AcDb2dVertex
 10
73.2044097381
 20
188.0133514104
 30
0.0
  0
SEQEND
  5
D1
330
91
100
AcDbEntity
  8
DEFAULT
  6
CONTINUOUS
 62
     7
 48
25.4
  0
POLYLINE
  5
92
330
8F
100
AcDbEntity
  8
DEFAULT
  6
CONTINUOUS
 62
     7
 48
25.4
100
AcDb2dPolyline
 66
     1
 10
0.0
 20
0.0
 30
0.0
 70
     1
  0
VERTEX
  5
D7
330
92
100
AcDbEntity
  8
DEFAULT
  6
CONTINUOUS
 62
     7
100
AcDbVertex
100
AcDb2dVertex
 10
94.204409686
 20
188.0133514104
 30
0.0
  0
VERTEX
  5
D8
330
92
100
AcDbEntity
  8
DEFAULT
  6
CONTINUOUS
 62
     7
100
AcDbVertex
100
AcDb2dVertex
 10
97.2044097121
 20
187.513351406
 30
0.0
  0
VERTEX
  5
D9
330
92
100
AcDbEntity
  8
DEFAULT
  6
CONTINUOUS
 62
     7
100
AcDbVertex
100
AcDb2dVertex
 10
94.204409686
 20
187.0133514017
 30
0.0
  0
VERTEX
  5
DA
330
92
100
AcDbEntity
  8
DEFAULT
  6
CONTINUOUS
 62
     7
100
AcDbVertex
100
AcDb2dVertex
 10
94.204409686
 20
188.0133514104
 30
0.0
  0
SEQEND
  5
D6
330
92
100
AcDbEntity
  8
DEFAULT
  6
CONTINUOUS
 62
     7
 48
25.4
  0
LINE
  5
93
330
8F
100
AcDbEntity
  8
DEFAULT
  6
CONTINUOUS
 62
     7
 48
25.4
100
AcDbLine
 10
70.2044097121
 20
145.8795442833
 30
0.0
 11
70.2044097121
 21
189.0133514191
 31
0.0
  0
LINE
  5
94
330
8F
100
AcDbEntity
  8
DEFAULT
  6
CONTINUOUS
 62
     7
 48
25.4
100
AcDbLine
 10
97.2044097121
 20
155.8795442833
 30
0.0
 11
97.2044097121
 21
189.0133514191
 31
0.0
  0
LINE
  5
95
330
8F
100
AcDbEntity
  8
DEFAULT
  6
CONTINUOUS
 62
     7
 48
25.4
100
AcDbLine
 10
70.2044097121
 20
187.513351406
 30
0.0
 11
97.2044104124
 21
187.513351406
 31
0.0
  0
TEXT
  5
96
330
8F
100
AcDbEntity
  8
DEFAULT
  6
CONTINUOUS
 62
     7
 48
25.4
100
AcDbText
 10
81.8294100622
 20
188.263351406
 30
0.0
 40
3.0
  1
27
  7
SEACAD_SEISO_TTF
 11
81.8294100622
 21
191.263351406
 31
0.0
100
AcDbText
 73
     3
  0
ENDBLK
  5
98
330
8F
100
AcDbEntity
  8
0
100
AcDbBlockEnd
  0
BLOCK
  5
A1
330
99
100
AcDbEntity
  8
0
100
AcDbBlockBegin
  2
SE6
 70
     0
 71
     0
 10
0.0
 20
0.0
 30
0.0
  3
SE6
  1

  0
POLYLINE
  5
9B
330
99
100
AcDbEntity
  8
DEFAULT
  6
CONTINUOUS
 62
     7
 48
25.4
100
AcDb2dPolyline
 66
     1
 10
0.0
 20
0.0
 30
0.0
 70
     1
  0
VERTEX
  5
DC
330
9B
100
AcDbEntity
  8
DEFAULT
  6
CONTINUOUS
 62
     7
100
AcDbVertex
100
AcDb2dVertex
 10
100.2044097381
 20
180.5669414995
 30
0.0
  0
VERTEX
  5
DD
330
9B
100
AcDbEntity
  8
DEFAULT
  6
CONTINUOUS
 62
     7
100
AcDbVertex
100
AcDb2dVertex
 10
97.2044097121
 20
180.0669414951
 30
0.0
  0
VERTEX
  5
DE
330
9B
100
AcDbEntity
  8
DEFAULT
  6
CONTINUOUS
 62
     7
100
AcDbVertex
100
AcDb2dVertex
 10
100.2044097381
 20
179.5669414908
 30
0.0
  0
VERTEX
  5
DF
330
9B
100
AcDbEntity
  8
DEFAULT
  6
CONTINUOUS
 62
     7
100
AcDbVertex
100
AcDb2dVertex
 10
100.2044097381
 20
180.5669414995
 30
0.0
  0
SEQEND
  5
DB
330
9B
100
AcDbEntity
  8
DEFAULT
  6
CONTINUOUS
 62
     7
 48
25.4
  0
POLYLINE
  5
9C
330
99
100
AcDbEntity
  8
DEFAULT
  6
CONTINUOUS
 62
     7
 48
25.4
100
AcDb2dPolyline
 66
     1
 10
0.0
 20
0.0
 30
0.0
 70
     1
  0
VERTEX
  5
E1
330
9C
100
AcDbEntity
  8
DEFAULT
  6
CONTINUOUS
 62
     7
100
AcDbVertex
100
AcDb2dVertex
 10
129.204409686
 20
180.5669414995
 30
0.0
  0
VERTEX
  5
E2
330
9C
100
AcDbEntity
  8
DEFAULT
  6
CONTINUOUS
 62
     7
100
AcDbVertex
100
AcDb2dVertex
 10
132.2044097121
 20
180.0669414951
 30
0.0
  0
VERTEX
  5
E3
330
9C
100
AcDbEntity
  8
DEFAULT
  6
CONTINUOUS
 62
     7
100
AcDbVertex
100
AcDb2dVertex
 10
129.204409686
 20
179.5669414908
 30
0.0
  0
VERTEX
  5
E4
330
9C
100
AcDbEntity
  8
DEFAULT
  6
CONTINUOUS
 62
     7
100
AcDbVertex
100
AcDb2dVertex
 10
129.204409686
 20
180.5669414995
 30
0.0
  0
SEQEND
  5
E0
330
9C
100
AcDbEntity
  8
DEFAULT
  6
CONTINUOUS
 62
     7
 48
25.4
  0
LINE
  5
9D
330
99
100
AcDbEntity
  8
DEFAULT
  6
CONTINUOUS
 62
     7
 48
25.4
100
AcDbLine
 10
97.2044097121
 20
155.8795442833
 30
0.0
 11
97.2044097121
 21
181.5669415082
 31
0.0
  0
LINE
  5
9E
330
99
100
AcDbEntity
  8
DEFAULT
  6
CONTINUOUS
 62
     7
 48
25.4
100
AcDbLine
 10
132.2044097121
 20
149.3795442833
 30
0.0
 11
132.2044097121
 21
181.5669415082
 31
0.0
  0
LINE
  5
9F
330
99
100
AcDbEntity
  8
DEFAULT
  6
CONTINUOUS
 62
     7
 48
25.4
100
AcDbLine
 10
97.2044097121
 20
180.0669414951
 30
0.0
 11
132.2044098611
 21
180.0669414951
 31
0.0
  0
TEXT
  5
A0
330
99
100
AcDbEntity
  8
DEFAULT
  6
CONTINUOUS
 62
     7
 48
25.4
100
AcDbText
 10
113.0680461502
 20
180.8169414951
 30
0.0
 40
3.0
  1
35
  7
SEACAD_SEISO_TTF
 11
113.0680461502
 21
183.8169414951
 31
0.0
100
AcDbText
 73
     3
  0
ENDBLK
  5
A2
330
99
100
AcDbEntity
  8
0
100
AcDbBlockEnd
  0
BLOCK
  5
AC
330
A3
100
AcDbEntity
  8
0
100
AcDbBlockBegin
  2
SE7
 70
     0
 71
     0
 10
0.0
 20
0.0
 30
0.0
  3
SE7
  1

  0
POLYLINE
  5
A5
330
A3
100
AcDbEntity
  8
DEFAULT
  6
CONTINUOUS
 62
     7
 48
25.4
100
AcDb2dPolyline
 66
     1
 10
0.0
 20
0.0
 30
0.0
 70
     1
  0
VERTEX
  5
E6
330
A5
100
AcDbEntity
  8
DEFAULT
  6
CONTINUOUS
 62
     7
100
AcDbVertex
100
AcDb2dVertex
 10
53.9791804274
 20
170.2692430762
 30
0.0
  0
VERTEX
  5
E7
330
A5
100
AcDbEntity
  8
DEFAULT
  6
CONTINUOUS
 62
     7
100
AcDbVertex
100
AcDb2dVertex
 10
54.4791804318
 20
173.2692431023
 30
0.0
  0
VERTEX
  5
E8
330
A5
100
AcDbEntity
  8
DEFAULT
  6
CONTINUOUS
 62
     7
100
AcDbVertex
100
AcDb2dVertex
 10
54.9791804361
 20
170.2692430762
 30
0.0
  0
VERTEX
  5
E9
330
A5
100
AcDbEntity
  8
DEFAULT
  6
CONTINUOUS
 62
     7
100
AcDbVertex
100
AcDb2dVertex
 10
53.9791804274
 20
170.2692430762
 30
0.0
  0
SEQEND
  5
E5
330
A5
100
AcDbEntity
  8
DEFAULT
  6
CONTINUOUS
 62
     7
 48
25.4
  0
POLYLINE
  5
A6
330
A3
100
AcDbEntity
  8
DEFAULT
  6
CONTINUOUS
 62
     7
 48
25.4
100
AcDb2dPolyline
 66
     1
 10
0.0
 20
0.0
 30
0.0
 70
     1
  0
VERTEX
  5
EB
330
A6
100
AcDbEntity
  8
DEFAULT
  6
CONTINUOUS
 62
     7
100
AcDbVertex
100
AcDb2dVertex
 10
53.9791804274
 20
121.4898454905
 30
0.0
  0
VERTEX
  5
EC
330
A6
100
AcDbEntity
  8
DEFAULT
  6
CONTINUOUS
 62
     7
100
AcDbVertex
100
AcDb2dVertex
 10
54.4791804318
 20
118.4898454644
 30
0.0
  0
VERTEX
  5
ED
330
A6
100
AcDbEntity
  8
DEFAULT
  6
CONTINUOUS
 62
     7
100
AcDbVertex
100
AcDb2dVertex
 10
54.9791804361
 20
121.4898454905
 30
0.0
  0
VERTEX
  5
EE
330
A6
100
AcDbEntity
  8
DEFAULT
  6
CONTINUOUS
 62
     7
100
AcDbVertex
100
AcDb2dVertex
 10
53.9791804274
 20
121.4898454905
 30
0.0
  0
SEQEND
  5
EA
330
A6
100
AcDbEntity
  8
DEFAULT
  6
CONTINUOUS
 62
     7
 48
25.4
  0
LINE
  5
A7
330
A3
100
AcDbEntity
  8
DEFAULT
  6
CONTINUOUS
 62
     7
 48
25.4
100
AcDbLine
 10
80.0997377996
 20
173.2692431023
 30
0.0
 11
52.9791804187
 21
173.2692431023
 31
0.0
  0
LINE
  5
A8
330
A3
100
AcDbEntity
  8
DEFAULT
  6
CONTINUOUS
 62
     7
 48
25.4
100
AcDbLine
 10
80.0997377996
 20
118.4898454644
 30
0.0
 11
52.9791804187
 21
118.4898454644
 31
0.0
  0
LINE
  5
A9
330
A3
100
AcDbEntity
  8
DEFAULT
  6
CONTINUOUS
 62
     7
 48
25.4
100
AcDbLine
 10
54.4791804318
 20
173.2692431023
 30
0.0
 11
54.4791804318
 21
118.4898439159
 31
0.0
  0
TEXT
  5
AA
330
A3
100
AcDbEntity
  8
DEFAULT
  6
CONTINUOUS
 62
     7
 48
25.4
100
AcDbText
 10
53.7291804318
 20
145.9953037314
 30
0.0
 40
3.0
  1
55
 50
90.0
  7
SEACAD_SEISO_TTF
 11
50.7291804318
 21
145.9953037314
 31
0.0
100
AcDbText
 73
     3
  0
TEXT
  5
AB
330
A3
100
AcDbEntity
  8
DEFAULT
  6
CONTINUOUS
 62
     7
 48
25.4
100
AcDbText
 10
53.7291804318
 20
142.3546923777
 30
0.0
 40
3.0
  1
O
 50
90.0
  7
SEACAD_SEMECI1_TTF
 11
50.7291804318
 21
142.3546923777
 31
0.0
100
AcDbText
 73
     3
  0
ENDBLK
  5
AD
330
A3
100
AcDbEntity
  8
0
100
AcDbBlockEnd
  0
ENDSEC
  0
SECTION
  2
ENTITIES
  0
INSERT
  5
2F
330
1F
100
AcDbEntity
  8
0
100
AcDbBlockReference
  2
SE
 10
0.0
 20
0.0
 30
0.0
  0
INSERT
  5
64
330
1F
100
AcDbEntity
  8
0
100
AcDbBlockReference
  2
SE1
 10
0.0
 20
0.0
 30
0.0
  0
INSERT
  5
70
330
1F
100
AcDbEntity
  8
0
100
AcDbBlockReference
  2
SE2
 10
0.0
 20
0.0
 30
0.0
  0
INSERT
  5
7C
330
1F
100
AcDbEntity
  8
0
100
AcDbBlockReference
  2
SE3
 10
0.0
 20
0.0
 30
0.0
  0
INSERT
  5
86
330
1F
100
AcDbEntity
  8
0
100
AcDbBlockReference
  2
SE4
 10
0.0
 20
0.0
 30
0.0
  0
INSERT
  5
90
330
1F
100
AcDbEntity
  8
0
100
AcDbBlockReference
  2
SE5
 10
0.0
 20
0.0
 30
0.0
  0
INSERT
  5
9A
330
1F
100
AcDbEntity
  8
0
100
AcDbBlockReference
  2
SE6
 10
0.0
 20
0.0
 30
0.0
  0
INSERT
  5
A4
330
1F
100
AcDbEntity
  8
0
100
AcDbBlockReference
  2
SE7
 10
0.0
 20
0.0
 30
0.0
  0
ENDSEC
  0
SECTION
  2
OBJECTS
  0
DICTIONARY
  5
C
330
0
100
AcDbDictionary
  3
ACAD_GROUP
350
D
  3
ACAD_LAYOUT
350
1A
  3
ACAD_MLINESTYLE
350
17
  3
ACAD_PLOTSETTINGS
350
19
  3
ACAD_TABLESTYLE
350
2A
  3
ACDBVARIABLEDICTIONARY
350
2C
1001
ACAD
1000
TREAT_AS_HARD
1070
     0
  0
DICTIONARY
  5
EF
330
29
100
AcDbDictionary
  3
ACAD_XREC_ROUNDTRIP
360
F0
  0
DICTIONARY
  5
D
102
{ACAD_REACTORS
330
C
102
}
330
C
100
AcDbDictionary
1001
ACAD
1000
TREAT_AS_HARD
1070
     0
  0
DICTIONARY
  5
1A
102
{ACAD_REACTORS
330
C
102
}
330
C
100
AcDbDictionary
1001
ACAD
1000
TREAT_AS_HARD
1070
     0
  0
DICTIONARY
  5
17
102
{ACAD_REACTORS
330
C
102
}
330
C
100
AcDbDictionary
  3
STANDARD
350
18
1001
ACAD
1000
TREAT_AS_HARD
1070
     0
  0
DICTIONARY
  5
19
102
{ACAD_REACTORS
330
C
102
}
330
C
100
AcDbDictionary
1001
ACAD
1000
TREAT_AS_HARD
1070
     0
  0
DICTIONARY
  5
2A
102
{ACAD_REACTORS
330
C
102
}
330
C
100
AcDbDictionary
  3
STANDARD
350
2B
1001
ACAD
1000
TREAT_AS_HARD
1070
     0
  0
DICTIONARY
  5
2C
102
{ACAD_REACTORS
330
C
102
}
330
C
100
AcDbDictionary
  3
CTABLESTYLE
350
2D
1001
ACAD
1000
TREAT_AS_HARD
1070
     0
  0
XRECORD
  5
F0
102
{ACAD_REACTORS
330
EF
102
}
330
EF
100
AcDbXrecord
102
UCS
 74
     0
 71
     1
 10
0.0
 20
0.0
 30
0.0
 10
1.0
 20
0.0
 30
0.0
 10
0.0
 20
1.0
 30
0.0
146
0.0
 79
     0
102
VIEW
281
     0
  0
MLINESTYLE
  5
18
102
{ACAD_REACTORS
330
17
102
}
330
17
100
AcDbMlineStyle
  2
Standard
 70
     0
  3

 62
   256
 51
90.0
 52
90.0
 71
     2
 49
0.5
 62
   256
  6
BYLAYER
 49
-0.5
 62
   256
  6
BYLAYER
  0
TABLESTYLE
  5
2B
102
{ACAD_REACTORS
330
2A
102
}
330
2A
100
AcDbTableStyle
  3
Standard
 70
     0
 71
     0
 40
0.06
 41
0.06
280
     0
281
     0
  7
STANDARD
140
0.18
170
     2
 62
     0
 63
     7
283
     0
274
    -2
284
     1
 64
     0
275
    -2
285
     1
 65
     0
276
    -2
286
     1
 66
     0
277
    -2
287
     1
 67
     0
278
    -2
288
     1
 68
     0
279
    -2
289
     1
 69
     0
  7
STANDARD
140
0.25
170
     5
 62
     0
 63
     7
283
     0
274
    -2
284
     1
 64
     0
275
    -2
285
     1
 65
     0
276
    -2
286
     1
 66
     0
277
    -2
287
     1
 67
     0
278
    -2
288
     1
 68
     0
279
    -2
289
     1
 69
     0
  7
STANDARD
140
0.18
170
     5
 62
     0
 63
     7
283
     0
274
    -2
284
     1
 64
     0
275
    -2
285
     1
 65
     0
276
    -2
286
     1
 66
     0
277
    -2
287
     1
 67
     0
278
    -2
288
     1
 68
     0
279
    -2
289
     1
 69
     0
  0
DICTIONARYVAR
  5
2D
102
{ACAD_REACTORS
330
2C
102
}
330
2C
100
DictionaryVariables
280
     0
  1
Standard
  0
ENDSEC
  0
EOF
