  0
SECTION
  2
HEADER
  9
$ACADVER
  1
AC1012
  9
$DWGCODEPAGE
  3
ansi_1252
  9
$INSBASE
 10
0.0
 20
0.0
 30
0.0
  9
$EXTMIN
 10
0.0
 20
0.0
 30
0.0
  9
$EXTMAX
 10
210.0
 20
297.0
 30
0.0
  9
$LIMMIN
 10
0.0
 20
0.0
  9
$LIMMAX
 10
210.0
 20
297.0
  9
$ORTHOMODE
 70
     0
  9
$REGENMODE
 70
     1
  9
$FILLMODE
 70
     1
  9
$QTEXTMODE
 70
     0
  9
$MIRRTEXT
 70
     1
  9
$DRAGMODE
 70
     2
  9
$LTSCALE
 40
1.0
  9
$OSMODE
 70
    37
  9
$ATTMODE
 70
     1
  9
$TEXTSIZE
 40
0.2
  9
$TRACEWID
 40
0.05
  9
$TEXTSTYLE
  7
STANDARD
  9
$CLAYER
  8
0
  9
$CELTYPE
  6
BYLAYER
  9
$CECOLOR
 62
   256
  9
$CELTSCALE
 40
25.4
  9
$DELOBJ
 70
     1
  9
$DISPSILH
 70
     0
  9
$DIMSCALE
 40
1.0
  9
$DIMASZ
 40
0.18
  9
$DIMEXO
 40
0.0625
  9
$DIMDLI
 40
0.38
  9
$DIMRND
 40
0.0
  9
$DIMDLE
 40
0.0
  9
$DIMEXE
 40
0.18
  9
$DIMTP
 40
0.0
  9
$DIMTM
 40
0.0
  9
$DIMTXT
 40
0.18
  9
$DIMCEN
 40
0.09
  9
$DIMTSZ
 40
0.0
  9
$DIMTOL
 70
     0
  9
$DIMLIM
 70
     0
  9
$DIMTIH
 70
     1
  9
$DIMTOH
 70
     1
  9
$DIMSE1
 70
     0
  9
$DIMSE2
 70
     0
  9
$DIMTAD
 70
     0
  9
$DIMZIN
 70
     0
  9
$DIMBLK
  1

  9
$DIMASO
 70
     1
  9
$DIMSHO
 70
     1
  9
$DIMPOST
  1

  9
$DIMAPOST
  1

  9
$DIMALT
 70
     0
  9
$DIMALTD
 70
     2
  9
$DIMALTF
 40
25.4
  9
$DIMLFAC
 40
1.0
  9
$DIMTOFL
 70
     0
  9
$DIMTVP
 40
0.0
  9
$DIMTIX
 70
     0
  9
$DIMSOXD
 70
     0
  9
$DIMSAH
 70
     0
  9
$DIMBLK1
  1

  9
$DIMBLK2
  1

  9
$DIMSTYLE
  2
STANDARD
  9
$DIMCLRD
 70
     0
  9
$DIMCLRE
 70
     0
  9
$DIMCLRT
 70
     0
  9
$DIMTFAC
 40
1.0
  9
$DIMGAP
 40
0.09
  9
$DIMJUST
 70
     0
  9
$DIMSD1
 70
     0
  9
$DIMSD2
 70
     0
  9
$DIMTOLJ
 70
     1
  9
$DIMTZIN
 70
     0
  9
$DIMALTZ
 70
     0
  9
$DIMALTTZ
 70
     0
  9
$DIMFIT
 70
     3
  9
$DIMUPT
 70
     0
  9
$DIMUNIT
 70
     2
  9
$DIMDEC
 70
     4
  9
$DIMTDEC
 70
     4
  9
$DIMALTU
 70
     2
  9
$DIMALTTD
 70
     2
  9
$DIMTXSTY
  7
STANDARD
  9
$DIMAUNIT
 70
     0
  9
$LUNITS
 70
     2
  9
$LUPREC
 70
     4
  9
$SKETCHINC
 40
0.1
  9
$FILLETRAD
 40
0.5
  9
$AUNITS
 70
     0
  9
$AUPREC
 70
     0
  9
$MENU
  1
.
  9
$ELEVATION
 40
0.0
  9
$PELEVATION
 40
0.0
  9
$THICKNESS
 40
0.0
  9
$LIMCHECK
 70
     0
  9
$CHAMFERA
 40
0.5
  9
$CHAMFERB
 40
0.5
  9
$CHAMFERC
 40
1.0
  9
$CHAMFERD
 40
0.0
  9
$SKPOLY
 70
     0
  9
$TDCREATE
 40
2453762.545119826
  9
$TDUPDATE
 40
2453762.545119838
  9
$TDINDWG
 40
0.0000000116
  9
$TDUSRTIMER
 40
0.0000000116
  9
$USRTIMER
 70
     1
  9
$ANGBASE
 50
0.0
  9
$ANGDIR
 70
     0
  9
$PDMODE
 70
     0
  9
$PDSIZE
 40
0.0
  9
$PLINEWID
 40
0.0
  9
$COORDS
 70
     1
  9
$SPLFRAME
 70
     0
  9
$SPLINETYPE
 70
     6
  9
$SPLINESEGS
 70
     8
  9
$ATTDIA
 70
     0
  9
$ATTREQ
 70
     1
  9
$HANDLING
 70
     1
  9
$HANDSEED
  5
B2
  9
$SURFTAB1
 70
     6
  9
$SURFTAB2
 70
     6
  9
$SURFTYPE
 70
     6
  9
$SURFU
 70
     6
  9
$SURFV
 70
     6
  9
$UCSNAME
  2

  9
$UCSORG
 10
0.0
 20
0.0
 30
0.0
  9
$UCSXDIR
 10
1.0
 20
0.0
 30
0.0
  9
$UCSYDIR
 10
0.0
 20
1.0
 30
0.0
  9
$PUCSNAME
  2

  9
$PUCSORG
 10
0.0
 20
0.0
 30
0.0
  9
$PUCSXDIR
 10
1.0
 20
0.0
 30
0.0
  9
$PUCSYDIR
 10
0.0
 20
1.0
 30
0.0
  9
$USERI1
 70
     0
  9
$USERI2
 70
     0
  9
$USERI3
 70
     0
  9
$USERI4
 70
     0
  9
$USERI5
 70
     0
  9
$USERR1
 40
0.0
  9
$USERR2
 40
0.0
  9
$USERR3
 40
0.0
  9
$USERR4
 40
0.0
  9
$USERR5
 40
0.0
  9
$WORLDVIEW
 70
     1
  9
$SHADEDGE
 70
     3
  9
$SHADEDIF
 70
    70
  9
$TILEMODE
 70
     1
  9
$MAXACTVP
 70
    64
  9
$PINSBASE
 10
0.0
 20
0.0
 30
0.0
  9
$PLIMCHECK
 70
     0
  9
$PEXTMIN
 10
0.0
 20
0.0
 30
0.0
  9
$PEXTMAX
 10
210.0
 20
297.0
 30
0.0
  9
$PLIMMIN
 10
0.0
 20
0.0
  9
$PLIMMAX
 10
12.0
 20
9.0
  9
$UNITMODE
 70
     0
  9
$VISRETAIN
 70
     1
  9
$PLINEGEN
 70
     0
  9
$PSLTSCALE
 70
     1
  9
$TREEDEPTH
 70
  3020
  9
$PICKSTYLE
 70
     1
  9
$CMLSTYLE
  2
STANDARD
  9
$CMLJUST
 70
     0
  9
$CMLSCALE
 40
1.0
  9
$SAVEIMAGES
 70
     1
  0
ENDSEC
  0
SECTION
  2
CLASSES
  0
CLASS
  1
ACDBDICTIONARYWDFLT
  2
AcDbDictionaryWithDefault
  3
ObjectDBX Classes
 90
        0
280
     0
281
     0
  0
CLASS
  1
TABLESTYLE
  2
AcDbTableStyle
  3
ObjectDBX Classes
 90
     2047
280
     0
281
     0
  0
CLASS
  1
DICTIONARYVAR
  2
AcDbDictionaryVar
  3
ObjectDBX Classes
 90
        0
280
     0
281
     0
  0
CLASS
  1
XRECORD
  2
AcDbXrecord
  3
AutoCAD 2000
 90
    32768
280
     0
281
     0
  0
CLASS
  1
LWPOLYLINE
  2
AcDbPolyline
  3
AutoCAD 2000
 90
    32768
280
     0
281
     1
  0
CLASS
  1
HATCH
  2
AcDbHatch
  3
AutoCAD 2000
 90
    32768
280
     0
281
     1
  0
CLASS
  1
ACDBPLACEHOLDER
  2
AcDbPlaceHolder
  3
ObjectDBX Classes
 90
        0
280
     0
281
     0
  0
CLASS
  1
LAYOUT
  2
AcDbLayout
  3
ObjectDBX Classes
 90
        0
280
     0
281
     0
  0
ENDSEC
  0
SECTION
  2
TABLES
  0
TABLE
  2
VPORT
  5
8
330
0
100
AcDbSymbolTable
 70
     2
  0
VPORT
  5
29
102
{ACAD_XDICTIONARY
360
B0
102
}
330
8
100
AcDbSymbolTableRecord
100
AcDbViewportTableRecord
  2
*ACTIVE
 70
     0
 10
0.0
 20
0.0
 11
1.0
 21
1.0
 12
10.4299065421
 22
4.5
 13
0.0
 23
0.0
 14
0.5
 24
0.5
 15
0.5
 25
0.5
 16
0.0
 26
0.0
 36
1.0
 17
0.0
 27
0.0
 37
0.0
 40
9.0
 41
1.9729729729
 42
50.0
 43
0.0
 44
0.0
 50
0.0
 51
0.0
 71
     0
 72
   100
 73
     1
 74
     3
 75
     0
 76
     0
 77
     0
 78
     0
  0
ENDTAB
  0
TABLE
  2
LTYPE
  5
5
330
0
100
AcDbSymbolTable
 70
     2
  0
LTYPE
  5
14
330
5
100
AcDbSymbolTableRecord
100
AcDbLinetypeTableRecord
  2
BYBLOCK
 70
     0
  3

 72
    65
 73
     0
 40
0.0
  0
LTYPE
  5
15
330
5
100
AcDbSymbolTableRecord
100
AcDbLinetypeTableRecord
  2
BYLAYER
 70
     0
  3

 72
    65
 73
     0
 40
0.0
  0
LTYPE
  5
16
330
5
100
AcDbSymbolTableRecord
100
AcDbLinetypeTableRecord
  2
CONTINUOUS
 70
     0
  3
Solid line
 72
    65
 73
     0
 40
0.0
  0
LTYPE
  5
5B
330
5
100
AcDbSymbolTableRecord
100
AcDbLinetypeTableRecord
  2
CENTER2
 70
     0
  3
___ _ ___ _ ___ _ ___ _ ___ _ ___ _ ___ _ ___ _
 72
    65
 73
     4
 40
1.125
 49
0.75
 74
     4
 75
     0
340
0
 46
0.0
 50
0.0
 44
0.0
 45
0.0
 49
-0.125
 74
     4
 75
     0
340
0
 46
0.0
 50
0.0
 44
0.0
 45
0.0
 49
0.125
 74
     4
 75
     0
340
0
 46
0.0
 50
0.0
 44
0.0
 45
0.0
 49
-0.125
 74
     4
 75
     0
340
0
 46
0.0
 50
0.0
 44
0.0
 45
0.0
  0
ENDTAB
  0
TABLE
  2
LAYER
  5
2
330
0
100
AcDbSymbolTable
 70
     6
  0
LAYER
  5
10
330
2
100
AcDbSymbolTableRecord
100
AcDbLayerTableRecord
  2
0
 70
     0
 62
     7
  6
CONTINUOUS
  0
LAYER
  5
30
330
2
100
AcDbSymbolTableRecord
100
AcDbLayerTableRecord
  2
MEGA_002084
 70
     0
 62
     7
  6
CONTINUOUS
  0
LAYER
  5
3A
330
2
100
AcDbSymbolTableRecord
100
AcDbLayerTableRecord
  2
MEGA_002153
 70
     0
 62
     7
  6
CONTINUOUS
  0
LAYER
  5
3D
330
2
100
AcDbSymbolTableRecord
100
AcDbLayerTableRecord
  2
SCHRAUBE_DIN_EN_
 70
     0
 62
     7
  6
CONTINUOUS
  0
LAYER
  5
57
330
2
100
AcDbSymbolTableRecord
100
AcDbLayerTableRecord
  2
STANDARD
 70
     0
 62
     7
  6
CONTINUOUS
  0
LAYER
  5
65
330
2
100
AcDbSymbolTableRecord
100
AcDbLayerTableRecord
  2
DEFAULT
 70
     0
 62
     7
  6
CONTINUOUS
  0
ENDTAB
  0
TABLE
  2
STYLE
  5
3
330
0
100
AcDbSymbolTable
 70
     3
  0
STYLE
  5
11
330
3
100
AcDbSymbolTableRecord
100
AcDbTextStyleTableRecord
  2
STANDARD
 70
     0
 40
0.0
 41
1.0
 50
0.0
 71
     0
 42
0.2
  3
txt
  4

  0
STYLE
  5
6A
330
3
100
AcDbSymbolTableRecord
100
AcDbTextStyleTableRecord
  2
SEACAD_SEISO_TTF
 70
     0
 40
0.2
 41
1.0
 50
0.0
 71
     0
 42
0.2
  3
seiso.ttf
  4

  0
STYLE
  5
6C
330
3
100
AcDbSymbolTableRecord
100
AcDbTextStyleTableRecord
  2
SEACAD_SEMECI1_TTF
 70
     0
 40
0.2
 41
1.0
 50
0.0
 71
     0
 42
0.2
  3
semeci1.ttf
  4

  0
ENDTAB
  0
TABLE
  2
VIEW
  5
6
330
0
100
AcDbSymbolTable
 70
     0
  0
ENDTAB
  0
TABLE
  2
UCS
  5
7
330
0
100
AcDbSymbolTable
 70
     0
  0
ENDTAB
  0
TABLE
  2
APPID
  5
9
330
0
100
AcDbSymbolTable
 70
     1
  0
APPID
  5
12
330
9
100
AcDbSymbolTableRecord
100
AcDbRegAppTableRecord
  2
ACAD
 70
     0
  0
ENDTAB
  0
TABLE
  2
DIMSTYLE
  5
A
330
0
100
AcDbSymbolTable
 70
     1
  0
DIMSTYLE
105
27
330
A
100
AcDbSymbolTableRecord
100
AcDbDimStyleTableRecord
  2
STANDARD
 70
     0
  3

  4

  5

  6

  7

 40
1.0
 41
0.18
 42
0.0625
 43
0.38
 44
0.18
 45
0.0
 46
0.0
 47
0.0
 48
0.0
140
0.18
141
0.09
142
0.0
143
25.4
144
1.0
145
0.0
146
1.0
147
0.09
 71
     0
 72
     0
 73
     1
 74
     1
 75
     0
 76
     0
 77
     0
 78
     0
170
     0
171
     2
172
     0
173
     0
174
     0
175
     0
176
     0
177
     0
178
     0
270
     2
271
     4
272
     4
273
     2
274
     2
340
11
275
     0
280
     0
281
     0
282
     0
283
     1
284
     0
285
     0
286
     0
287
     3
288
     0
  0
ENDTAB
  0
TABLE
  2
BLOCK_RECORD
  5
1
330
0
100
AcDbSymbolTable
 70
     6
  0
BLOCK_RECORD
  5
1F
330
1
100
AcDbSymbolTableRecord
100
AcDbBlockTableRecord
  2
*MODEL_SPACE
  0
BLOCK_RECORD
  5
1B
330
1
100
AcDbSymbolTableRecord
100
AcDbBlockTableRecord
  2
*PAPER_SPACE
  0
BLOCK_RECORD
  5
2E
330
1
100
AcDbSymbolTableRecord
100
AcDbBlockTableRecord
  2
SE
  0
BLOCK_RECORD
  5
63
330
1
100
AcDbSymbolTableRecord
100
AcDbBlockTableRecord
  2
SE1
  0
BLOCK_RECORD
  5
70
330
1
100
AcDbSymbolTableRecord
100
AcDbBlockTableRecord
  2
SE2
  0
BLOCK_RECORD
  5
7A
330
1
100
AcDbSymbolTableRecord
100
AcDbBlockTableRecord
  2
SE3
  0
BLOCK_RECORD
  5
84
330
1
100
AcDbSymbolTableRecord
100
AcDbBlockTableRecord
  2
SE4
  0
ENDTAB
  0
ENDSEC
  0
SECTION
  2
BLOCKS
  0
BLOCK
  5
20
330
1F
100
AcDbEntity
  8
0
100
AcDbBlockBegin
  2
*MODEL_SPACE
 70
     0
 71
     0
 10
0.0
 20
0.0
 30
0.0
  3
*MODEL_SPACE
  1

  0
ENDBLK
  5
21
330
1F
100
AcDbEntity
  8
0
100
AcDbBlockEnd
  0
BLOCK
  5
1C
330
1B
100
AcDbEntity
 67
     1
  8
0
100
AcDbBlockBegin
  2
*PAPER_SPACE
 70
     0
 71
     0
 10
0.0
 20
0.0
 30
0.0
  3
*PAPER_SPACE
  1

  0
ENDBLK
  5
1D
330
1B
100
AcDbEntity
 67
     1
  8
0
100
AcDbBlockEnd
  0
BLOCK
  5
61
330
2E
100
AcDbEntity
  8
0
100
AcDbBlockBegin
  2
SE
 70
     0
 71
     0
 10
0.0
 20
0.0
 30
0.0
  3
SE
  1

  0
LINE
  5
31
330
2E
100
AcDbEntity
  8
MEGA_002084
  6
CONTINUOUS
 62
     7
 48
25.4
100
AcDbLine
 10
69.4823812805
 20
192.5549159639
 30
0.0
 11
63.9562026708
 21
192.6513757704
 31
0.0
  0
LINE
  5
32
330
2E
100
AcDbEntity
  8
MEGA_002084
  6
CONTINUOUS
 62
     7
 48
25.4
100
AcDbLine
 10
63.9562026708
 20
137.6513757704
 30
0.0
 11
63.9562026708
 21
192.6513757704
 31
0.0
  0
LINE
  5
33
330
2E
100
AcDbEntity
  8
MEGA_002084
  6
CONTINUOUS
 62
     7
 48
25.4
100
AcDbLine
 10
88.9562026708
 20
155.5013757704
 30
0.0
 11
88.9562026708
 21
174.8013757704
 31
0.0
  0
LINE
  5
34
330
2E
100
AcDbEntity
  8
MEGA_002084
  6
CONTINUOUS
 62
     7
 48
25.4
100
AcDbLine
 10
70.9562026708
 20
139.2476071196
 30
0.0
 11
70.9562026708
 21
191.0551444212
 31
0.0
  0
LINE
  5
35
330
2E
100
AcDbEntity
  8
MEGA_002084
  6
CONTINUOUS
 62
     7
 48
25.4
100
AcDbLine
 10
63.9562026708
 20
137.6513757704
 30
0.0
 11
69.4823812805
 21
137.7478355768
 31
0.0
  0
LINE
  5
36
330
2E
100
AcDbEntity
  8
MEGA_002084
  6
CONTINUOUS
 62
     7
 48
25.4
100
AcDbLine
 10
88.9562026708
 20
174.8013757704
 30
0.0
 11
70.9562026708
 21
175.1155669391
 31
0.0
  0
ARC
  5
37
330
2E
100
AcDbEntity
  8
MEGA_002084
  6
CONTINUOUS
 62
     7
 48
25.4
100
AcDbCircle
 10
69.4562026708
 20
139.2476071196
 30
0.0
 40
1.5
100
AcDbArc
 50
271.0
 51
360.0
  0
LINE
  5
38
330
2E
100
AcDbEntity
  8
MEGA_002084
  6
CONTINUOUS
 62
     7
 48
25.4
100
AcDbLine
 10
70.9562026708
 20
155.1871846017
 30
0.0
 11
88.9562026708
 21
155.5013757704
 31
0.0
  0
ARC
  5
39
330
2E
100
AcDbEntity
  8
MEGA_002084
  6
CONTINUOUS
 62
     7
 48
25.4
100
AcDbCircle
 10
69.4562026708
 20
191.0551444212
 30
0.0
 40
1.5
100
AcDbArc
 50
0.0
 51
89.0
  0
LINE
  5
3B
330
2E
100
AcDbEntity
  8
MEGA_002153
  6
CONTINUOUS
 62
     7
 48
25.4
100
AcDbLine
 10
130.9562026708
 20
161.6513757704
 30
0.0
 11
88.9562026708
 21
161.6513757704
 31
0.0
  0
LINE
  5
3C
330
2E
100
AcDbEntity
  8
MEGA_002153
  6
CONTINUOUS
 62
     7
 48
25.4
100
AcDbLine
 10
130.9562026708
 20
161.6513757704
 30
0.0
 11
130.9562026708
 21
168.6513757704
 31
0.0
  0
ARC
  5
3E
330
2E
100
AcDbEntity
  8
SCHRAUBE_DIN_EN_
  6
CONTINUOUS
 62
     7
 48
25.4
100
AcDbCircle
 10
152.6076381887
 20
164.9699029463
 30
0.0
 40
6.500000000000001
100
AcDbArc
 50
321.1911467948
 51
342.1081314857
  0
ARC
  5
3F
330
2E
100
AcDbEntity
  8
SCHRAUBE_DIN_EN_
  6
CONTINUOUS
 62
     7
 48
25.4
100
AcDbCircle
 10
155.836239135
 20
166.9233962096
 30
0.0
 40
0.1999999999999886
100
AcDbArc
 50
179.1710192397
 51
359.1710192397
  0
LINE
  5
40
330
2E
100
AcDbEntity
  8
SCHRAUBE_DIN_EN_
  6
CONTINUOUS
 62
     7
 48
25.4
100
AcDbLine
 10
155.6362600682
 20
166.9262897974
 30
0.0
 11
149.1369403979
 21
167.0203314003
 31
0.0
  0
ARC
  5
41
330
2E
100
AcDbEntity
  8
SCHRAUBE_DIN_EN_
  6
CONTINUOUS
 62
     7
 48
25.4
100
AcDbCircle
 10
150.6626904483
 20
164.998045277
 30
0.0
 40
8.159045035899993
100
AcDbArc
 50
356.945607229
 51
1.3964312503
  0
ELLIPSE
  5
42
330
2E
100
AcDbEntity
  8
SCHRAUBE_DIN_EN_
  6
CONTINUOUS
 62
     7
 48
25.4
100
AcDbEllipse
 10
152.6076381846
 20
164.9699029462
 30
0.0
 11
6.499319674430558
 21
-0.09404160281460246
 31
0.0
210
0.0
220
0.0
230
0.9999999999999999
 40
0.1643989873
 41
0.2511074379074628
 42
0.3010119889205805
  0
LINE
  5
43
330
2E
100
AcDbEntity
  8
SCHRAUBE_DIN_EN_
  6
CONTINUOUS
 62
     7
 48
25.4
100
AcDbLine
 10
155.9494105683
 20
160.9211306185
 30
0.0
 11
157.6727055618
 21
160.8961954819
 31
0.0
  0
LINE
  5
44
330
2E
100
AcDbEntity
  8
SCHRAUBE_DIN_EN_
  6
CONTINUOUS
 62
     7
 48
25.4
100
AcDbLine
 10
158.9069667127
 20
165.1443035917
 30
0.0
 11
158.8206058561
 21
165.1337913721
 31
0.0
  0
ELLIPSE
  5
45
330
2E
100
AcDbEntity
  8
SCHRAUBE_DIN_EN_
  6
CONTINUOUS
 62
     7
 48
25.4
100
AcDbEllipse
 10
153.3127484928
 20
163.4680230172
 30
0.0
 11
5.659406515711869
 21
2.65700724236524
 31
0.0
210
0.0
220
0.0
230
1.0
 40
0.3595098918
 41
5.89053404480782
 42
6.050343881468639
  0
ELLIPSE
  5
46
330
2E
100
AcDbEntity
  8
SCHRAUBE_DIN_EN_
  6
CONTINUOUS
 62
     7
 48
25.4
100
AcDbEllipse
 10
153.325079486
 20
164.3202316621
 30
0.0
 11
4.196587921103431
 21
4.634352103270607
 31
0.0
210
0.0
220
0.0
230
1.0
 40
0.8388564142
 41
5.580885677744234
 42
5.740695514404428
  0
ELLIPSE
  5
47
330
2E
100
AcDbEntity
  8
SCHRAUBE_DIN_EN_
  6
CONTINUOUS
 62
     7
 48
25.4
100
AcDbEllipse
 10
152.607638184
 20
164.9699029451
 30
0.0
 11
6.499319675640631
 21
-0.09404155640252951
 31
0.0
210
0.0
220
0.0
230
1.0
 40
0.9863939235
 41
0.2511074308282598
 42
0.3010119818391996
  0
LINE
  5
48
330
2E
100
AcDbEntity
  8
SCHRAUBE_DIN_EN_
  6
CONTINUOUS
 62
     7
 48
25.4
100
AcDbLine
 10
158.84223127
 20
166.7808341246
 30
0.0
 11
158.8484728781
 21
166.7870387089
 31
0.0
  0
LINE
  5
49
330
2E
100
AcDbEntity
  8
SCHRAUBE_DIN_EN_
  6
CONTINUOUS
 62
     7
 48
25.4
100
AcDbLine
 10
158.7872258056
 20
162.9793453593
 30
0.0
 11
158.7932852843
 21
162.972962785
 31
0.0
  0
ELLIPSE
  5
4A
330
2E
100
AcDbEntity
  8
SCHRAUBE_DIN_EN_
  6
CONTINUOUS
 62
     7
 48
25.4
100
AcDbEllipse
 10
152.6076381827
 20
164.9699029481
 30
0.0
 11
6.499319675466521
 21
-0.09404166283541451
 31
0.0
210
0.0
220
0.0
230
1.0
 40
0.9863939234
 41
5.982173327374174
 42
6.032077878379628
  0
LINE
  5
4B
330
2E
100
AcDbEntity
  8
SCHRAUBE_DIN_EN_
  6
CONTINUOUS
 62
     7
 48
25.4
100
AcDbLine
 10
158.8992836384
 20
164.6133177901
 30
0.0
 11
158.8132630845
 21
164.6263242745
 31
0.0
  0
LINE
  5
4C
330
2E
100
AcDbEntity
  8
SCHRAUBE_DIN_EN_
  6
CONTINUOUS
 62
     7
 48
25.4
100
AcDbLine
 10
156.0651540796
 20
168.9202932896
 30
0.0
 11
155.9494105683
 21
160.9211306185
 31
0.0
  0
ELLIPSE
  5
4D
330
2E
100
AcDbEntity
  8
SCHRAUBE_DIN_EN_
  6
CONTINUOUS
 62
     7
 48
25.4
100
AcDbEllipse
 10
152.6076381871
 20
164.9699029464
 30
0.0
 11
6.499319671846778
 21
-0.09404160303997683
 31
0.0
210
0.0
220
0.0
230
1.0
 40
0.1643989873
 41
5.982173318196841
 42
6.03207786922024
  0
ELLIPSE
  5
4E
330
2E
100
AcDbEntity
  8
SCHRAUBE_DIN_EN_
  6
CONTINUOUS
 62
     7
 48
25.4
100
AcDbEllipse
 10
153.3435759759
 20
165.5985446297
 30
0.0
 11
4.060746040315367
 21
-4.753831212040754
 31
0.0
210
0.0
220
0.0
230
1.0
 40
0.8388564142
 41
0.5424897927778836
 42
0.702299629438235
  0
ELLIPSE
  5
4F
330
2E
100
AcDbEntity
  8
SCHRAUBE_DIN_EN_
  6
CONTINUOUS
 62
     7
 48
25.4
100
AcDbEllipse
 10
153.3559069691
 20
166.4507532747
 30
0.0
 11
5.580162457695882
 21
-2.8196376616219
 31
0.0
210
0.0
220
0.0
230
1.0
 40
0.3595098918
 41
0.2328414257088257
 42
0.3926512623685158
  0
LINE
  5
50
330
2E
100
AcDbEntity
  8
SCHRAUBE_DIN_EN_
  6
CONTINUOUS
 62
     7
 48
25.4
100
AcDbLine
 10
149.1369403979
 20
167.0203314003
 30
0.0
 11
149.0790686422
 21
163.0207500648
 31
0.0
  0
LINE
  5
51
330
2E
100
AcDbEntity
  8
SCHRAUBE_DIN_EN_
  6
CONTINUOUS
 62
     7
 48
25.4
100
AcDbLine
 10
155.6362600682
 20
166.9262897974
 30
0.0
 11
155.5783883125
 21
162.9267084618
 31
0.0
  0
LINE
  5
52
330
2E
100
AcDbEntity
  8
SCHRAUBE_DIN_EN_
  6
CONTINUOUS
 62
     7
 48
25.4
100
AcDbLine
 10
157.7884490731
 20
168.8953581531
 30
0.0
 11
157.6727055618
 21
160.8961954819
 31
0.0
  0
ARC
  5
53
330
2E
100
AcDbEntity
  8
SCHRAUBE_DIN_EN_
  6
CONTINUOUS
 62
     7
 48
25.4
100
AcDbCircle
 10
152.6076381887
 20
164.9699029463
 30
0.0
 40
6.500000000000001
100
AcDbArc
 50
16.2339069936
 51
37.1508916845
  0
ARC
  5
54
330
2E
100
AcDbEntity
  8
SCHRAUBE_DIN_EN_
  6
CONTINUOUS
 62
     7
 48
25.4
100
AcDbCircle
 10
155.7783673793
 20
162.923814874
 30
0.0
 40
0.1999999999999886
100
AcDbArc
 50
359.1710192397
 51
179.1710192397
  0
LINE
  5
55
330
2E
100
AcDbEntity
  8
SCHRAUBE_DIN_EN_
  6
CONTINUOUS
 62
     7
 48
25.4
100
AcDbLine
 10
149.0790686422
 20
163.0207500648
 30
0.0
 11
155.5783883125
 21
162.9267084618
 31
0.0
  0
LINE
  5
56
330
2E
100
AcDbEntity
  8
SCHRAUBE_DIN_EN_
  6
CONTINUOUS
 62
     7
 48
25.4
100
AcDbLine
 10
157.7884490731
 20
168.8953581531
 30
0.0
 11
156.0651540796
 21
168.9202932896
 31
0.0
  0
LINE
  5
58
330
2E
100
AcDbEntity
  8
STANDARD
  6
CONTINUOUS
 62
     7
 48
25.4
100
AcDbLine
 10
130.9562026708
 20
168.6513757704
 30
0.0
 11
88.9562026708
 21
168.6513757704
 31
0.0
  0
LINE
  5
59
330
2E
100
AcDbEntity
  8
STANDARD
  6
CONTINUOUS
 62
     7
 48
25.4
100
AcDbLine
 10
88.9562026708
 20
161.6513757704
 30
0.0
 11
130.9562026708
 21
168.6513757704
 31
0.0
  0
LINE
  5
5A
330
2E
100
AcDbEntity
  8
STANDARD
  6
CONTINUOUS
 62
     7
 48
25.4
100
AcDbLine
 10
88.9562026708
 20
168.6513757704
 30
0.0
 11
130.9562026708
 21
161.6513757704
 31
0.0
  0
LINE
  5
5C
330
2E
100
AcDbEntity
  8
STANDARD
  6
CENTER2
 62
     7
 48
25.4
100
AcDbLine
 10
63.9562026708
 20
165.1513757704
 30
0.0
 11
130.9562026708
 21
165.1513757704
 31
0.0
  0
LINE
  5
5D
330
2E
100
AcDbEntity
  8
STANDARD
  6
CENTER2
 62
     7
 48
25.4
100
AcDbLine
 10
149.10800452
 20
165.0205407326
 30
0.0
 11
157.9320748019
 21
165.0256355019
 31
0.0
  0
LINE
  5
5E
330
2E
100
AcDbEntity
  8
STANDARD
  6
CENTER2
 62
     7
 48
25.4
100
AcDbLine
 10
63.9562026708
 20
165.1513757704
 30
0.0
 11
57.4022639174
 21
165.1513757704
 31
0.0
  0
LINE
  5
5F
330
2E
100
AcDbEntity
  8
STANDARD
  6
CENTER2
 62
     7
 48
25.4
100
AcDbLine
 10
130.9562026708
 20
165.1513757704
 30
0.0
 11
135.8820972498
 21
165.1513757704
 31
0.0
  0
LINE
  5
60
330
2E
100
AcDbEntity
  8
STANDARD
  6
CENTER2
 62
     7
 48
25.4
100
AcDbLine
 10
149.10800452
 20
165.0205407326
 30
0.0
 11
145.9225564142
 21
165.0187015446
 31
0.0
  0
ENDBLK
  5
62
330
2E
100
AcDbEntity
  8
0
100
AcDbBlockEnd
  0
BLOCK
  5
6E
330
63
100
AcDbEntity
  8
0
100
AcDbBlockBegin
  2
SE1
 70
     0
 71
     0
 10
0.0
 20
0.0
 30
0.0
  3
SE1
  1

  0
POLYLINE
  5
66
330
63
100
AcDbEntity
  8
DEFAULT
  6
CONTINUOUS
 62
     7
 48
25.4
100
AcDb2dPolyline
 66
     1
 10
0.0
 20
0.0
 30
0.0
 70
     1
  0
VERTEX
  5
8E
330
66
100
AcDbEntity
  8
DEFAULT
  6
CONTINUOUS
 62
     7
100
AcDbVertex
100
AcDb2dVertex
 10
46.3926711541
 20
140.6996056997
 30
0.0
  0
VERTEX
  5
8F
330
66
100
AcDbEntity
  8
DEFAULT
  6
CONTINUOUS
 62
     7
100
AcDbVertex
100
AcDb2dVertex
 10
46.8926711585
 20
137.6996056736
 30
0.0
  0
VERTEX
  5
90
330
66
100
AcDbEntity
  8
DEFAULT
  6
CONTINUOUS
 62
     7
100
AcDbVertex
100
AcDb2dVertex
 10
47.3926711628
 20
140.6996056997
 30
0.0
  0
VERTEX
  5
91
330
66
100
AcDbEntity
  8
DEFAULT
  6
CONTINUOUS
 62
     7
100
AcDbVertex
100
AcDb2dVertex
 10
46.3926711541
 20
140.6996056997
 30
0.0
  0
SEQEND
  5
8D
330
66
100
AcDbEntity
  8
DEFAULT
  6
CONTINUOUS
 62
     7
 48
25.4
  0
LINE
  5
67
330
63
100
AcDbEntity
  8
DEFAULT
  6
CONTINUOUS
 62
     7
 48
25.4
100
AcDbLine
 10
66.7192919757
 20
192.6031458672
 30
0.0
 11
45.3926711454
 21
192.6031458672
 31
0.0
  0
LINE
  5
68
330
63
100
AcDbEntity
  8
DEFAULT
  6
CONTINUOUS
 62
     7
 48
25.4
100
AcDbLine
 10
66.7192919757
 20
137.6996056736
 30
0.0
 11
45.3926711454
 21
137.6996056736
 31
0.0
  0
LINE
  5
69
330
63
100
AcDbEntity
  8
DEFAULT
  6
CONTINUOUS
 62
     7
 48
25.4
100
AcDbLine
 10
46.8926711585
 20
192.6031458672
 30
0.0
 11
46.8926711585
 21
137.6996051069
 31
0.0
  0
TEXT
  5
6B
330
63
100
AcDbEntity
  8
DEFAULT
  6
CONTINUOUS
 62
     7
 48
25.4
100
AcDbText
 10
46.1426711585
 20
165.2671357093
 30
0.0
 40
3.0
  1
55
 50
90.0
  7
SEACAD_SEISO_TTF
 11
43.1426711585
 21
165.2671357093
 31
0.0
100
AcDbText
 73
     3
  0
TEXT
  5
6D
330
63
100
AcDbEntity
  8
DEFAULT
  6
CONTINUOUS
 62
     7
 48
25.4
100
AcDbText
 10
46.1426711585
 20
161.6265243556
 30
0.0
 40
3.0
  1
O
 50
90.0
  7
SEACAD_SEMECI1_TTF
 11
43.1426711585
 21
161.6265243556
 31
0.0
100
AcDbText
 73
     3
  0
ENDBLK
  5
6F
330
63
100
AcDbEntity
  8
0
100
AcDbBlockEnd
  0
BLOCK
  5
78
330
70
100
AcDbEntity
  8
0
100
AcDbBlockBegin
  2
SE2
 70
     0
 71
     0
 10
0.0
 20
0.0
 30
0.0
  3
SE2
  1

  0
POLYLINE
  5
72
330
70
100
AcDbEntity
  8
DEFAULT
  6
CONTINUOUS
 62
     7
 48
25.4
100
AcDb2dPolyline
 66
     1
 10
0.0
 20
0.0
 30
0.0
 70
     1
  0
VERTEX
  5
93
330
72
100
AcDbEntity
  8
DEFAULT
  6
CONTINUOUS
 62
     7
100
AcDbVertex
100
AcDb2dVertex
 10
73.9562026969
 20
121.0449400726
 30
0.0
  0
VERTEX
  5
94
330
72
100
AcDbEntity
  8
DEFAULT
  6
CONTINUOUS
 62
     7
100
AcDbVertex
100
AcDb2dVertex
 10
70.9562026708
 20
121.5449400769
 30
0.0
  0
VERTEX
  5
95
330
72
100
AcDbEntity
  8
DEFAULT
  6
CONTINUOUS
 62
     7
100
AcDbVertex
100
AcDb2dVertex
 10
73.9562026969
 20
122.0449400813
 30
0.0
  0
VERTEX
  5
96
330
72
100
AcDbEntity
  8
DEFAULT
  6
CONTINUOUS
 62
     7
100
AcDbVertex
100
AcDb2dVertex
 10
73.9562026969
 20
121.0449400726
 30
0.0
  0
SEQEND
  5
92
330
72
100
AcDbEntity
  8
DEFAULT
  6
CONTINUOUS
 62
     7
 48
25.4
  0
POLYLINE
  5
73
330
70
100
AcDbEntity
  8
DEFAULT
  6
CONTINUOUS
 62
     7
 48
25.4
100
AcDb2dPolyline
 66
     1
 10
0.0
 20
0.0
 30
0.0
 70
     1
  0
VERTEX
  5
98
330
73
100
AcDbEntity
  8
DEFAULT
  6
CONTINUOUS
 62
     7
100
AcDbVertex
100
AcDb2dVertex
 10
60.9562026447
 20
121.0449400726
 30
0.0
  0
VERTEX
  5
99
330
73
100
AcDbEntity
  8
DEFAULT
  6
CONTINUOUS
 62
     7
100
AcDbVertex
100
AcDb2dVertex
 10
63.9562026708
 20
121.5449400769
 30
0.0
  0
VERTEX
  5
9A
330
73
100
AcDbEntity
  8
DEFAULT
  6
CONTINUOUS
 62
     7
100
AcDbVertex
100
AcDb2dVertex
 10
60.9562026447
 20
122.0449400813
 30
0.0
  0
VERTEX
  5
9B
330
73
100
AcDbEntity
  8
DEFAULT
  6
CONTINUOUS
 62
     7
100
AcDbVertex
100
AcDb2dVertex
 10
60.9562026447
 20
121.0449400726
 30
0.0
  0
SEQEND
  5
97
330
73
100
AcDbEntity
  8
DEFAULT
  6
CONTINUOUS
 62
     7
 48
25.4
  0
LINE
  5
74
330
70
100
AcDbEntity
  8
DEFAULT
  6
CONTINUOUS
 62
     7
 48
25.4
100
AcDbLine
 10
70.9562026708
 20
139.2476071196
 30
0.0
 11
70.9562026708
 21
120.0449400639
 31
0.0
  0
LINE
  5
75
330
70
100
AcDbEntity
  8
DEFAULT
  6
CONTINUOUS
 62
     7
 48
25.4
100
AcDbLine
 10
63.9562026708
 20
137.6513757704
 30
0.0
 11
63.9562026708
 21
120.0449400639
 31
0.0
  0
LINE
  5
76
330
70
100
AcDbEntity
  8
DEFAULT
  6
CONTINUOUS
 62
     7
 48
25.4
100
AcDbLine
 10
76.956202723
 20
121.5449400769
 30
0.0
 11
57.9562024026
 21
121.5449400769
 31
0.0
  0
TEXT
  5
77
330
70
100
AcDbEntity
  8
DEFAULT
  6
CONTINUOUS
 62
     7
 48
25.4
100
AcDbText
 10
66.5016571082
 20
122.2949400769
 30
0.0
 40
3.0
  1
7
  7
SEACAD_SEISO_TTF
 11
66.5016571082
 21
125.2949400769
 31
0.0
100
AcDbText
 73
     3
  0
ENDBLK
  5
79
330
70
100
AcDbEntity
  8
0
100
AcDbBlockEnd
  0
BLOCK
  5
82
330
7A
100
AcDbEntity
  8
0
100
AcDbBlockBegin
  2
SE3
 70
     0
 71
     0
 10
0.0
 20
0.0
 30
0.0
  3
SE3
  1

  0
POLYLINE
  5
7C
330
7A
100
AcDbEntity
  8
DEFAULT
  6
CONTINUOUS
 62
     7
 48
25.4
100
AcDb2dPolyline
 66
     1
 10
0.0
 20
0.0
 30
0.0
 70
     1
  0
VERTEX
  5
9D
330
7C
100
AcDbEntity
  8
DEFAULT
  6
CONTINUOUS
 62
     7
100
AcDbVertex
100
AcDb2dVertex
 10
66.9562026969
 20
112.3207960083
 30
0.0
  0
VERTEX
  5
9E
330
7C
100
AcDbEntity
  8
DEFAULT
  6
CONTINUOUS
 62
     7
100
AcDbVertex
100
AcDb2dVertex
 10
63.9562026708
 20
112.8207960127
 30
0.0
  0
VERTEX
  5
9F
330
7C
100
AcDbEntity
  8
DEFAULT
  6
CONTINUOUS
 62
     7
100
AcDbVertex
100
AcDb2dVertex
 10
66.9562026969
 20
113.320796017
 30
0.0
  0
VERTEX
  5
A0
330
7C
100
AcDbEntity
  8
DEFAULT
  6
CONTINUOUS
 62
     7
100
AcDbVertex
100
AcDb2dVertex
 10
66.9562026969
 20
112.3207960083
 30
0.0
  0
SEQEND
  5
9C
330
7C
100
AcDbEntity
  8
DEFAULT
  6
CONTINUOUS
 62
     7
 48
25.4
  0
POLYLINE
  5
7D
330
7A
100
AcDbEntity
  8
DEFAULT
  6
CONTINUOUS
 62
     7
 48
25.4
100
AcDb2dPolyline
 66
     1
 10
0.0
 20
0.0
 30
0.0
 70
     1
  0
VERTEX
  5
A2
330
7D
100
AcDbEntity
  8
DEFAULT
  6
CONTINUOUS
 62
     7
100
AcDbVertex
100
AcDb2dVertex
 10
85.9562026447
 20
112.3207960083
 30
0.0
  0
VERTEX
  5
A3
330
7D
100
AcDbEntity
  8
DEFAULT
  6
CONTINUOUS
 62
     7
100
AcDbVertex
100
AcDb2dVertex
 10
88.9562026708
 20
112.8207960127
 30
0.0
  0
VERTEX
  5
A4
330
7D
100
AcDbEntity
  8
DEFAULT
  6
CONTINUOUS
 62
     7
100
AcDbVertex
100
AcDb2dVertex
 10
85.9562026447
 20
113.320796017
 30
0.0
  0
VERTEX
  5
A5
330
7D
100
AcDbEntity
  8
DEFAULT
  6
CONTINUOUS
 62
     7
100
AcDbVertex
100
AcDb2dVertex
 10
85.9562026447
 20
112.3207960083
 30
0.0
  0
SEQEND
  5
A1
330
7D
100
AcDbEntity
  8
DEFAULT
  6
CONTINUOUS
 62
     7
 48
25.4
  0
LINE
  5
7E
330
7A
100
AcDbEntity
  8
DEFAULT
  6
CONTINUOUS
 62
     7
 48
25.4
100
AcDbLine
 10
63.9562026708
 20
137.6513757704
 30
0.0
 11
63.9562026708
 21
111.3207959997
 31
0.0
  0
LINE
  5
7F
330
7A
100
AcDbEntity
  8
DEFAULT
  6
CONTINUOUS
 62
     7
 48
25.4
100
AcDbLine
 10
88.9562026708
 20
155.5013757704
 30
0.0
 11
88.9562026708
 21
111.3207959997
 31
0.0
  0
LINE
  5
80
330
7A
100
AcDbEntity
  8
DEFAULT
  6
CONTINUOUS
 62
     7
 48
25.4
100
AcDbLine
 10
63.9562026708
 20
112.8207960127
 30
0.0
 11
88.9562030434
 21
112.8207960127
 31
0.0
  0
TEXT
  5
81
330
7A
100
AcDbEntity
  8
DEFAULT
  6
CONTINUOUS
 62
     7
 48
25.4
100
AcDbText
 10
74.6834755844
 20
113.5707960127
 30
0.0
 40
3.0
  1
25
  7
SEACAD_SEISO_TTF
 11
74.6834755844
 21
116.5707960127
 31
0.0
100
AcDbText
 73
     3
  0
ENDBLK
  5
83
330
7A
100
AcDbEntity
  8
0
100
AcDbBlockEnd
  0
BLOCK
  5
8B
330
84
100
AcDbEntity
  8
0
100
AcDbBlockBegin
  2
SE4
 70
     0
 71
     0
 10
0.0
 20
0.0
 30
0.0
  3
SE4
  1

  0
POLYLINE
  5
86
330
84
100
AcDbEntity
  8
DEFAULT
  6
CONTINUOUS
 62
     7
 48
25.4
100
AcDb2dPolyline
 66
     1
 10
0.0
 20
0.0
 30
0.0
 70
     1
  0
VERTEX
  5
A7
330
86
100
AcDbEntity
  8
DEFAULT
  6
CONTINUOUS
 62
     7
100
AcDbVertex
100
AcDb2dVertex
 10
117.772039029
 20
158.6513757443
 30
0.0
  0
VERTEX
  5
A8
330
86
100
AcDbEntity
  8
DEFAULT
  6
CONTINUOUS
 62
     7
100
AcDbVertex
100
AcDb2dVertex
 10
118.2720390334
 20
161.6513757704
 30
0.0
  0
VERTEX
  5
A9
330
86
100
AcDbEntity
  8
DEFAULT
  6
CONTINUOUS
 62
     7
100
AcDbVertex
100
AcDb2dVertex
 10
118.7720390377
 20
158.6513757443
 30
0.0
  0
VERTEX
  5
AA
330
86
100
AcDbEntity
  8
DEFAULT
  6
CONTINUOUS
 62
     7
100
AcDbVertex
100
AcDb2dVertex
 10
117.772039029
 20
158.6513757443
 30
0.0
  0
SEQEND
  5
A6
330
86
100
AcDbEntity
  8
DEFAULT
  6
CONTINUOUS
 62
     7
 48
25.4
  0
POLYLINE
  5
87
330
84
100
AcDbEntity
  8
DEFAULT
  6
CONTINUOUS
 62
     7
 48
25.4
100
AcDb2dPolyline
 66
     1
 10
0.0
 20
0.0
 30
0.0
 70
     1
  0
VERTEX
  5
AC
330
87
100
AcDbEntity
  8
DEFAULT
  6
CONTINUOUS
 62
     7
100
AcDbVertex
100
AcDb2dVertex
 10
117.772039029
 20
171.6513757965
 30
0.0
  0
VERTEX
  5
AD
330
87
100
AcDbEntity
  8
DEFAULT
  6
CONTINUOUS
 62
     7
100
AcDbVertex
100
AcDb2dVertex
 10
118.2720390334
 20
168.6513757704
 30
0.0
  0
VERTEX
  5
AE
330
87
100
AcDbEntity
  8
DEFAULT
  6
CONTINUOUS
 62
     7
100
AcDbVertex
100
AcDb2dVertex
 10
118.7720390377
 20
171.6513757965
 30
0.0
  0
VERTEX
  5
AF
330
87
100
AcDbEntity
  8
DEFAULT
  6
CONTINUOUS
 62
     7
100
AcDbVertex
100
AcDb2dVertex
 10
117.772039029
 20
171.6513757965
 30
0.0
  0
SEQEND
  5
AB
330
87
100
AcDbEntity
  8
DEFAULT
  6
CONTINUOUS
 62
     7
 48
25.4
  0
LINE
  5
88
330
84
100
AcDbEntity
  8
DEFAULT
  6
CONTINUOUS
 62
     7
 48
25.4
100
AcDbLine
 10
118.2720390334
 20
155.6513757182
 30
0.0
 11
118.2720390334
 21
184.5130632369
 31
0.0
  0
TEXT
  5
89
330
84
100
AcDbEntity
  8
DEFAULT
  6
CONTINUOUS
 62
     7
 48
25.4
100
AcDbText
 10
117.5220390334
 20
181.5539729747
 30
0.0
 40
3.0
  1
7
 50
90.0
  7
SEACAD_SEISO_TTF
 11
114.5220390334
 21
181.5539729747
 31
0.0
100
AcDbText
 73
     3
  0
TEXT
  5
8A
330
84
100
AcDbEntity
  8
DEFAULT
  6
CONTINUOUS
 62
     7
 48
25.4
100
AcDbText
 10
117.5220390334
 20
177.8478594376
 30
0.0
 40
3.0
  1
q
 50
90.0
  7
SEACAD_SEMECI1_TTF
 11
114.5220390334
 21
177.8478594376
 31
0.0
100
AcDbText
 73
     3
  0
ENDBLK
  5
8C
330
84
100
AcDbEntity
  8
0
100
AcDbBlockEnd
  0
ENDSEC
  0
SECTION
  2
ENTITIES
  0
INSERT
  5
2F
330
1F
100
AcDbEntity
  8
0
100
AcDbBlockReference
  2
SE
 10
0.0
 20
0.0
 30
0.0
  0
INSERT
  5
64
330
1F
100
AcDbEntity
  8
0
100
AcDbBlockReference
  2
SE1
 10
0.0
 20
0.0
 30
0.0
  0
INSERT
  5
71
330
1F
100
AcDbEntity
  8
0
100
AcDbBlockReference
  2
SE2
 10
0.0
 20
0.0
 30
0.0
  0
INSERT
  5
7B
330
1F
100
AcDbEntity
  8
0
100
AcDbBlockReference
  2
SE3
 10
0.0
 20
0.0
 30
0.0
  0
INSERT
  5
85
330
1F
100
AcDbEntity
  8
0
100
AcDbBlockReference
  2
SE4
 10
0.0
 20
0.0
 30
0.0
  0
ENDSEC
  0
SECTION
  2
OBJECTS
  0
DICTIONARY
  5
C
330
0
100
AcDbDictionary
  3
ACAD_GROUP
350
D
  3
ACAD_LAYOUT
350
1A
  3
ACAD_MLINESTYLE
350
17
  3
ACAD_PLOTSETTINGS
350
19
  3
ACAD_TABLESTYLE
350
2A
  3
ACDBVARIABLEDICTIONARY
350
2C
1001
ACAD
1000
TREAT_AS_HARD
1070
     0
  0
DICTIONARY
  5
B0
330
29
100
AcDbDictionary
  3
ACAD_XREC_ROUNDTRIP
360
B1
  0
DICTIONARY
  5
D
102
{ACAD_REACTORS
330
C
102
}
330
C
100
AcDbDictionary
1001
ACAD
1000
TREAT_AS_HARD
1070
     0
  0
DICTIONARY
  5
1A
102
{ACAD_REACTORS
330
C
102
}
330
C
100
AcDbDictionary
1001
ACAD
1000
TREAT_AS_HARD
1070
     0
  0
DICTIONARY
  5
17
102
{ACAD_REACTORS
330
C
102
}
330
C
100
AcDbDictionary
  3
STANDARD
350
18
1001
ACAD
1000
TREAT_AS_HARD
1070
     0
  0
DICTIONARY
  5
19
102
{ACAD_REACTORS
330
C
102
}
330
C
100
AcDbDictionary
1001
ACAD
1000
TREAT_AS_HARD
1070
     0
  0
DICTIONARY
  5
2A
102
{ACAD_REACTORS
330
C
102
}
330
C
100
AcDbDictionary
  3
STANDARD
350
2B
1001
ACAD
1000
TREAT_AS_HARD
1070
     0
  0
DICTIONARY
  5
2C
102
{ACAD_REACTORS
330
C
102
}
330
C
100
AcDbDictionary
  3
CTABLESTYLE
350
2D
1001
ACAD
1000
TREAT_AS_HARD
1070
     0
  0
XRECORD
  5
B1
102
{ACAD_REACTORS
330
B0
102
}
330
B0
100
AcDbXrecord
102
UCS
 74
     0
 71
     1
 10
0.0
 20
0.0
 30
0.0
 10
1.0
 20
0.0
 30
0.0
 10
0.0
 20
1.0
 30
0.0
146
0.0
 79
     0
102
VIEW
281
     0
  0
MLINESTYLE
  5
18
102
{ACAD_REACTORS
330
17
102
}
330
17
100
AcDbMlineStyle
  2
Standard
 70
     0
  3

 62
   256
 51
90.0
 52
90.0
 71
     2
 49
0.5
 62
   256
  6
BYLAYER
 49
-0.5
 62
   256
  6
BYLAYER
  0
TABLESTYLE
  5
2B
102
{ACAD_REACTORS
330
2A
102
}
330
2A
100
AcDbTableStyle
  3
Standard
 70
     0
 71
     0
 40
0.06
 41
0.06
280
     0
281
     0
  7
STANDARD
140
0.18
170
     2
 62
     0
 63
     7
283
     0
274
    -2
284
     1
 64
     0
275
    -2
285
     1
 65
     0
276
    -2
286
     1
 66
     0
277
    -2
287
     1
 67
     0
278
    -2
288
     1
 68
     0
279
    -2
289
     1
 69
     0
  7
STANDARD
140
0.25
170
     5
 62
     0
 63
     7
283
     0
274
    -2
284
     1
 64
     0
275
    -2
285
     1
 65
     0
276
    -2
286
     1
 66
     0
277
    -2
287
     1
 67
     0
278
    -2
288
     1
 68
     0
279
    -2
289
     1
 69
     0
  7
STANDARD
140
0.18
170
     5
 62
     0
 63
     7
283
     0
274
    -2
284
     1
 64
     0
275
    -2
285
     1
 65
     0
276
    -2
286
     1
 66
     0
277
    -2
287
     1
 67
     0
278
    -2
288
     1
 68
     0
279
    -2
289
     1
 69
     0
  0
DICTIONARYVAR
  5
2D
102
{ACAD_REACTORS
330
2C
102
}
330
2C
100
DictionaryVariables
280
     0
  1
Standard
  0
ENDSEC
  0
EOF
