  0
SECTION
  2
HEADER
  9
$ACADVER
  1
AC1012
  9
$DWGCODEPAGE
  3
ansi_1252
  9
$INSBASE
 10
0.0
 20
0.0
 30
0.0
  9
$EXTMIN
 10
0.0
 20
0.0
 30
0.0
  9
$EXTMAX
 10
210.0
 20
297.0
 30
0.0
  9
$LIMMIN
 10
0.0
 20
0.0
  9
$LIMMAX
 10
210.0
 20
297.0
  9
$ORTHOMODE
 70
     0
  9
$REGENMODE
 70
     1
  9
$FILLMODE
 70
     1
  9
$QTEXTMODE
 70
     0
  9
$MIRRTEXT
 70
     1
  9
$DRAGMODE
 70
     2
  9
$LTSCALE
 40
1.0
  9
$OSMODE
 70
    37
  9
$ATTMODE
 70
     1
  9
$TEXTSIZE
 40
0.2
  9
$TRACEWID
 40
0.05
  9
$TEXTSTYLE
  7
STANDARD
  9
$CLAYER
  8
0
  9
$CELTYPE
  6
BYLAYER
  9
$CECOLOR
 62
   256
  9
$CELTSCALE
 40
25.4
  9
$DELOBJ
 70
     1
  9
$DISPSILH
 70
     0
  9
$DIMSCALE
 40
1.0
  9
$DIMASZ
 40
0.18
  9
$DIMEXO
 40
0.0625
  9
$DIMDLI
 40
0.38
  9
$DIMRND
 40
0.0
  9
$DIMDLE
 40
0.0
  9
$DIMEXE
 40
0.18
  9
$DIMTP
 40
0.0
  9
$DIMTM
 40
0.0
  9
$DIMTXT
 40
0.18
  9
$DIMCEN
 40
0.09
  9
$DIMTSZ
 40
0.0
  9
$DIMTOL
 70
     0
  9
$DIMLIM
 70
     0
  9
$DIMTIH
 70
     1
  9
$DIMTOH
 70
     1
  9
$DIMSE1
 70
     0
  9
$DIMSE2
 70
     0
  9
$DIMTAD
 70
     0
  9
$DIMZIN
 70
     0
  9
$DIMBLK
  1

  9
$DIMASO
 70
     1
  9
$DIMSHO
 70
     1
  9
$DIMPOST
  1

  9
$DIMAPOST
  1

  9
$DIMALT
 70
     0
  9
$DIMALTD
 70
     2
  9
$DIMALTF
 40
25.4
  9
$DIMLFAC
 40
1.0
  9
$DIMTOFL
 70
     0
  9
$DIMTVP
 40
0.0
  9
$DIMTIX
 70
     0
  9
$DIMSOXD
 70
     0
  9
$DIMSAH
 70
     0
  9
$DIMBLK1
  1

  9
$DIMBLK2
  1

  9
$DIMSTYLE
  2
STANDARD
  9
$DIMCLRD
 70
     0
  9
$DIMCLRE
 70
     0
  9
$DIMCLRT
 70
     0
  9
$DIMTFAC
 40
1.0
  9
$DIMGAP
 40
0.09
  9
$DIMJUST
 70
     0
  9
$DIMSD1
 70
     0
  9
$DIMSD2
 70
     0
  9
$DIMTOLJ
 70
     1
  9
$DIMTZIN
 70
     0
  9
$DIMALTZ
 70
     0
  9
$DIMALTTZ
 70
     0
  9
$DIMFIT
 70
     3
  9
$DIMUPT
 70
     0
  9
$DIMUNIT
 70
     2
  9
$DIMDEC
 70
     4
  9
$DIMTDEC
 70
     4
  9
$DIMALTU
 70
     2
  9
$DIMALTTD
 70
     2
  9
$DIMTXSTY
  7
STANDARD
  9
$DIMAUNIT
 70
     0
  9
$LUNITS
 70
     2
  9
$LUPREC
 70
     4
  9
$SKETCHINC
 40
0.1
  9
$FILLETRAD
 40
0.5
  9
$AUNITS
 70
     0
  9
$AUPREC
 70
     0
  9
$MENU
  1
.
  9
$ELEVATION
 40
0.0
  9
$PELEVATION
 40
0.0
  9
$THICKNESS
 40
0.0
  9
$LIMCHECK
 70
     0
  9
$CHAMFERA
 40
0.5
  9
$CHAMFERB
 40
0.5
  9
$CHAMFERC
 40
1.0
  9
$CHAMFERD
 40
0.0
  9
$SKPOLY
 70
     0
  9
$TDCREATE
 40
2453762.544999919
  9
$TDUPDATE
 40
2453762.544999931
  9
$TDINDWG
 40
0.0000000116
  9
$TDUSRTIMER
 40
0.0000000116
  9
$USRTIMER
 70
     1
  9
$ANGBASE
 50
0.0
  9
$ANGDIR
 70
     0
  9
$PDMODE
 70
     0
  9
$PDSIZE
 40
0.0
  9
$PLINEWID
 40
0.0
  9
$COORDS
 70
     1
  9
$SPLFRAME
 70
     0
  9
$SPLINETYPE
 70
     6
  9
$SPLINESEGS
 70
     8
  9
$ATTDIA
 70
     0
  9
$ATTREQ
 70
     1
  9
$HANDLING
 70
     1
  9
$HANDSEED
  5
191
  9
$SURFTAB1
 70
     6
  9
$SURFTAB2
 70
     6
  9
$SURFTYPE
 70
     6
  9
$SURFU
 70
     6
  9
$SURFV
 70
     6
  9
$UCSNAME
  2

  9
$UCSORG
 10
0.0
 20
0.0
 30
0.0
  9
$UCSXDIR
 10
1.0
 20
0.0
 30
0.0
  9
$UCSYDIR
 10
0.0
 20
1.0
 30
0.0
  9
$PUCSNAME
  2

  9
$PUCSORG
 10
0.0
 20
0.0
 30
0.0
  9
$PUCSXDIR
 10
1.0
 20
0.0
 30
0.0
  9
$PUCSYDIR
 10
0.0
 20
1.0
 30
0.0
  9
$USERI1
 70
     0
  9
$USERI2
 70
     0
  9
$USERI3
 70
     0
  9
$USERI4
 70
     0
  9
$USERI5
 70
     0
  9
$USERR1
 40
0.0
  9
$USERR2
 40
0.0
  9
$USERR3
 40
0.0
  9
$USERR4
 40
0.0
  9
$USERR5
 40
0.0
  9
$WORLDVIEW
 70
     1
  9
$SHADEDGE
 70
     3
  9
$SHADEDIF
 70
    70
  9
$TILEMODE
 70
     1
  9
$MAXACTVP
 70
    64
  9
$PINSBASE
 10
0.0
 20
0.0
 30
0.0
  9
$PLIMCHECK
 70
     0
  9
$PEXTMIN
 10
0.0
 20
0.0
 30
0.0
  9
$PEXTMAX
 10
210.0
 20
297.0
 30
0.0
  9
$PLIMMIN
 10
0.0
 20
0.0
  9
$PLIMMAX
 10
12.0
 20
9.0
  9
$UNITMODE
 70
     0
  9
$VISRETAIN
 70
     1
  9
$PLINEGEN
 70
     0
  9
$PSLTSCALE
 70
     1
  9
$TREEDEPTH
 70
  3020
  9
$PICKSTYLE
 70
     1
  9
$CMLSTYLE
  2
STANDARD
  9
$CMLJUST
 70
     0
  9
$CMLSCALE
 40
1.0
  9
$SAVEIMAGES
 70
     1
  0
ENDSEC
  0
SECTION
  2
CLASSES
  0
CLASS
  1
ACDBDICTIONARYWDFLT
  2
AcDbDictionaryWithDefault
  3
ObjectDBX Classes
 90
        0
280
     0
281
     0
  0
CLASS
  1
TABLESTYLE
  2
AcDbTableStyle
  3
ObjectDBX Classes
 90
     2047
280
     0
281
     0
  0
CLASS
  1
DICTIONARYVAR
  2
AcDbDictionaryVar
  3
ObjectDBX Classes
 90
        0
280
     0
281
     0
  0
CLASS
  1
XRECORD
  2
AcDbXrecord
  3
AutoCAD 2000
 90
    32768
280
     0
281
     0
  0
CLASS
  1
LWPOLYLINE
  2
AcDbPolyline
  3
AutoCAD 2000
 90
    32768
280
     0
281
     1
  0
CLASS
  1
HATCH
  2
AcDbHatch
  3
AutoCAD 2000
 90
    32768
280
     0
281
     1
  0
CLASS
  1
ACDBPLACEHOLDER
  2
AcDbPlaceHolder
  3
ObjectDBX Classes
 90
        0
280
     0
281
     0
  0
CLASS
  1
LAYOUT
  2
AcDbLayout
  3
ObjectDBX Classes
 90
        0
280
     0
281
     0
  0
ENDSEC
  0
SECTION
  2
TABLES
  0
TABLE
  2
VPORT
  5
8
330
0
100
AcDbSymbolTable
 70
     2
  0
VPORT
  5
29
102
{ACAD_XDICTIONARY
360
18F
102
}
330
8
100
AcDbSymbolTableRecord
100
AcDbViewportTableRecord
  2
*ACTIVE
 70
     0
 10
0.0
 20
0.0
 11
1.0
 21
1.0
 12
10.4299065421
 22
4.5
 13
0.0
 23
0.0
 14
0.5
 24
0.5
 15
0.5
 25
0.5
 16
0.0
 26
0.0
 36
1.0
 17
0.0
 27
0.0
 37
0.0
 40
9.0
 41
1.9729729729
 42
50.0
 43
0.0
 44
0.0
 50
0.0
 51
0.0
 71
     0
 72
   100
 73
     1
 74
     3
 75
     0
 76
     0
 77
     0
 78
     0
  0
ENDTAB
  0
TABLE
  2
LTYPE
  5
5
330
0
100
AcDbSymbolTable
 70
     2
  0
LTYPE
  5
14
330
5
100
AcDbSymbolTableRecord
100
AcDbLinetypeTableRecord
  2
BYBLOCK
 70
     0
  3

 72
    65
 73
     0
 40
0.0
  0
LTYPE
  5
15
330
5
100
AcDbSymbolTableRecord
100
AcDbLinetypeTableRecord
  2
BYLAYER
 70
     0
  3

 72
    65
 73
     0
 40
0.0
  0
LTYPE
  5
16
330
5
100
AcDbSymbolTableRecord
100
AcDbLinetypeTableRecord
  2
CONTINUOUS
 70
     0
  3
Solid line
 72
    65
 73
     0
 40
0.0
  0
LTYPE
  5
33
330
5
100
AcDbSymbolTableRecord
100
AcDbLinetypeTableRecord
  2
CENTER2
 70
     0
  3
___ _ ___ _ ___ _ ___ _ ___ _ ___ _ ___ _ ___ _
 72
    65
 73
     4
 40
1.125
 49
0.75
 74
     4
 75
     0
340
0
 46
0.0
 50
0.0
 44
0.0
 45
0.0
 49
-0.125
 74
     4
 75
     0
340
0
 46
0.0
 50
0.0
 44
0.0
 45
0.0
 49
0.125
 74
     4
 75
     0
340
0
 46
0.0
 50
0.0
 44
0.0
 45
0.0
 49
-0.125
 74
     4
 75
     0
340
0
 46
0.0
 50
0.0
 44
0.0
 45
0.0
  0
ENDTAB
  0
TABLE
  2
LAYER
  5
2
330
0
100
AcDbSymbolTable
 70
     6
  0
LAYER
  5
10
330
2
100
AcDbSymbolTableRecord
100
AcDbLayerTableRecord
  2
0
 70
     0
 62
     7
  6
CONTINUOUS
  0
LAYER
  5
30
330
2
100
AcDbSymbolTableRecord
100
AcDbLayerTableRecord
  2
DEFAULT
 70
     0
 62
     7
  6
CONTINUOUS
  0
LAYER
  5
3E
330
2
100
AcDbSymbolTableRecord
100
AcDbLayerTableRecord
  2
MEGA_002057
 70
     0
 62
     7
  6
CONTINUOUS
  0
LAYER
  5
46
330
2
100
AcDbSymbolTableRecord
100
AcDbLayerTableRecord
  2
MEGA_002067
 70
     0
 62
     7
  6
CONTINUOUS
  0
LAYER
  5
4E
330
2
100
AcDbSymbolTableRecord
100
AcDbLayerTableRecord
  2
STANDARD
 70
     0
 62
     7
  6
CONTINUOUS
  0
LAYER
  5
A0
330
2
100
AcDbSymbolTableRecord
100
AcDbLayerTableRecord
  2
MEGA_002060
 70
     0
 62
     7
  6
CONTINUOUS
  0
ENDTAB
  0
TABLE
  2
STYLE
  5
3
330
0
100
AcDbSymbolTable
 70
     3
  0
STYLE
  5
11
330
3
100
AcDbSymbolTableRecord
100
AcDbTextStyleTableRecord
  2
STANDARD
 70
     0
 40
0.0
 41
1.0
 50
0.0
 71
     0
 42
0.2
  3
txt
  4

  0
STYLE
  5
2E
330
3
100
AcDbSymbolTableRecord
100
AcDbTextStyleTableRecord
  2
SEACAD_SEISO_TTF
 70
     0
 40
0.2
 41
1.0
 50
0.0
 71
     0
 42
0.2
  3
seiso.ttf
  4

  0
STYLE
  5
7A
330
3
100
AcDbSymbolTableRecord
100
AcDbTextStyleTableRecord
  2
SEACAD_SEMECI1_TTF
 70
     0
 40
0.2
 41
1.0
 50
0.0
 71
     0
 42
0.2
  3
semeci1.ttf
  4

  0
ENDTAB
  0
TABLE
  2
VIEW
  5
6
330
0
100
AcDbSymbolTable
 70
     0
  0
ENDTAB
  0
TABLE
  2
UCS
  5
7
330
0
100
AcDbSymbolTable
 70
     0
  0
ENDTAB
  0
TABLE
  2
APPID
  5
9
330
0
100
AcDbSymbolTable
 70
     1
  0
APPID
  5
12
330
9
100
AcDbSymbolTableRecord
100
AcDbRegAppTableRecord
  2
ACAD
 70
     0
  0
ENDTAB
  0
TABLE
  2
DIMSTYLE
  5
A
330
0
100
AcDbSymbolTable
 70
     1
  0
DIMSTYLE
105
27
330
A
100
AcDbSymbolTableRecord
100
AcDbDimStyleTableRecord
  2
STANDARD
 70
     0
  3

  4

  5

  6

  7

 40
1.0
 41
0.18
 42
0.0625
 43
0.38
 44
0.18
 45
0.0
 46
0.0
 47
0.0
 48
0.0
140
0.18
141
0.09
142
0.0
143
25.4
144
1.0
145
0.0
146
1.0
147
0.09
 71
     0
 72
     0
 73
     1
 74
     1
 75
     0
 76
     0
 77
     0
 78
     0
170
     0
171
     2
172
     0
173
     0
174
     0
175
     0
176
     0
177
     0
178
     0
270
     2
271
     4
272
     4
273
     2
274
     2
340
11
275
     0
280
     0
281
     0
282
     0
283
     1
284
     0
285
     0
286
     0
287
     3
288
     0
  0
ENDTAB
  0
TABLE
  2
BLOCK_RECORD
  5
1
330
0
100
AcDbSymbolTable
 70
    20
  0
BLOCK_RECORD
  5
1F
330
1
100
AcDbSymbolTableRecord
100
AcDbBlockTableRecord
  2
*MODEL_SPACE
  0
BLOCK_RECORD
  5
1B
330
1
100
AcDbSymbolTableRecord
100
AcDbBlockTableRecord
  2
*PAPER_SPACE
  0
BLOCK_RECORD
  5
31
330
1
100
AcDbSymbolTableRecord
100
AcDbBlockTableRecord
  2
SE
  0
BLOCK_RECORD
  5
37
330
1
100
AcDbSymbolTableRecord
100
AcDbBlockTableRecord
  2
SE1
  0
BLOCK_RECORD
  5
3C
330
1
100
AcDbSymbolTableRecord
100
AcDbBlockTableRecord
  2
SE2
  0
BLOCK_RECORD
  5
56
330
1
100
AcDbSymbolTableRecord
100
AcDbBlockTableRecord
  2
SE3
  0
BLOCK_RECORD
  5
73
330
1
100
AcDbSymbolTableRecord
100
AcDbBlockTableRecord
  2
SE4
  0
BLOCK_RECORD
  5
7E
330
1
100
AcDbSymbolTableRecord
100
AcDbBlockTableRecord
  2
SE5
  0
BLOCK_RECORD
  5
89
330
1
100
AcDbSymbolTableRecord
100
AcDbBlockTableRecord
  2
SE6
  0
BLOCK_RECORD
  5
94
330
1
100
AcDbSymbolTableRecord
100
AcDbBlockTableRecord
  2
SE7
  0
BLOCK_RECORD
  5
9E
330
1
100
AcDbSymbolTableRecord
100
AcDbBlockTableRecord
  2
SE8
  0
BLOCK_RECORD
  5
B0
330
1
100
AcDbSymbolTableRecord
100
AcDbBlockTableRecord
  2
SE9
  0
BLOCK_RECORD
  5
B8
330
1
100
AcDbSymbolTableRecord
100
AcDbBlockTableRecord
  2
SE10
  0
BLOCK_RECORD
  5
C3
330
1
100
AcDbSymbolTableRecord
100
AcDbBlockTableRecord
  2
SE11
  0
BLOCK_RECORD
  5
CE
330
1
100
AcDbSymbolTableRecord
100
AcDbBlockTableRecord
  2
SE12
  0
BLOCK_RECORD
  5
D8
330
1
100
AcDbSymbolTableRecord
100
AcDbBlockTableRecord
  2
SE13
  0
BLOCK_RECORD
  5
E2
330
1
100
AcDbSymbolTableRecord
100
AcDbBlockTableRecord
  2
SE14
  0
BLOCK_RECORD
  5
ED
330
1
100
AcDbSymbolTableRecord
100
AcDbBlockTableRecord
  2
SE15
  0
BLOCK_RECORD
  5
F8
330
1
100
AcDbSymbolTableRecord
100
AcDbBlockTableRecord
  2
SE16
  0
BLOCK_RECORD
  5
102
330
1
100
AcDbSymbolTableRecord
100
AcDbBlockTableRecord
  2
SE17
  0
BLOCK_RECORD
  5
10C
330
1
100
AcDbSymbolTableRecord
100
AcDbBlockTableRecord
  2
SE18
  0
ENDTAB
  0
ENDSEC
  0
SECTION
  2
BLOCKS
  0
BLOCK
  5
20
330
1F
100
AcDbEntity
  8
0
100
AcDbBlockBegin
  2
*MODEL_SPACE
 70
     0
 71
     0
 10
0.0
 20
0.0
 30
0.0
  3
*MODEL_SPACE
  1

  0
ENDBLK
  5
21
330
1F
100
AcDbEntity
  8
0
100
AcDbBlockEnd
  0
BLOCK
  5
1C
330
1B
100
AcDbEntity
 67
     1
  8
0
100
AcDbBlockBegin
  2
*PAPER_SPACE
 70
     0
 71
     0
 10
0.0
 20
0.0
 30
0.0
  3
*PAPER_SPACE
  1

  0
ENDBLK
  5
1D
330
1B
100
AcDbEntity
 67
     1
  8
0
100
AcDbBlockEnd
  0
BLOCK
  5
35
330
31
100
AcDbEntity
  8
0
100
AcDbBlockBegin
  2
SE
 70
     0
 71
     0
 10
0.0
 20
0.0
 30
0.0
  3
SE
  1

  0
LINE
  5
34
330
31
100
AcDbEntity
  8
DEFAULT
  6
CENTER2
 62
     7
 48
25.4
100
AcDbLine
 10
92.3597353594
 20
145.8040950726
 30
0.0
 11
92.3597353594
 21
97.6210697162
 31
0.0
  0
ENDBLK
  5
36
330
31
100
AcDbEntity
  8
0
100
AcDbBlockEnd
  0
BLOCK
  5
3A
330
37
100
AcDbEntity
  8
0
100
AcDbBlockBegin
  2
SE1
 70
     0
 71
     0
 10
0.0
 20
0.0
 30
0.0
  3
SE1
  1

  0
LINE
  5
39
330
37
100
AcDbEntity
  8
DEFAULT
  6
CENTER2
 62
     7
 48
25.4
100
AcDbLine
 10
93.6712349206
 20
223.6013137885
 30
0.0
 11
93.6712349206
 21
202.7086421392
 31
0.0
  0
ENDBLK
  5
3B
330
37
100
AcDbEntity
  8
0
100
AcDbBlockEnd
  0
BLOCK
  5
54
330
3C
100
AcDbEntity
  8
0
100
AcDbBlockBegin
  2
SE2
 70
     0
 71
     0
 10
0.0
 20
0.0
 30
0.0
  3
SE2
  1

  0
CIRCLE
  5
3F
330
3C
100
AcDbEntity
  8
MEGA_002057
  6
CONTINUOUS
 62
     7
 48
25.4
100
AcDbCircle
 10
104.6097353594
 20
42.6350762555
 30
0.0
 40
4.099999999999994
  0
CIRCLE
  5
40
330
3C
100
AcDbEntity
  8
MEGA_002057
  6
CONTINUOUS
 62
     7
 48
25.4
100
AcDbCircle
 10
92.3597353594
 20
42.6350762555
 30
0.0
 40
17.5
  0
CIRCLE
  5
41
330
3C
100
AcDbEntity
  8
MEGA_002057
  6
CONTINUOUS
 62
     7
 48
25.4
100
AcDbCircle
 10
86.2347353594
 20
53.2438874518
 30
0.0
 40
2.25
  0
CIRCLE
  5
42
330
3C
100
AcDbEntity
  8
MEGA_002057
  6
CONTINUOUS
 62
     7
 48
25.4
100
AcDbCircle
 10
86.1141884902
 20
32.0967820717
 30
0.0
 40
2.25
  0
CIRCLE
  5
43
330
3C
100
AcDbEntity
  8
MEGA_002057
  6
CONTINUOUS
 62
     7
 48
25.4
100
AcDbCircle
 10
86.1141884902
 20
32.0967820717
 30
0.0
 40
4.099999999999994
  0
CIRCLE
  5
44
330
3C
100
AcDbEntity
  8
MEGA_002057
  6
CONTINUOUS
 62
     7
 48
25.4
100
AcDbCircle
 10
86.2347353594
 20
53.2438874518
 30
0.0
 40
4.09999999999998
  0
CIRCLE
  5
45
330
3C
100
AcDbEntity
  8
MEGA_002057
  6
CONTINUOUS
 62
     7
 48
25.4
100
AcDbCircle
 10
104.6097353594
 20
42.6350762555
 30
0.0
 40
2.25
  0
CIRCLE
  5
47
330
3C
100
AcDbEntity
  8
MEGA_002067
  6
CONTINUOUS
 62
     7
 48
25.4
100
AcDbCircle
 10
92.3597353594
 20
42.6350762555
 30
0.0
 40
3.449747468300018
  0
CIRCLE
  5
48
330
3C
100
AcDbEntity
  8
MEGA_002067
  6
CONTINUOUS
 62
     7
 48
25.4
100
AcDbCircle
 10
92.3597353594
 20
42.6350762555
 30
0.0
 40
1.650000000000006
  0
LINE
  5
49
330
3C
100
AcDbEntity
  8
MEGA_002067
  6
CONTINUOUS
 62
     7
 48
25.4
100
AcDbLine
 10
88.8597353594
 20
46.1350762555
 30
0.0
 11
88.8597353594
 21
39.1350762555
 31
0.0
  0
LINE
  5
4A
330
3C
100
AcDbEntity
  8
MEGA_002067
  6
CONTINUOUS
 62
     7
 48
25.4
100
AcDbLine
 10
95.8597353594
 20
46.1350762555
 30
0.0
 11
88.8597353594
 21
46.1350762555
 31
0.0
  0
LINE
  5
4B
330
3C
100
AcDbEntity
  8
MEGA_002067
  6
CONTINUOUS
 62
     7
 48
25.4
100
AcDbLine
 10
95.8597353594
 20
39.1350762555
 30
0.0
 11
88.8597353594
 21
39.1350762555
 31
0.0
  0
LINE
  5
4C
330
3C
100
AcDbEntity
  8
MEGA_002067
  6
CONTINUOUS
 62
     7
 48
25.4
100
AcDbLine
 10
95.8597353594
 20
39.1350762555
 30
0.0
 11
95.8597353594
 21
46.1350762555
 31
0.0
  0
ARC
  5
4D
330
3C
100
AcDbEntity
  8
MEGA_002067
  6
CONTINUOUS
 62
     7
 48
25.4
100
AcDbCircle
 10
92.3597353594
 20
42.6350762555
 30
0.0
 40
2.0
100
AcDbArc
 50
345.0
 51
285.0
  0
CIRCLE
  5
4F
330
3C
100
AcDbEntity
  8
STANDARD
  6
CENTER2
 62
     7
 48
25.4
100
AcDbCircle
 10
92.3597353594
 20
42.6350762555
 30
0.0
 40
12.24999999999997
  0
LINE
  5
50
330
3C
100
AcDbEntity
  8
STANDARD
  6
CENTER2
 62
     7
 48
25.4
100
AcDbLine
 10
72.8597353594
 20
42.6350762555
 30
0.0
 11
110.7562286483
 21
42.6350762555
 31
0.0
  0
LINE
  5
51
330
3C
100
AcDbEntity
  8
STANDARD
  6
CENTER2
 62
     7
 48
25.4
100
AcDbLine
 10
92.3165511028
 20
24.1522144534
 30
0.0
 11
92.3165511028
 21
61.1522144534
 31
0.0
  0
LINE
  5
52
330
3C
100
AcDbEntity
  8
STANDARD
  6
CENTER2
 62
     7
 48
25.4
100
AcDbLine
 10
88.4815153494
 20
36.0097376796
 30
0.0
 11
83.8165511028
 21
27.9297825891
 31
0.0
  0
LINE
  5
53
330
3C
100
AcDbEntity
  8
STANDARD
  6
CENTER2
 62
     7
 48
25.4
100
AcDbLine
 10
88.6027050398
 20
49.1990832506
 30
0.0
 11
83.9400681312
 21
57.2750072735
 31
0.0
  0
ENDBLK
  5
55
330
3C
100
AcDbEntity
  8
0
100
AcDbBlockEnd
  0
BLOCK
  5
71
330
56
100
AcDbEntity
  8
0
100
AcDbBlockBegin
  2
SE3
 70
     0
 71
     0
 10
0.0
 20
0.0
 30
0.0
  3
SE3
  1

  0
LINE
  5
58
330
56
100
AcDbEntity
  8
MEGA_002057
  6
CONTINUOUS
 62
     7
 48
25.4
100
AcDbLine
 10
85.8839034149
 20
121.6735144544
 30
0.0
 11
85.8605673038
 21
107.92139332
 31
0.0
  0
LINE
  5
59
330
56
100
AcDbEntity
  8
MEGA_002057
  6
CONTINUOUS
 62
     7
 48
25.4
100
AcDbLine
 10
98.8589034149
 20
107.92139332
 30
0.0
 11
98.8355673038
 21
121.6735144544
 31
0.0
  0
LINE
  5
5A
330
56
100
AcDbEntity
  8
MEGA_002057
  6
CONTINUOUS
 62
     7
 48
25.4
100
AcDbLine
 10
86.383902695
 20
122.1726660006
 30
0.0
 11
98.3355680237
 21
122.1726660006
 31
0.0
  0
LINE
  5
5B
330
56
100
AcDbEntity
  8
MEGA_002057
  6
CONTINUOUS
 62
     7
 48
25.4
100
AcDbLine
 10
74.8597353594
 20
103.1726660006
 30
0.0
 11
109.8597353594
 21
103.1726660006
 31
0.0
  0
ARC
  5
5C
330
56
100
AcDbEntity
  8
MEGA_002057
  6
CONTINUOUS
 62
     7
 48
25.4
100
AcDbCircle
 10
109.2985664681
 20
106.6726660006
 30
0.0
 40
0.5
100
AcDbArc
 50
1.0
 51
90.0
  0
ARC
  5
5D
330
56
100
AcDbEntity
  8
MEGA_002057
  6
CONTINUOUS
 62
     7
 48
25.4
100
AcDbCircle
 10
85.1105683836
 20
107.9226660006
 30
0.0
 40
0.75
100
AcDbArc
 50
270.0
 51
359.9027743153
  0
LINE
  5
5E
330
56
100
AcDbEntity
  8
MEGA_002057
  6
CONTINUOUS
 62
     7
 48
25.4
100
AcDbLine
 10
74.920980403
 20
106.6813922038
 30
0.0
 11
74.8597353594
 21
103.1726660006
 31
0.0
  0
ARC
  5
5F
330
56
100
AcDbEntity
  8
MEGA_002057
  6
CONTINUOUS
 62
     7
 48
25.4
100
AcDbCircle
 10
86.383902695
 20
121.6726660006
 30
0.0
 40
0.5
100
AcDbArc
 50
90.0
 51
179.9027743153
  0
LINE
  5
60
330
56
100
AcDbEntity
  8
MEGA_002057
  6
CONTINUOUS
 62
     7
 48
25.4
100
AcDbLine
 10
109.2985664681
 20
107.1726660006
 30
0.0
 11
75.4209042506
 21
107.1726660006
 31
0.0
  0
ARC
  5
61
330
56
100
AcDbEntity
  8
MEGA_002057
  6
CONTINUOUS
 62
     7
 48
25.4
100
AcDbCircle
 10
75.4209042506
 20
106.6726660006
 30
0.0
 40
0.5
100
AcDbArc
 50
90.0
 51
179.0
  0
ARC
  5
62
330
56
100
AcDbEntity
  8
MEGA_002057
  6
CONTINUOUS
 62
     7
 48
25.4
100
AcDbCircle
 10
99.6089023351
 20
107.9226660006
 30
0.0
 40
0.75
100
AcDbArc
 50
180.0972256847
 51
270.0
  0
LINE
  5
63
330
56
100
AcDbEntity
  8
MEGA_002057
  6
CONTINUOUS
 62
     7
 48
25.4
100
AcDbLine
 10
109.8597353594
 20
103.1726660006
 30
0.0
 11
109.7984903157
 21
106.6813922038
 31
0.0
  0
ARC
  5
64
330
56
100
AcDbEntity
  8
MEGA_002057
  6
CONTINUOUS
 62
     7
 48
25.4
100
AcDbCircle
 10
98.3355680237
 20
121.6726660006
 30
0.0
 40
0.5
100
AcDbArc
 50
0.0972256847
 51
90.0
  0
LINE
  5
65
330
56
100
AcDbEntity
  8
MEGA_002067
  6
CONTINUOUS
 62
     7
 48
25.4
100
AcDbLine
 10
95.8597353594
 20
122.1726660006
 30
0.0
 11
95.8597353594
 21
137.6726660006
 31
0.0
  0
LINE
  5
66
330
56
100
AcDbEntity
  8
MEGA_002067
  6
CONTINUOUS
 62
     7
 48
25.4
100
AcDbLine
 10
88.8597353594
 20
137.6726660006
 30
0.0
 11
88.8597353594
 21
122.1726660006
 31
0.0
  0
LINE
  5
67
330
56
100
AcDbEntity
  8
MEGA_002067
  6
CONTINUOUS
 62
     7
 48
25.4
100
AcDbLine
 10
88.909987891
 20
139.1726660006
 30
0.0
 11
95.8094828277
 21
139.1726660006
 31
0.0
  0
LINE
  5
68
330
56
100
AcDbEntity
  8
MEGA_002067
  6
CONTINUOUS
 62
     7
 48
25.4
100
AcDbLine
 10
88.909987891
 20
139.1726660006
 30
0.0
 11
88.8597353594
 21
139.1224134689
 31
0.0
  0
LINE
  5
69
330
56
100
AcDbEntity
  8
MEGA_002067
  6
CONTINUOUS
 62
     7
 48
25.4
100
AcDbLine
 10
88.8597353594
 20
139.1224123462
 30
0.0
 11
88.8597353594
 21
137.6726660006
 31
0.0
  0
SPLINE
  5
6A
330
56
100
AcDbEntity
  8
MEGA_002067
  6
CONTINUOUS
 62
     7
 48
25.4
100
AcDbSpline
210
0.0
220
0.0
230
1.0
 70
     8
 71
     3
 72
    17
 73
    13
 74
     0
 42
0.0000000001
 43
0.0000000001
 40
0.0
 40
0.0
 40
0.0
 40
0.0
 40
0.25
 40
0.25
 40
0.25
 40
0.5
 40
0.5
 40
0.5
 40
0.75
 40
0.75
 40
0.75
 40
1.0
 40
1.0
 40
1.0
 40
1.0
 10
95.85973535935337
 20
137.6726660006102
 30
0.0
 10
95.33944876921456
 20
138.0405641766578
 30
0.0
 10
94.8037685613042
 20
138.3844759411416
 30
0.0
 10
94.22261333498265
 20
138.6575283063819
 30
0.0
 10
93.64145810866113
 20
138.9305806716223
 30
0.0
 10
93.00416760830028
 20
139.1218984298978
 30
0.0
 10
92.36253870527301
 20
139.1224123462379
 30
0.0
 10
91.72090980224571
 20
139.122926262578
 30
0.0
 10
91.08817028908787
 20
138.934029940936
 30
0.0
 10
90.50833190496937
 20
138.6629065866256
 30
0.0
 10
89.92849352085082
 20
138.3917832323153
 30
0.0
 10
89.38233083393287
 20
138.0421968045028
 30
0.0
 10
88.85973535935337
 20
137.6726660006102
 30
0.0
  0
LINE
  5
6B
330
56
100
AcDbEntity
  8
MEGA_002067
  6
CONTINUOUS
 62
     7
 48
25.4
100
AcDbLine
 10
95.8597353594
 20
139.1224123462
 30
0.0
 11
95.8597353594
 21
137.6726660006
 31
0.0
  0
LINE
  5
6C
330
56
100
AcDbEntity
  8
MEGA_002067
  6
CONTINUOUS
 62
     7
 48
25.4
100
AcDbLine
 10
95.8597353594
 20
139.1224134689
 30
0.0
 11
95.8094828277
 21
139.1726660006
 31
0.0
  0
LINE
  5
6D
330
56
100
AcDbEntity
  8
STANDARD
  6
CONTINUOUS
 62
     7
 48
25.4
100
AcDbLine
 10
94.3597342553
 20
139.1224143809
 30
0.0
 11
94.3597342553
 21
140.2601073943
 31
0.0
  0
LINE
  5
6E
330
56
100
AcDbEntity
  8
STANDARD
  6
CONTINUOUS
 62
     7
 48
25.4
100
AcDbLine
 10
90.3597342553
 20
139.1224143809
 30
0.0
 11
90.3597342553
 21
140.2601073943
 31
0.0
  0
LINE
  5
6F
330
56
100
AcDbEntity
  8
STANDARD
  6
CONTINUOUS
 62
     7
 48
25.4
100
AcDbLine
 10
88.8597353594
 20
122.1726660006
 30
0.0
 11
95.8597353594
 21
137.6726660006
 31
0.0
  0
LINE
  5
70
330
56
100
AcDbEntity
  8
STANDARD
  6
CONTINUOUS
 62
     7
 48
25.4
100
AcDbLine
 10
95.8597353594
 20
122.1726660006
 30
0.0
 11
88.8597353594
 21
137.6726660006
 31
0.0
  0
ENDBLK
  5
72
330
56
100
AcDbEntity
  8
0
100
AcDbBlockEnd
  0
BLOCK
  5
7C
330
73
100
AcDbEntity
  8
0
100
AcDbBlockBegin
  2
SE4
 70
     0
 71
     0
 10
0.0
 20
0.0
 30
0.0
  3
SE4
  1

  0
POLYLINE
  5
75
330
73
100
AcDbEntity
  8
DEFAULT
  6
CONTINUOUS
 62
     7
 48
25.4
100
AcDb2dPolyline
 66
     1
 10
0.0
 20
0.0
 30
0.0
 70
     1
  0
VERTEX
  5
118
330
75
100
AcDbEntity
  8
DEFAULT
  6
CONTINUOUS
 62
     7
100
AcDbVertex
100
AcDb2dVertex
 10
98.8597353854
 20
159.0584930248
 30
0.0
  0
VERTEX
  5
119
330
75
100
AcDbEntity
  8
DEFAULT
  6
CONTINUOUS
 62
     7
100
AcDbVertex
100
AcDb2dVertex
 10
95.8597353594
 20
158.5584930204
 30
0.0
  0
VERTEX
  5
11A
330
75
100
AcDbEntity
  8
DEFAULT
  6
CONTINUOUS
 62
     7
100
AcDbVertex
100
AcDb2dVertex
 10
98.8597353854
 20
158.0584930161
 30
0.0
  0
VERTEX
  5
11B
330
75
100
AcDbEntity
  8
DEFAULT
  6
CONTINUOUS
 62
     7
100
AcDbVertex
100
AcDb2dVertex
 10
98.8597353854
 20
159.0584930248
 30
0.0
  0
SEQEND
  5
117
330
75
100
AcDbEntity
  8
DEFAULT
  6
CONTINUOUS
 62
     7
 48
25.4
  0
LINE
  5
76
330
73
100
AcDbEntity
  8
DEFAULT
  6
CONTINUOUS
 62
     7
 48
25.4
100
AcDbLine
 10
88.8597353594
 20
137.6726660006
 30
0.0
 11
88.8597353594
 21
160.0584930335
 31
0.0
  0
LINE
  5
77
330
73
100
AcDbEntity
  8
DEFAULT
  6
CONTINUOUS
 62
     7
 48
25.4
100
AcDbLine
 10
95.8597353594
 20
137.6726660006
 30
0.0
 11
95.8597353594
 21
160.0584930335
 31
0.0
  0
LINE
  5
78
330
73
100
AcDbEntity
  8
DEFAULT
  6
CONTINUOUS
 62
     7
 48
25.4
100
AcDbLine
 10
73.5680948244
 20
158.5584930204
 30
0.0
 11
101.8597356276
 21
158.5584930204
 31
0.0
  0
TEXT
  5
79
330
73
100
AcDbEntity
  8
DEFAULT
  6
CONTINUOUS
 62
     7
 48
25.4
100
AcDbText
 10
76.5271855522
 20
157.8084930204
 30
0.0
 40
3.0
  1
7
 50
180.0
  7
SEACAD_SEISO_TTF
 11
76.5271855522
 21
154.8084930204
 31
0.0
100
AcDbText
 73
     3
  0
TEXT
  5
7B
330
73
100
AcDbEntity
  8
DEFAULT
  6
CONTINUOUS
 62
     7
 48
25.4
100
AcDbText
 10
80.2332990893
 20
157.8084930204
 30
0.0
 40
3.0
  1
q
 50
180.0
  7
SEACAD_SEMECI1_TTF
 11
80.2332990893
 21
154.8084930204
 31
0.0
100
AcDbText
 73
     3
  0
ENDBLK
  5
7D
330
73
100
AcDbEntity
  8
0
100
AcDbBlockEnd
  0
BLOCK
  5
87
330
7E
100
AcDbEntity
  8
0
100
AcDbBlockBegin
  2
SE5
 70
     0
 71
     0
 10
0.0
 20
0.0
 30
0.0
  3
SE5
  1

  0
POLYLINE
  5
80
330
7E
100
AcDbEntity
  8
DEFAULT
  6
CONTINUOUS
 62
     7
 48
25.4
100
AcDb2dPolyline
 66
     1
 10
0.0
 20
0.0
 30
0.0
 70
     1
  0
VERTEX
  5
11D
330
80
100
AcDbEntity
  8
DEFAULT
  6
CONTINUOUS
 62
     7
100
AcDbVertex
100
AcDb2dVertex
 10
88.8605673299
 20
167.6035454764
 30
0.0
  0
VERTEX
  5
11E
330
80
100
AcDbEntity
  8
DEFAULT
  6
CONTINUOUS
 62
     7
100
AcDbVertex
100
AcDb2dVertex
 10
85.8605673038
 20
167.103545472
 30
0.0
  0
VERTEX
  5
11F
330
80
100
AcDbEntity
  8
DEFAULT
  6
CONTINUOUS
 62
     7
100
AcDbVertex
100
AcDb2dVertex
 10
88.8605673299
 20
166.6035454677
 30
0.0
  0
VERTEX
  5
120
330
80
100
AcDbEntity
  8
DEFAULT
  6
CONTINUOUS
 62
     7
100
AcDbVertex
100
AcDb2dVertex
 10
88.8605673299
 20
167.6035454764
 30
0.0
  0
SEQEND
  5
11C
330
80
100
AcDbEntity
  8
DEFAULT
  6
CONTINUOUS
 62
     7
 48
25.4
  0
POLYLINE
  5
81
330
7E
100
AcDbEntity
  8
DEFAULT
  6
CONTINUOUS
 62
     7
 48
25.4
100
AcDb2dPolyline
 66
     1
 10
0.0
 20
0.0
 30
0.0
 70
     1
  0
VERTEX
  5
122
330
81
100
AcDbEntity
  8
DEFAULT
  6
CONTINUOUS
 62
     7
100
AcDbVertex
100
AcDb2dVertex
 10
95.8589033888
 20
167.6035454764
 30
0.0
  0
VERTEX
  5
123
330
81
100
AcDbEntity
  8
DEFAULT
  6
CONTINUOUS
 62
     7
100
AcDbVertex
100
AcDb2dVertex
 10
98.8589034149
 20
167.103545472
 30
0.0
  0
VERTEX
  5
124
330
81
100
AcDbEntity
  8
DEFAULT
  6
CONTINUOUS
 62
     7
100
AcDbVertex
100
AcDb2dVertex
 10
95.8589033888
 20
166.6035454677
 30
0.0
  0
VERTEX
  5
125
330
81
100
AcDbEntity
  8
DEFAULT
  6
CONTINUOUS
 62
     7
100
AcDbVertex
100
AcDb2dVertex
 10
95.8589033888
 20
167.6035454764
 30
0.0
  0
SEQEND
  5
121
330
81
100
AcDbEntity
  8
DEFAULT
  6
CONTINUOUS
 62
     7
 48
25.4
  0
LINE
  5
82
330
7E
100
AcDbEntity
  8
DEFAULT
  6
CONTINUOUS
 62
     7
 48
25.4
100
AcDbLine
 10
85.8605673038
 20
107.92139332
 30
0.0
 11
85.8605673038
 21
168.6035454851
 31
0.0
  0
LINE
  5
83
330
7E
100
AcDbEntity
  8
DEFAULT
  6
CONTINUOUS
 62
     7
 48
25.4
100
AcDbLine
 10
98.8589034149
 20
107.92139332
 30
0.0
 11
98.8589034149
 21
168.6035454851
 31
0.0
  0
LINE
  5
84
330
7E
100
AcDbEntity
  8
DEFAULT
  6
CONTINUOUS
 62
     7
 48
25.4
100
AcDbLine
 10
72.7472334602
 20
167.103545472
 30
0.0
 11
98.8589032986
 21
167.103545472
 31
0.0
  0
TEXT
  5
85
330
7E
100
AcDbEntity
  8
DEFAULT
  6
CONTINUOUS
 62
     7
 48
25.4
100
AcDbText
 10
76.5926875694
 20
166.353545472
 30
0.0
 40
3.0
  1
13
 50
180.0
  7
SEACAD_SEISO_TTF
 11
76.5926875694
 21
163.353545472
 31
0.0
100
AcDbText
 73
     3
  0
TEXT
  5
86
330
7E
100
AcDbEntity
  8
DEFAULT
  6
CONTINUOUS
 62
     7
 48
25.4
100
AcDbText
 10
80.2332989231
 20
166.353545472
 30
0.0
 40
3.0
  1
O
 50
180.0
  7
SEACAD_SEMECI1_TTF
 11
80.2332989231
 21
163.353545472
 31
0.0
100
AcDbText
 73
     3
  0
ENDBLK
  5
88
330
7E
100
AcDbEntity
  8
0
100
AcDbBlockEnd
  0
BLOCK
  5
92
330
89
100
AcDbEntity
  8
0
100
AcDbBlockBegin
  2
SE6
 70
     0
 71
     0
 10
0.0
 20
0.0
 30
0.0
  3
SE6
  1

  0
POLYLINE
  5
8B
330
89
100
AcDbEntity
  8
DEFAULT
  6
CONTINUOUS
 62
     7
 48
25.4
100
AcDb2dPolyline
 66
     1
 10
0.0
 20
0.0
 30
0.0
 70
     1
  0
VERTEX
  5
127
330
8B
100
AcDbEntity
  8
DEFAULT
  6
CONTINUOUS
 62
     7
100
AcDbVertex
100
AcDb2dVertex
 10
97.3597342814
 20
151.2730004868
 30
0.0
  0
VERTEX
  5
128
330
8B
100
AcDbEntity
  8
DEFAULT
  6
CONTINUOUS
 62
     7
100
AcDbVertex
100
AcDb2dVertex
 10
94.3597342553
 20
150.7730004825
 30
0.0
  0
VERTEX
  5
129
330
8B
100
AcDbEntity
  8
DEFAULT
  6
CONTINUOUS
 62
     7
100
AcDbVertex
100
AcDb2dVertex
 10
97.3597342814
 20
150.2730004781
 30
0.0
  0
VERTEX
  5
12A
330
8B
100
AcDbEntity
  8
DEFAULT
  6
CONTINUOUS
 62
     7
100
AcDbVertex
100
AcDb2dVertex
 10
97.3597342814
 20
151.2730004868
 30
0.0
  0
SEQEND
  5
126
330
8B
100
AcDbEntity
  8
DEFAULT
  6
CONTINUOUS
 62
     7
 48
25.4
  0
POLYLINE
  5
8C
330
89
100
AcDbEntity
  8
DEFAULT
  6
CONTINUOUS
 62
     7
 48
25.4
100
AcDb2dPolyline
 66
     1
 10
0.0
 20
0.0
 30
0.0
 70
     1
  0
VERTEX
  5
12C
330
8C
100
AcDbEntity
  8
DEFAULT
  6
CONTINUOUS
 62
     7
100
AcDbVertex
100
AcDb2dVertex
 10
87.3597342293
 20
151.2730004868
 30
0.0
  0
VERTEX
  5
12D
330
8C
100
AcDbEntity
  8
DEFAULT
  6
CONTINUOUS
 62
     7
100
AcDbVertex
100
AcDb2dVertex
 10
90.3597342553
 20
150.7730004825
 30
0.0
  0
VERTEX
  5
12E
330
8C
100
AcDbEntity
  8
DEFAULT
  6
CONTINUOUS
 62
     7
100
AcDbVertex
100
AcDb2dVertex
 10
87.3597342293
 20
150.2730004781
 30
0.0
  0
VERTEX
  5
12F
330
8C
100
AcDbEntity
  8
DEFAULT
  6
CONTINUOUS
 62
     7
100
AcDbVertex
100
AcDb2dVertex
 10
87.3597342293
 20
151.2730004868
 30
0.0
  0
SEQEND
  5
12B
330
8C
100
AcDbEntity
  8
DEFAULT
  6
CONTINUOUS
 62
     7
 48
25.4
  0
LINE
  5
8D
330
89
100
AcDbEntity
  8
DEFAULT
  6
CONTINUOUS
 62
     7
 48
25.4
100
AcDbLine
 10
94.3597342553
 20
140.2601073943
 30
0.0
 11
94.3597342553
 21
152.2730004955
 31
0.0
  0
LINE
  5
8E
330
89
100
AcDbEntity
  8
DEFAULT
  6
CONTINUOUS
 62
     7
 48
25.4
100
AcDbLine
 10
90.3597342553
 20
140.2601073943
 30
0.0
 11
90.3597342553
 21
152.2730004955
 31
0.0
  0
LINE
  5
8F
330
89
100
AcDbEntity
  8
DEFAULT
  6
CONTINUOUS
 62
     7
 48
25.4
100
AcDbLine
 10
100.3597343075
 20
150.7730004825
 30
0.0
 11
74.6025006953
 21
150.7730004825
 31
0.0
  0
TEXT
  5
90
330
89
100
AcDbEntity
  8
DEFAULT
  6
CONTINUOUS
 62
     7
 48
25.4
100
AcDbText
 10
77.4252274402
 20
150.0230004825
 30
0.0
 40
3.0
  1
4
 50
180.0
  7
SEACAD_SEISO_TTF
 11
77.4252274402
 21
147.0230004825
 31
0.0
100
AcDbText
 73
     3
  0
TEXT
  5
91
330
89
100
AcDbEntity
  8
DEFAULT
  6
CONTINUOUS
 62
     7
 48
25.4
100
AcDbText
 10
80.0434092584
 20
150.0230004825
 30
0.0
 40
3.0
  1
M
 50
180.0
  7
SEACAD_SEISO_TTF
 11
80.0434092584
 21
147.0230004825
 31
0.0
100
AcDbText
 73
     3
  0
ENDBLK
  5
93
330
89
100
AcDbEntity
  8
0
100
AcDbBlockEnd
  0
BLOCK
  5
9C
330
94
100
AcDbEntity
  8
0
100
AcDbBlockBegin
  2
SE7
 70
     0
 71
     0
 10
0.0
 20
0.0
 30
0.0
  3
SE7
  1

  0
POLYLINE
  5
96
330
94
100
AcDbEntity
  8
DEFAULT
  6
CONTINUOUS
 62
     7
 48
25.4
100
AcDb2dPolyline
 66
     1
 10
0.0
 20
0.0
 30
0.0
 70
     1
  0
VERTEX
  5
131
330
96
100
AcDbEntity
  8
DEFAULT
  6
CONTINUOUS
 62
     7
100
AcDbVertex
100
AcDb2dVertex
 10
101.6097353333
 20
19.5400655533
 30
0.0
  0
VERTEX
  5
132
330
96
100
AcDbEntity
  8
DEFAULT
  6
CONTINUOUS
 62
     7
100
AcDbVertex
100
AcDb2dVertex
 10
104.6097353594
 20
20.0400655576
 30
0.0
  0
VERTEX
  5
133
330
96
100
AcDbEntity
  8
DEFAULT
  6
CONTINUOUS
 62
     7
100
AcDbVertex
100
AcDb2dVertex
 10
101.6097353333
 20
20.540065562
 30
0.0
  0
VERTEX
  5
134
330
96
100
AcDbEntity
  8
DEFAULT
  6
CONTINUOUS
 62
     7
100
AcDbVertex
100
AcDb2dVertex
 10
101.6097353333
 20
19.5400655533
 30
0.0
  0
SEQEND
  5
130
330
96
100
AcDbEntity
  8
DEFAULT
  6
CONTINUOUS
 62
     7
 48
25.4
  0
LINE
  5
97
330
94
100
AcDbEntity
  8
DEFAULT
  6
CONTINUOUS
 62
     7
 48
25.4
100
AcDbLine
 10
104.6097353594
 20
42.6350762555
 30
0.0
 11
104.6097353594
 21
18.5400655446
 31
0.0
  0
LINE
  5
98
330
94
100
AcDbEntity
  8
DEFAULT
  6
CONTINUOUS
 62
     7
 48
25.4
100
AcDbLine
 10
104.6097353594
 20
20.0400655576
 30
0.0
 11
92.3597356797
 21
20.0400655576
 31
0.0
  0
TEXT
  5
99
330
94
100
AcDbEntity
  8
DEFAULT
  6
CONTINUOUS
 62
     7
 48
25.4
100
AcDbText
 10
95.325495902
 20
19.2900655576
 30
0.0
 40
3.0
  1
O
 50
180.0
  7
SEACAD_SEMECI1_TTF
 11
95.325495902
 21
16.2900655576
 31
0.0
100
AcDbText
 73
     3
  0
TEXT
  5
9A
330
94
100
AcDbEntity
  8
DEFAULT
  6
CONTINUOUS
 62
     7
 48
25.4
100
AcDbText
 10
90.1848845483
 20
19.2900655576
 30
0.0
 40
3.0
  1
24,5
 50
180.0
  7
SEACAD_SEISO_TTF
 11
90.1848845483
 21
16.2900655576
 31
0.0
100
AcDbText
 73
     3
  0
TEXT
  5
9B
330
94
100
AcDbEntity
  8
DEFAULT
  6
CONTINUOUS
 62
     7
 48
25.4
100
AcDbText
 10
100.3982231748
 20
19.2900655576
 30
0.0
 40
3.0
  1
TK 
 50
180.0
  7
SEACAD_SEISO_TTF
 11
100.3982231748
 21
16.2900655576
 31
0.0
100
AcDbText
 73
     3
  0
ENDBLK
  5
9D
330
94
100
AcDbEntity
  8
0
100
AcDbBlockEnd
  0
BLOCK
  5
AE
330
9E
100
AcDbEntity
  8
0
100
AcDbBlockBegin
  2
SE8
 70
     0
 71
     0
 10
0.0
 20
0.0
 30
0.0
  3
SE8
  1

  0
LINE
  5
A1
330
9E
100
AcDbEntity
  8
MEGA_002060
  6
CONTINUOUS
 62
     7
 48
25.4
100
AcDbLine
 10
101.220312424
 20
207.4782037298
 30
0.0
 11
101.1721574172
 21
220.4800555689
 31
0.0
  0
ARC
  5
A2
330
9E
100
AcDbEntity
  8
MEGA_002060
  6
CONTINUOUS
 62
     7
 48
25.4
100
AcDbCircle
 10
104.4212349206
 20
206.9791296494
 30
0.0
 40
0.25
100
AcDbArc
 50
0.0
 51
90.0
  0
LINE
  5
A3
330
9E
100
AcDbEntity
  8
MEGA_002060
  6
CONTINUOUS
 62
     7
 48
25.4
100
AcDbLine
 10
86.170312424
 20
220.4800555689
 30
0.0
 11
86.1221574172
 21
207.4782037298
 31
0.0
  0
LINE
  5
A4
330
9E
100
AcDbEntity
  8
MEGA_002060
  6
CONTINUOUS
 62
     7
 48
25.4
100
AcDbLine
 10
82.6712349206
 20
205.7291296494
 30
0.0
 11
104.6712349206
 21
205.7291296494
 31
0.0
  0
LINE
  5
A5
330
9E
100
AcDbEntity
  8
MEGA_002060
  6
CONTINUOUS
 62
     7
 48
25.4
100
AcDbLine
 10
82.6712349206
 20
206.9791296494
 30
0.0
 11
82.6712349206
 21
205.7291296494
 31
0.0
  0
LINE
  5
A6
330
9E
100
AcDbEntity
  8
MEGA_002060
  6
CONTINUOUS
 62
     7
 48
25.4
100
AcDbLine
 10
86.4203107094
 20
220.7291296494
 30
0.0
 11
100.9221591319
 21
220.7291296494
 31
0.0
  0
LINE
  5
A7
330
9E
100
AcDbEntity
  8
MEGA_002060
  6
CONTINUOUS
 62
     7
 48
25.4
100
AcDbLine
 10
82.9212349206
 20
207.2291296494
 30
0.0
 11
104.4212349206
 21
207.2291296494
 31
0.0
  0
ARC
  5
A8
330
9E
100
AcDbEntity
  8
MEGA_002060
  6
CONTINUOUS
 62
     7
 48
25.4
100
AcDbCircle
 10
100.9221591319
 20
220.4791296494
 30
0.0
 40
0.25
100
AcDbArc
 50
0.2122056205
 51
90.0
  0
ARC
  5
A9
330
9E
100
AcDbEntity
  8
MEGA_002060
  6
CONTINUOUS
 62
     7
 48
25.4
100
AcDbCircle
 10
101.4703107094
 20
207.4791296494
 30
0.0
 40
0.25
100
AcDbArc
 50
180.2122056205
 51
270.0
  0
LINE
  5
AA
330
9E
100
AcDbEntity
  8
MEGA_002060
  6
CONTINUOUS
 62
     7
 48
25.4
100
AcDbLine
 10
104.6712349206
 20
205.7291296494
 30
0.0
 11
104.6712349206
 21
206.9791296494
 31
0.0
  0
ARC
  5
AB
330
9E
100
AcDbEntity
  8
MEGA_002060
  6
CONTINUOUS
 62
     7
 48
25.4
100
AcDbCircle
 10
82.9212349206
 20
206.9791296494
 30
0.0
 40
0.25
100
AcDbArc
 50
90.0
 51
180.0
  0
ARC
  5
AC
330
9E
100
AcDbEntity
  8
MEGA_002060
  6
CONTINUOUS
 62
     7
 48
25.4
100
AcDbCircle
 10
86.4203107094
 20
220.4791296494
 30
0.0
 40
0.25
100
AcDbArc
 50
90.0
 51
179.7877943795
  0
ARC
  5
AD
330
9E
100
AcDbEntity
  8
MEGA_002060
  6
CONTINUOUS
 62
     7
 48
25.4
100
AcDbCircle
 10
85.8721591319
 20
207.4791296494
 30
0.0
 40
0.25
100
AcDbArc
 50
270.0
 51
359.7877943795
  0
ENDBLK
  5
AF
330
9E
100
AcDbEntity
  8
0
100
AcDbBlockEnd
  0
BLOCK
  5
B6
330
B0
100
AcDbEntity
  8
0
100
AcDbBlockBegin
  2
SE9
 70
     0
 71
     0
 10
0.0
 20
0.0
 30
0.0
  3
SE9
  1

  0
CIRCLE
  5
B2
330
B0
100
AcDbEntity
  8
MEGA_002060
  6
CONTINUOUS
 62
     7
 48
25.4
100
AcDbCircle
 10
93.6712349206
 20
261.8508580311
 30
0.0
 40
6.550000000000068
  0
CIRCLE
  5
B3
330
B0
100
AcDbEntity
  8
MEGA_002060
  6
CONTINUOUS
 62
     7
 48
25.4
100
AcDbCircle
 10
93.6712349206
 20
261.8508580311
 30
0.0
 40
11.0
  0
LINE
  5
B4
330
B0
100
AcDbEntity
  8
STANDARD
  6
CENTER2
 62
     7
 48
25.4
100
AcDbLine
 10
82.0662262599
 20
261.8508580311
 30
0.0
 11
105.248873278
 21
261.8508580311
 31
0.0
  0
LINE
  5
B5
330
B0
100
AcDbEntity
  8
STANDARD
  6
CENTER2
 62
     7
 48
25.4
100
AcDbLine
 10
93.6986052241
 20
273.1274230505
 30
0.0
 11
93.6164943137
 21
250.5742930117
 31
0.0
  0
ENDBLK
  5
B7
330
B0
100
AcDbEntity
  8
0
100
AcDbBlockEnd
  0
BLOCK
  5
C1
330
B8
100
AcDbEntity
  8
0
100
AcDbBlockBegin
  2
SE10
 70
     0
 71
     0
 10
0.0
 20
0.0
 30
0.0
  3
SE10
  1

  0
POLYLINE
  5
BA
330
B8
100
AcDbEntity
  8
DEFAULT
  6
CONTINUOUS
 62
     7
 48
25.4
100
AcDb2dPolyline
 66
     1
 10
0.0
 20
0.0
 30
0.0
 70
     1
  0
VERTEX
  5
136
330
BA
100
AcDbEntity
  8
DEFAULT
  6
CONTINUOUS
 62
     7
100
AcDbVertex
100
AcDb2dVertex
 10
89.1703124501
 20
229.9941181567
 30
0.0
  0
VERTEX
  5
137
330
BA
100
AcDbEntity
  8
DEFAULT
  6
CONTINUOUS
 62
     7
100
AcDbVertex
100
AcDb2dVertex
 10
86.170312424
 20
229.4941181524
 30
0.0
  0
VERTEX
  5
138
330
BA
100
AcDbEntity
  8
DEFAULT
  6
CONTINUOUS
 62
     7
100
AcDbVertex
100
AcDb2dVertex
 10
89.1703124501
 20
228.994118148
 30
0.0
  0
VERTEX
  5
139
330
BA
100
AcDbEntity
  8
DEFAULT
  6
CONTINUOUS
 62
     7
100
AcDbVertex
100
AcDb2dVertex
 10
89.1703124501
 20
229.9941181567
 30
0.0
  0
SEQEND
  5
135
330
BA
100
AcDbEntity
  8
DEFAULT
  6
CONTINUOUS
 62
     7
 48
25.4
  0
POLYLINE
  5
BB
330
B8
100
AcDbEntity
  8
DEFAULT
  6
CONTINUOUS
 62
     7
 48
25.4
100
AcDb2dPolyline
 66
     1
 10
0.0
 20
0.0
 30
0.0
 70
     1
  0
VERTEX
  5
13B
330
BB
100
AcDbEntity
  8
DEFAULT
  6
CONTINUOUS
 62
     7
100
AcDbVertex
100
AcDb2dVertex
 10
98.1721573912
 20
229.9941181567
 30
0.0
  0
VERTEX
  5
13C
330
BB
100
AcDbEntity
  8
DEFAULT
  6
CONTINUOUS
 62
     7
100
AcDbVertex
100
AcDb2dVertex
 10
101.1721574172
 20
229.4941181524
 30
0.0
  0
VERTEX
  5
13D
330
BB
100
AcDbEntity
  8
DEFAULT
  6
CONTINUOUS
 62
     7
100
AcDbVertex
100
AcDb2dVertex
 10
98.1721573912
 20
228.994118148
 30
0.0
  0
VERTEX
  5
13E
330
BB
100
AcDbEntity
  8
DEFAULT
  6
CONTINUOUS
 62
     7
100
AcDbVertex
100
AcDb2dVertex
 10
98.1721573912
 20
229.9941181567
 30
0.0
  0
SEQEND
  5
13A
330
BB
100
AcDbEntity
  8
DEFAULT
  6
CONTINUOUS
 62
     7
 48
25.4
  0
LINE
  5
BC
330
B8
100
AcDbEntity
  8
DEFAULT
  6
CONTINUOUS
 62
     7
 48
25.4
100
AcDbLine
 10
86.170312424
 20
220.4800555689
 30
0.0
 11
86.170312424
 21
230.9941181654
 31
0.0
  0
LINE
  5
BD
330
B8
100
AcDbEntity
  8
DEFAULT
  6
CONTINUOUS
 62
     7
 48
25.4
100
AcDbLine
 10
101.1721574172
 20
220.4800555689
 30
0.0
 11
101.1721574172
 21
230.9941181654
 31
0.0
  0
LINE
  5
BE
330
B8
100
AcDbEntity
  8
DEFAULT
  6
CONTINUOUS
 62
     7
 48
25.4
100
AcDbLine
 10
86.170312424
 20
229.4941181524
 30
0.0
 11
101.1721570388
 21
229.4941181524
 31
0.0
  0
TEXT
  5
BF
330
B8
100
AcDbEntity
  8
DEFAULT
  6
CONTINUOUS
 62
     7
 48
25.4
100
AcDbText
 10
93.3168381455
 20
228.7441181524
 30
0.0
 40
3.0
  1
15
 50
180.0
  7
SEACAD_SEISO_TTF
 11
93.3168381455
 21
225.7441181524
 31
0.0
100
AcDbText
 73
     3
  0
TEXT
  5
C0
330
B8
100
AcDbEntity
  8
DEFAULT
  6
CONTINUOUS
 62
     7
 48
25.4
100
AcDbText
 10
96.9574494992
 20
228.7441181524
 30
0.0
 40
3.0
  1
O
 50
180.0
  7
SEACAD_SEMECI1_TTF
 11
96.9574494992
 21
225.7441181524
 31
0.0
100
AcDbText
 73
     3
  0
ENDBLK
  5
C2
330
B8
100
AcDbEntity
  8
0
100
AcDbBlockEnd
  0
BLOCK
  5
CC
330
C3
100
AcDbEntity
  8
0
100
AcDbBlockBegin
  2
SE11
 70
     0
 71
     0
 10
0.0
 20
0.0
 30
0.0
  3
SE11
  1

  0
POLYLINE
  5
C5
330
C3
100
AcDbEntity
  8
DEFAULT
  6
CONTINUOUS
 62
     7
 48
25.4
100
AcDb2dPolyline
 66
     1
 10
0.0
 20
0.0
 30
0.0
 70
     1
  0
VERTEX
  5
140
330
C5
100
AcDbEntity
  8
DEFAULT
  6
CONTINUOUS
 62
     7
100
AcDbVertex
100
AcDb2dVertex
 10
85.6712349467
 20
200.1550891464
 30
0.0
  0
VERTEX
  5
141
330
C5
100
AcDbEntity
  8
DEFAULT
  6
CONTINUOUS
 62
     7
100
AcDbVertex
100
AcDb2dVertex
 10
82.6712349206
 20
200.6550891508
 30
0.0
  0
VERTEX
  5
142
330
C5
100
AcDbEntity
  8
DEFAULT
  6
CONTINUOUS
 62
     7
100
AcDbVertex
100
AcDb2dVertex
 10
85.6712349467
 20
201.1550891551
 30
0.0
  0
VERTEX
  5
143
330
C5
100
AcDbEntity
  8
DEFAULT
  6
CONTINUOUS
 62
     7
100
AcDbVertex
100
AcDb2dVertex
 10
85.6712349467
 20
200.1550891464
 30
0.0
  0
SEQEND
  5
13F
330
C5
100
AcDbEntity
  8
DEFAULT
  6
CONTINUOUS
 62
     7
 48
25.4
  0
POLYLINE
  5
C6
330
C3
100
AcDbEntity
  8
DEFAULT
  6
CONTINUOUS
 62
     7
 48
25.4
100
AcDb2dPolyline
 66
     1
 10
0.0
 20
0.0
 30
0.0
 70
     1
  0
VERTEX
  5
145
330
C6
100
AcDbEntity
  8
DEFAULT
  6
CONTINUOUS
 62
     7
100
AcDbVertex
100
AcDb2dVertex
 10
101.6712348946
 20
200.1550891464
 30
0.0
  0
VERTEX
  5
146
330
C6
100
AcDbEntity
  8
DEFAULT
  6
CONTINUOUS
 62
     7
100
AcDbVertex
100
AcDb2dVertex
 10
104.6712349206
 20
200.6550891508
 30
0.0
  0
VERTEX
  5
147
330
C6
100
AcDbEntity
  8
DEFAULT
  6
CONTINUOUS
 62
     7
100
AcDbVertex
100
AcDb2dVertex
 10
101.6712348946
 20
201.1550891551
 30
0.0
  0
VERTEX
  5
148
330
C6
100
AcDbEntity
  8
DEFAULT
  6
CONTINUOUS
 62
     7
100
AcDbVertex
100
AcDb2dVertex
 10
101.6712348946
 20
200.1550891464
 30
0.0
  0
SEQEND
  5
144
330
C6
100
AcDbEntity
  8
DEFAULT
  6
CONTINUOUS
 62
     7
 48
25.4
  0
LINE
  5
C7
330
C3
100
AcDbEntity
  8
DEFAULT
  6
CONTINUOUS
 62
     7
 48
25.4
100
AcDbLine
 10
82.6712349206
 20
205.7291296494
 30
0.0
 11
82.6712349206
 21
199.1550891377
 31
0.0
  0
LINE
  5
C8
330
C3
100
AcDbEntity
  8
DEFAULT
  6
CONTINUOUS
 62
     7
 48
25.4
100
AcDbLine
 10
104.6712349206
 20
206.9791296494
 30
0.0
 11
104.6712349206
 21
199.1550891377
 31
0.0
  0
LINE
  5
C9
330
C3
100
AcDbEntity
  8
DEFAULT
  6
CONTINUOUS
 62
     7
 48
25.4
100
AcDbLine
 10
82.6712349206
 20
200.6550891508
 30
0.0
 11
104.6712348014
 21
200.6550891508
 31
0.0
  0
TEXT
  5
CA
330
C3
100
AcDbEntity
  8
DEFAULT
  6
CONTINUOUS
 62
     7
 48
25.4
100
AcDbText
 10
93.6918382751
 20
199.9050891508
 30
0.0
 40
3.0
  1
22
 50
180.0
  7
SEACAD_SEISO_TTF
 11
93.6918382751
 21
196.9050891508
 31
0.0
100
AcDbText
 73
     3
  0
TEXT
  5
CB
330
C3
100
AcDbEntity
  8
DEFAULT
  6
CONTINUOUS
 62
     7
 48
25.4
100
AcDbText
 10
97.3324496288
 20
199.9050891508
 30
0.0
 40
3.0
  1
O
 50
180.0
  7
SEACAD_SEMECI1_TTF
 11
97.3324496288
 21
196.9050891508
 31
0.0
100
AcDbText
 73
     3
  0
ENDBLK
  5
CD
330
C3
100
AcDbEntity
  8
0
100
AcDbBlockEnd
  0
BLOCK
  5
D6
330
CE
100
AcDbEntity
  8
0
100
AcDbBlockBegin
  2
SE12
 70
     0
 71
     0
 10
0.0
 20
0.0
 30
0.0
  3
SE12
  1

  0
POLYLINE
  5
D0
330
CE
100
AcDbEntity
  8
DEFAULT
  6
CONTINUOUS
 62
     7
 48
25.4
100
AcDb2dPolyline
 66
     1
 10
0.0
 20
0.0
 30
0.0
 70
     1
  0
VERTEX
  5
14A
330
D0
100
AcDbEntity
  8
DEFAULT
  6
CONTINUOUS
 62
     7
100
AcDbVertex
100
AcDb2dVertex
 10
112.3871999985
 20
202.7291296233
 30
0.0
  0
VERTEX
  5
14B
330
D0
100
AcDbEntity
  8
DEFAULT
  6
CONTINUOUS
 62
     7
100
AcDbVertex
100
AcDb2dVertex
 10
111.8871999942
 20
205.7291296494
 30
0.0
  0
VERTEX
  5
14C
330
D0
100
AcDbEntity
  8
DEFAULT
  6
CONTINUOUS
 62
     7
100
AcDbVertex
100
AcDb2dVertex
 10
111.3871999898
 20
202.7291296233
 30
0.0
  0
VERTEX
  5
14D
330
D0
100
AcDbEntity
  8
DEFAULT
  6
CONTINUOUS
 62
     7
100
AcDbVertex
100
AcDb2dVertex
 10
112.3871999985
 20
202.7291296233
 30
0.0
  0
SEQEND
  5
149
330
D0
100
AcDbEntity
  8
DEFAULT
  6
CONTINUOUS
 62
     7
 48
25.4
  0
POLYLINE
  5
D1
330
CE
100
AcDbEntity
  8
DEFAULT
  6
CONTINUOUS
 62
     7
 48
25.4
100
AcDb2dPolyline
 66
     1
 10
0.0
 20
0.0
 30
0.0
 70
     1
  0
VERTEX
  5
14F
330
D1
100
AcDbEntity
  8
DEFAULT
  6
CONTINUOUS
 62
     7
100
AcDbVertex
100
AcDb2dVertex
 10
112.3871999985
 20
210.2291296754
 30
0.0
  0
VERTEX
  5
150
330
D1
100
AcDbEntity
  8
DEFAULT
  6
CONTINUOUS
 62
     7
100
AcDbVertex
100
AcDb2dVertex
 10
111.8871999942
 20
207.2291296494
 30
0.0
  0
VERTEX
  5
151
330
D1
100
AcDbEntity
  8
DEFAULT
  6
CONTINUOUS
 62
     7
100
AcDbVertex
100
AcDb2dVertex
 10
111.3871999898
 20
210.2291296754
 30
0.0
  0
VERTEX
  5
152
330
D1
100
AcDbEntity
  8
DEFAULT
  6
CONTINUOUS
 62
     7
100
AcDbVertex
100
AcDb2dVertex
 10
112.3871999985
 20
210.2291296754
 30
0.0
  0
SEQEND
  5
14E
330
D1
100
AcDbEntity
  8
DEFAULT
  6
CONTINUOUS
 62
     7
 48
25.4
  0
LINE
  5
D2
330
CE
100
AcDbEntity
  8
DEFAULT
  6
CONTINUOUS
 62
     7
 48
25.4
100
AcDbLine
 10
104.6712349206
 20
205.7291296494
 30
0.0
 11
113.3872000072
 21
205.7291296494
 31
0.0
  0
LINE
  5
D3
330
CE
100
AcDbEntity
  8
DEFAULT
  6
CONTINUOUS
 62
     7
 48
25.4
100
AcDbLine
 10
104.4212349206
 20
207.2291296494
 30
0.0
 11
113.3872000072
 21
207.2291296494
 31
0.0
  0
LINE
  5
D4
330
CE
100
AcDbEntity
  8
DEFAULT
  6
CONTINUOUS
 62
     7
 48
25.4
100
AcDbLine
 10
111.8871999942
 20
198.113503791
 30
0.0
 11
111.8871999942
 21
213.2291294817
 31
0.0
  0
TEXT
  5
D5
330
CE
100
AcDbEntity
  8
DEFAULT
  6
CONTINUOUS
 62
     7
 48
25.4
100
AcDbText
 10
111.1371999942
 20
199.1635035665
 30
0.0
 40
3.0
  1
1,5
 50
90.0
  7
SEACAD_SEISO_TTF
 11
108.1371999942
 21
199.1635035665
 31
0.0
100
AcDbText
 73
     3
  0
ENDBLK
  5
D7
330
CE
100
AcDbEntity
  8
0
100
AcDbBlockEnd
  0
BLOCK
  5
E0
330
D8
100
AcDbEntity
  8
0
100
AcDbBlockBegin
  2
SE13
 70
     0
 71
     0
 10
0.0
 20
0.0
 30
0.0
  3
SE13
  1

  0
POLYLINE
  5
DA
330
D8
100
AcDbEntity
  8
DEFAULT
  6
CONTINUOUS
 62
     7
 48
25.4
100
AcDb2dPolyline
 66
     1
 10
0.0
 20
0.0
 30
0.0
 70
     1
  0
VERTEX
  5
154
330
DA
100
AcDbEntity
  8
DEFAULT
  6
CONTINUOUS
 62
     7
100
AcDbVertex
100
AcDb2dVertex
 10
120.3252734809
 20
202.7291296233
 30
0.0
  0
VERTEX
  5
155
330
DA
100
AcDbEntity
  8
DEFAULT
  6
CONTINUOUS
 62
     7
100
AcDbVertex
100
AcDb2dVertex
 10
119.8252734766
 20
205.7291296494
 30
0.0
  0
VERTEX
  5
156
330
DA
100
AcDbEntity
  8
DEFAULT
  6
CONTINUOUS
 62
     7
100
AcDbVertex
100
AcDb2dVertex
 10
119.3252734722
 20
202.7291296233
 30
0.0
  0
VERTEX
  5
157
330
DA
100
AcDbEntity
  8
DEFAULT
  6
CONTINUOUS
 62
     7
100
AcDbVertex
100
AcDb2dVertex
 10
120.3252734809
 20
202.7291296233
 30
0.0
  0
SEQEND
  5
153
330
DA
100
AcDbEntity
  8
DEFAULT
  6
CONTINUOUS
 62
     7
 48
25.4
  0
POLYLINE
  5
DB
330
D8
100
AcDbEntity
  8
DEFAULT
  6
CONTINUOUS
 62
     7
 48
25.4
100
AcDb2dPolyline
 66
     1
 10
0.0
 20
0.0
 30
0.0
 70
     1
  0
VERTEX
  5
159
330
DB
100
AcDbEntity
  8
DEFAULT
  6
CONTINUOUS
 62
     7
100
AcDbVertex
100
AcDb2dVertex
 10
120.3252734809
 20
223.7291296754
 30
0.0
  0
VERTEX
  5
15A
330
DB
100
AcDbEntity
  8
DEFAULT
  6
CONTINUOUS
 62
     7
100
AcDbVertex
100
AcDb2dVertex
 10
119.8252734766
 20
220.7291296494
 30
0.0
  0
VERTEX
  5
15B
330
DB
100
AcDbEntity
  8
DEFAULT
  6
CONTINUOUS
 62
     7
100
AcDbVertex
100
AcDb2dVertex
 10
119.3252734722
 20
223.7291296754
 30
0.0
  0
VERTEX
  5
15C
330
DB
100
AcDbEntity
  8
DEFAULT
  6
CONTINUOUS
 62
     7
100
AcDbVertex
100
AcDb2dVertex
 10
120.3252734809
 20
223.7291296754
 30
0.0
  0
SEQEND
  5
158
330
DB
100
AcDbEntity
  8
DEFAULT
  6
CONTINUOUS
 62
     7
 48
25.4
  0
LINE
  5
DC
330
D8
100
AcDbEntity
  8
DEFAULT
  6
CONTINUOUS
 62
     7
 48
25.4
100
AcDbLine
 10
104.6712349206
 20
205.7291296494
 30
0.0
 11
121.3252734896
 21
205.7291296494
 31
0.0
  0
LINE
  5
DD
330
D8
100
AcDbEntity
  8
DEFAULT
  6
CONTINUOUS
 62
     7
 48
25.4
100
AcDbLine
 10
100.9221591319
 20
220.7291296494
 30
0.0
 11
121.3252734896
 21
220.7291296494
 31
0.0
  0
LINE
  5
DE
330
D8
100
AcDbEntity
  8
DEFAULT
  6
CONTINUOUS
 62
     7
 48
25.4
100
AcDbLine
 10
119.8252734766
 20
199.7291295972
 30
0.0
 11
119.8252734766
 21
226.7291293662
 31
0.0
  0
TEXT
  5
DF
330
D8
100
AcDbEntity
  8
DEFAULT
  6
CONTINUOUS
 62
     7
 48
25.4
100
AcDbText
 10
119.0752734766
 20
211.7632203908
 30
0.0
 40
3.0
  1
15
 50
90.0
  7
SEACAD_SEISO_TTF
 11
116.0752734766
 21
211.7632203908
 31
0.0
100
AcDbText
 73
     3
  0
ENDBLK
  5
E1
330
D8
100
AcDbEntity
  8
0
100
AcDbBlockEnd
  0
BLOCK
  5
EB
330
E2
100
AcDbEntity
  8
0
100
AcDbBlockBegin
  2
SE14
 70
     0
 71
     0
 10
0.0
 20
0.0
 30
0.0
  3
SE14
  1

  0
POLYLINE
  5
E4
330
E2
100
AcDbEntity
  8
DEFAULT
  6
CONTINUOUS
 62
     7
 48
25.4
100
AcDb2dPolyline
 66
     1
 10
0.0
 20
0.0
 30
0.0
 70
     1
  0
VERTEX
  5
15E
330
E4
100
AcDbEntity
  8
DEFAULT
  6
CONTINUOUS
 62
     7
100
AcDbVertex
100
AcDb2dVertex
 10
97.2212339649
 20
283.1186475247
 30
0.0
  0
VERTEX
  5
15F
330
E4
100
AcDbEntity
  8
DEFAULT
  6
CONTINUOUS
 62
     7
100
AcDbVertex
100
AcDb2dVertex
 10
100.2212340128
 20
282.6186476515
 30
0.0
  0
VERTEX
  5
160
330
E4
100
AcDbEntity
  8
DEFAULT
  6
CONTINUOUS
 62
     7
100
AcDbVertex
100
AcDb2dVertex
 10
97.2212340086
 20
282.118647516
 30
0.0
  0
VERTEX
  5
161
330
E4
100
AcDbEntity
  8
DEFAULT
  6
CONTINUOUS
 62
     7
100
AcDbVertex
100
AcDb2dVertex
 10
97.2212339649
 20
283.1186475247
 30
0.0
  0
SEQEND
  5
15D
330
E4
100
AcDbEntity
  8
DEFAULT
  6
CONTINUOUS
 62
     7
 48
25.4
  0
POLYLINE
  5
E5
330
E2
100
AcDbEntity
  8
DEFAULT
  6
CONTINUOUS
 62
     7
 48
25.4
100
AcDb2dPolyline
 66
     1
 10
0.0
 20
0.0
 30
0.0
 70
     1
  0
VERTEX
  5
163
330
E5
100
AcDbEntity
  8
DEFAULT
  6
CONTINUOUS
 62
     7
100
AcDbVertex
100
AcDb2dVertex
 10
90.1212340171
 20
283.1186472143
 30
0.0
  0
VERTEX
  5
164
330
E5
100
AcDbEntity
  8
DEFAULT
  6
CONTINUOUS
 62
     7
100
AcDbVertex
100
AcDb2dVertex
 10
87.1212340128
 20
282.6186470789
 30
0.0
  0
VERTEX
  5
165
330
E5
100
AcDbEntity
  8
DEFAULT
  6
CONTINUOUS
 62
     7
100
AcDbVertex
100
AcDb2dVertex
 10
90.1212340608
 20
282.1186472056
 30
0.0
  0
VERTEX
  5
166
330
E5
100
AcDbEntity
  8
DEFAULT
  6
CONTINUOUS
 62
     7
100
AcDbVertex
100
AcDb2dVertex
 10
90.1212340171
 20
283.1186472143
 30
0.0
  0
SEQEND
  5
162
330
E5
100
AcDbEntity
  8
DEFAULT
  6
CONTINUOUS
 62
     7
 48
25.4
  0
LINE
  5
E6
330
E2
100
AcDbEntity
  8
DEFAULT
  6
CONTINUOUS
 62
     7
 48
25.4
100
AcDbLine
 10
100.2212349206
 20
261.8508583174
 30
0.0
 11
100.2212339473
 21
284.1186476645
 31
0.0
  0
LINE
  5
E7
330
E2
100
AcDbEntity
  8
DEFAULT
  6
CONTINUOUS
 62
     7
 48
25.4
100
AcDbLine
 10
87.1212349206
 20
261.8508577448
 30
0.0
 11
87.1212339473
 21
284.1186470919
 31
0.0
  0
LINE
  5
E8
330
E2
100
AcDbEntity
  8
DEFAULT
  6
CONTINUOUS
 62
     7
 48
25.4
100
AcDbLine
 10
100.2212340129
 20
282.6186476515
 30
0.0
 11
87.1212339145
 21
282.6186470789
 31
0.0
  0
TEXT
  5
E9
330
E2
100
AcDbEntity
  8
DEFAULT
  6
CONTINUOUS
 62
     7
 48
25.4
100
AcDbText
 10
94.1350191959
 20
281.8686473652
 30
0.0
 40
3.0
  1
13,1
 50
180.0
  7
SEACAD_SEISO_TTF
 11
94.1350191959
 21
278.8686473652
 31
0.0
100
AcDbText
 73
     3
  0
TEXT
  5
EA
330
E2
100
AcDbEntity
  8
DEFAULT
  6
CONTINUOUS
 62
     7
 48
25.4
100
AcDbText
 10
97.7756305496
 20
281.8686473652
 30
0.0
 40
3.0
  1
O
 50
180.0
  7
SEACAD_SEMECI1_TTF
 11
97.7756305496
 21
278.8686473652
 31
0.0
100
AcDbText
 73
     3
  0
ENDBLK
  5
EC
330
E2
100
AcDbEntity
  8
0
100
AcDbBlockEnd
  0
BLOCK
  5
F6
330
ED
100
AcDbEntity
  8
0
100
AcDbBlockBegin
  2
SE15
 70
     0
 71
     0
 10
0.0
 20
0.0
 30
0.0
  3
SE15
  1

  0
POLYLINE
  5
EF
330
ED
100
AcDbEntity
  8
DEFAULT
  6
CONTINUOUS
 62
     7
 48
25.4
100
AcDb2dPolyline
 66
     1
 10
0.0
 20
0.0
 30
0.0
 70
     1
  0
VERTEX
  5
168
330
EF
100
AcDbEntity
  8
DEFAULT
  6
CONTINUOUS
 62
     7
100
AcDbVertex
100
AcDb2dVertex
 10
77.8597353854
 20
95.8903922343
 30
0.0
  0
VERTEX
  5
169
330
EF
100
AcDbEntity
  8
DEFAULT
  6
CONTINUOUS
 62
     7
100
AcDbVertex
100
AcDb2dVertex
 10
74.8597353594
 20
96.3903922387
 30
0.0
  0
VERTEX
  5
16A
330
EF
100
AcDbEntity
  8
DEFAULT
  6
CONTINUOUS
 62
     7
100
AcDbVertex
100
AcDb2dVertex
 10
77.8597353854
 20
96.890392243
 30
0.0
  0
VERTEX
  5
16B
330
EF
100
AcDbEntity
  8
DEFAULT
  6
CONTINUOUS
 62
     7
100
AcDbVertex
100
AcDb2dVertex
 10
77.8597353854
 20
95.8903922343
 30
0.0
  0
SEQEND
  5
167
330
EF
100
AcDbEntity
  8
DEFAULT
  6
CONTINUOUS
 62
     7
 48
25.4
  0
POLYLINE
  5
F0
330
ED
100
AcDbEntity
  8
DEFAULT
  6
CONTINUOUS
 62
     7
 48
25.4
100
AcDb2dPolyline
 66
     1
 10
0.0
 20
0.0
 30
0.0
 70
     1
  0
VERTEX
  5
16D
330
F0
100
AcDbEntity
  8
DEFAULT
  6
CONTINUOUS
 62
     7
100
AcDbVertex
100
AcDb2dVertex
 10
106.8597353333
 20
95.8903922343
 30
0.0
  0
VERTEX
  5
16E
330
F0
100
AcDbEntity
  8
DEFAULT
  6
CONTINUOUS
 62
     7
100
AcDbVertex
100
AcDb2dVertex
 10
109.8597353594
 20
96.3903922387
 30
0.0
  0
VERTEX
  5
16F
330
F0
100
AcDbEntity
  8
DEFAULT
  6
CONTINUOUS
 62
     7
100
AcDbVertex
100
AcDb2dVertex
 10
106.8597353333
 20
96.890392243
 30
0.0
  0
VERTEX
  5
170
330
F0
100
AcDbEntity
  8
DEFAULT
  6
CONTINUOUS
 62
     7
100
AcDbVertex
100
AcDb2dVertex
 10
106.8597353333
 20
95.8903922343
 30
0.0
  0
SEQEND
  5
16C
330
F0
100
AcDbEntity
  8
DEFAULT
  6
CONTINUOUS
 62
     7
 48
25.4
  0
LINE
  5
F1
330
ED
100
AcDbEntity
  8
DEFAULT
  6
CONTINUOUS
 62
     7
 48
25.4
100
AcDbLine
 10
74.8597353594
 20
103.1726660006
 30
0.0
 11
74.8597353594
 21
94.8903922256
 31
0.0
  0
LINE
  5
F2
330
ED
100
AcDbEntity
  8
DEFAULT
  6
CONTINUOUS
 62
     7
 48
25.4
100
AcDbLine
 10
109.8597353594
 20
103.1726660006
 30
0.0
 11
109.8597353594
 21
94.8903922256
 31
0.0
  0
LINE
  5
F3
330
ED
100
AcDbEntity
  8
DEFAULT
  6
CONTINUOUS
 62
     7
 48
25.4
100
AcDbLine
 10
74.8597353594
 20
96.3903922387
 30
0.0
 11
109.8597355084
 21
96.3903922387
 31
0.0
  0
TEXT
  5
F4
330
ED
100
AcDbEntity
  8
DEFAULT
  6
CONTINUOUS
 62
     7
 48
25.4
100
AcDbText
 10
92.1757933934
 20
95.6403922387
 30
0.0
 40
3.0
  1
35
 50
180.0
  7
SEACAD_SEISO_TTF
 11
92.1757933934
 21
92.6403922387
 31
0.0
100
AcDbText
 73
     3
  0
TEXT
  5
F5
330
ED
100
AcDbEntity
  8
DEFAULT
  6
CONTINUOUS
 62
     7
 48
25.4
100
AcDbText
 10
95.8164047471
 20
95.6403922387
 30
0.0
 40
3.0
  1
O
 50
180.0
  7
SEACAD_SEMECI1_TTF
 11
95.8164047471
 21
92.6403922387
 31
0.0
100
AcDbText
 73
     3
  0
ENDBLK
  5
F7
330
ED
100
AcDbEntity
  8
0
100
AcDbBlockEnd
  0
BLOCK
  5
100
330
F8
100
AcDbEntity
  8
0
100
AcDbBlockBegin
  2
SE16
 70
     0
 71
     0
 10
0.0
 20
0.0
 30
0.0
  3
SE16
  1

  0
POLYLINE
  5
FA
330
F8
100
AcDbEntity
  8
DEFAULT
  6
CONTINUOUS
 62
     7
 48
25.4
100
AcDb2dPolyline
 66
     1
 10
0.0
 20
0.0
 30
0.0
 70
     1
  0
VERTEX
  5
172
330
FA
100
AcDbEntity
  8
DEFAULT
  6
CONTINUOUS
 62
     7
100
AcDbVertex
100
AcDb2dVertex
 10
118.0911111139
 20
106.1726660267
 30
0.0
  0
VERTEX
  5
173
330
FA
100
AcDbEntity
  8
DEFAULT
  6
CONTINUOUS
 62
     7
100
AcDbVertex
100
AcDb2dVertex
 10
117.5911111095
 20
103.1726660006
 30
0.0
  0
VERTEX
  5
174
330
FA
100
AcDbEntity
  8
DEFAULT
  6
CONTINUOUS
 62
     7
100
AcDbVertex
100
AcDb2dVertex
 10
117.0911111052
 20
106.1726660267
 30
0.0
  0
VERTEX
  5
175
330
FA
100
AcDbEntity
  8
DEFAULT
  6
CONTINUOUS
 62
     7
100
AcDbVertex
100
AcDb2dVertex
 10
118.0911111139
 20
106.1726660267
 30
0.0
  0
SEQEND
  5
171
330
FA
100
AcDbEntity
  8
DEFAULT
  6
CONTINUOUS
 62
     7
 48
25.4
  0
POLYLINE
  5
FB
330
F8
100
AcDbEntity
  8
DEFAULT
  6
CONTINUOUS
 62
     7
 48
25.4
100
AcDb2dPolyline
 66
     1
 10
0.0
 20
0.0
 30
0.0
 70
     1
  0
VERTEX
  5
177
330
FB
100
AcDbEntity
  8
DEFAULT
  6
CONTINUOUS
 62
     7
100
AcDbVertex
100
AcDb2dVertex
 10
118.0911111139
 20
119.1726659745
 30
0.0
  0
VERTEX
  5
178
330
FB
100
AcDbEntity
  8
DEFAULT
  6
CONTINUOUS
 62
     7
100
AcDbVertex
100
AcDb2dVertex
 10
117.5911111095
 20
122.1726660006
 30
0.0
  0
VERTEX
  5
179
330
FB
100
AcDbEntity
  8
DEFAULT
  6
CONTINUOUS
 62
     7
100
AcDbVertex
100
AcDb2dVertex
 10
117.0911111052
 20
119.1726659745
 30
0.0
  0
VERTEX
  5
17A
330
FB
100
AcDbEntity
  8
DEFAULT
  6
CONTINUOUS
 62
     7
100
AcDbVertex
100
AcDb2dVertex
 10
118.0911111139
 20
119.1726659745
 30
0.0
  0
SEQEND
  5
176
330
FB
100
AcDbEntity
  8
DEFAULT
  6
CONTINUOUS
 62
     7
 48
25.4
  0
LINE
  5
FC
330
F8
100
AcDbEntity
  8
DEFAULT
  6
CONTINUOUS
 62
     7
 48
25.4
100
AcDbLine
 10
109.8597353594
 20
103.1726660006
 30
0.0
 11
119.0911111225
 21
103.1726660006
 31
0.0
  0
LINE
  5
FD
330
F8
100
AcDbEntity
  8
DEFAULT
  6
CONTINUOUS
 62
     7
 48
25.4
100
AcDbLine
 10
98.3355680237
 20
122.1726660006
 30
0.0
 11
119.0911111225
 21
122.1726660006
 31
0.0
  0
LINE
  5
FE
330
F8
100
AcDbEntity
  8
DEFAULT
  6
CONTINUOUS
 62
     7
 48
25.4
100
AcDbLine
 10
117.5911111095
 20
103.1726660006
 30
0.0
 11
117.5911111095
 21
122.1726653897
 31
0.0
  0
TEXT
  5
FF
330
F8
100
AcDbEntity
  8
DEFAULT
  6
CONTINUOUS
 62
     7
 48
25.4
100
AcDbText
 10
116.8411111095
 20
111.138574786
 30
0.0
 40
3.0
  1
19
 50
90.0
  7
SEACAD_SEISO_TTF
 11
113.8411111095
 21
111.138574786
 31
0.0
100
AcDbText
 73
     3
  0
ENDBLK
  5
101
330
F8
100
AcDbEntity
  8
0
100
AcDbBlockEnd
  0
BLOCK
  5
10A
330
102
100
AcDbEntity
  8
0
100
AcDbBlockBegin
  2
SE17
 70
     0
 71
     0
 10
0.0
 20
0.0
 30
0.0
  3
SE17
  1

  0
POLYLINE
  5
104
330
102
100
AcDbEntity
  8
DEFAULT
  6
CONTINUOUS
 62
     7
 48
25.4
100
AcDb2dPolyline
 66
     1
 10
0.0
 20
0.0
 30
0.0
 70
     1
  0
VERTEX
  5
17C
330
104
100
AcDbEntity
  8
DEFAULT
  6
CONTINUOUS
 62
     7
100
AcDbVertex
100
AcDb2dVertex
 10
127.6907583368
 20
136.1726659745
 30
0.0
  0
VERTEX
  5
17D
330
104
100
AcDbEntity
  8
DEFAULT
  6
CONTINUOUS
 62
     7
100
AcDbVertex
100
AcDb2dVertex
 10
127.1907583325
 20
139.1726660006
 30
0.0
  0
VERTEX
  5
17E
330
104
100
AcDbEntity
  8
DEFAULT
  6
CONTINUOUS
 62
     7
100
AcDbVertex
100
AcDb2dVertex
 10
126.6907583281
 20
136.1726659745
 30
0.0
  0
VERTEX
  5
17F
330
104
100
AcDbEntity
  8
DEFAULT
  6
CONTINUOUS
 62
     7
100
AcDbVertex
100
AcDb2dVertex
 10
127.6907583368
 20
136.1726659745
 30
0.0
  0
SEQEND
  5
17B
330
104
100
AcDbEntity
  8
DEFAULT
  6
CONTINUOUS
 62
     7
 48
25.4
  0
POLYLINE
  5
105
330
102
100
AcDbEntity
  8
DEFAULT
  6
CONTINUOUS
 62
     7
 48
25.4
100
AcDb2dPolyline
 66
     1
 10
0.0
 20
0.0
 30
0.0
 70
     1
  0
VERTEX
  5
181
330
105
100
AcDbEntity
  8
DEFAULT
  6
CONTINUOUS
 62
     7
100
AcDbVertex
100
AcDb2dVertex
 10
127.6907583368
 20
106.1726660267
 30
0.0
  0
VERTEX
  5
182
330
105
100
AcDbEntity
  8
DEFAULT
  6
CONTINUOUS
 62
     7
100
AcDbVertex
100
AcDb2dVertex
 10
127.1907583325
 20
103.1726660006
 30
0.0
  0
VERTEX
  5
183
330
105
100
AcDbEntity
  8
DEFAULT
  6
CONTINUOUS
 62
     7
100
AcDbVertex
100
AcDb2dVertex
 10
126.6907583281
 20
106.1726660267
 30
0.0
  0
VERTEX
  5
184
330
105
100
AcDbEntity
  8
DEFAULT
  6
CONTINUOUS
 62
     7
100
AcDbVertex
100
AcDb2dVertex
 10
127.6907583368
 20
106.1726660267
 30
0.0
  0
SEQEND
  5
180
330
105
100
AcDbEntity
  8
DEFAULT
  6
CONTINUOUS
 62
     7
 48
25.4
  0
LINE
  5
106
330
102
100
AcDbEntity
  8
DEFAULT
  6
CONTINUOUS
 62
     7
 48
25.4
100
AcDbLine
 10
95.8094828277
 20
139.1726660006
 30
0.0
 11
128.6907583455
 21
139.1726660006
 31
0.0
  0
LINE
  5
107
330
102
100
AcDbEntity
  8
DEFAULT
  6
CONTINUOUS
 62
     7
 48
25.4
100
AcDbLine
 10
92.3597353594
 20
103.1726660006
 30
0.0
 11
128.6907583455
 21
103.1726660006
 31
0.0
  0
LINE
  5
108
330
102
100
AcDbEntity
  8
DEFAULT
  6
CONTINUOUS
 62
     7
 48
25.4
100
AcDbLine
 10
127.1907583325
 20
139.1726660006
 30
0.0
 11
127.1907583325
 21
103.1726675503
 31
0.0
  0
TEXT
  5
109
330
102
100
AcDbEntity
  8
DEFAULT
  6
CONTINUOUS
 62
     7
 48
25.4
100
AcDbText
 10
126.4407583325
 20
119.4681213209
 30
0.0
 40
3.0
  1
36
 50
90.0
  7
SEACAD_SEISO_TTF
 11
123.4407583325
 21
119.4681213209
 31
0.0
100
AcDbText
 73
     3
  0
ENDBLK
  5
10B
330
102
100
AcDbEntity
  8
0
100
AcDbBlockEnd
  0
BLOCK
  5
115
330
10C
100
AcDbEntity
  8
0
100
AcDbBlockBegin
  2
SE18
 70
     0
 71
     0
 10
0.0
 20
0.0
 30
0.0
  3
SE18
  1

  0
POLYLINE
  5
10E
330
10C
100
AcDbEntity
  8
DEFAULT
  6
CONTINUOUS
 62
     7
 48
25.4
100
AcDb2dPolyline
 66
     1
 10
0.0
 20
0.0
 30
0.0
 70
     1
  0
VERTEX
  5
186
330
10E
100
AcDbEntity
  8
DEFAULT
  6
CONTINUOUS
 62
     7
100
AcDbVertex
100
AcDb2dVertex
 10
65.2213929045
 20
110.1726660267
 30
0.0
  0
VERTEX
  5
187
330
10E
100
AcDbEntity
  8
DEFAULT
  6
CONTINUOUS
 62
     7
100
AcDbVertex
100
AcDb2dVertex
 10
65.7213929089
 20
107.1726660006
 30
0.0
  0
VERTEX
  5
188
330
10E
100
AcDbEntity
  8
DEFAULT
  6
CONTINUOUS
 62
     7
100
AcDbVertex
100
AcDb2dVertex
 10
66.2213929132
 20
110.1726660267
 30
0.0
  0
VERTEX
  5
189
330
10E
100
AcDbEntity
  8
DEFAULT
  6
CONTINUOUS
 62
     7
100
AcDbVertex
100
AcDb2dVertex
 10
65.2213929045
 20
110.1726660267
 30
0.0
  0
SEQEND
  5
185
330
10E
100
AcDbEntity
  8
DEFAULT
  6
CONTINUOUS
 62
     7
 48
25.4
  0
POLYLINE
  5
10F
330
10C
100
AcDbEntity
  8
DEFAULT
  6
CONTINUOUS
 62
     7
 48
25.4
100
AcDb2dPolyline
 66
     1
 10
0.0
 20
0.0
 30
0.0
 70
     1
  0
VERTEX
  5
18B
330
10F
100
AcDbEntity
  8
DEFAULT
  6
CONTINUOUS
 62
     7
100
AcDbVertex
100
AcDb2dVertex
 10
65.2213929045
 20
136.1726659745
 30
0.0
  0
VERTEX
  5
18C
330
10F
100
AcDbEntity
  8
DEFAULT
  6
CONTINUOUS
 62
     7
100
AcDbVertex
100
AcDb2dVertex
 10
65.7213929089
 20
139.1726660006
 30
0.0
  0
VERTEX
  5
18D
330
10F
100
AcDbEntity
  8
DEFAULT
  6
CONTINUOUS
 62
     7
100
AcDbVertex
100
AcDb2dVertex
 10
66.2213929132
 20
136.1726659745
 30
0.0
  0
VERTEX
  5
18E
330
10F
100
AcDbEntity
  8
DEFAULT
  6
CONTINUOUS
 62
     7
100
AcDbVertex
100
AcDb2dVertex
 10
65.2213929045
 20
136.1726659745
 30
0.0
  0
SEQEND
  5
18A
330
10F
100
AcDbEntity
  8
DEFAULT
  6
CONTINUOUS
 62
     7
 48
25.4
  0
LINE
  5
110
330
10C
100
AcDbEntity
  8
DEFAULT
  6
CONTINUOUS
 62
     7
 48
25.4
100
AcDbLine
 10
75.4209042506
 20
107.1726660006
 30
0.0
 11
64.2213928958
 21
107.1726660006
 31
0.0
  0
LINE
  5
111
330
10C
100
AcDbEntity
  8
DEFAULT
  6
CONTINUOUS
 62
     7
 48
25.4
100
AcDbLine
 10
88.909987891
 20
139.1726660006
 30
0.0
 11
64.2213928958
 21
139.1726660006
 31
0.0
  0
LINE
  5
112
330
10C
100
AcDbEntity
  8
DEFAULT
  6
CONTINUOUS
 62
     7
 48
25.4
100
AcDbLine
 10
65.7213929089
 20
107.1726660006
 30
0.0
 11
65.7213929089
 21
139.1726675205
 31
0.0
  0
TEXT
  5
113
330
10C
100
AcDbEntity
  8
DEFAULT
  6
CONTINUOUS
 62
     7
 48
25.4
100
AcDbText
 10
64.9713929089
 20
110.6135758515
 30
0.0
 40
3.0
  1
32
 50
90.0
  7
SEACAD_SEISO_TTF
 11
61.9713929089
 21
110.6135758515
 31
0.0
100
AcDbText
 73
     3
  0
TEXT
  5
114
330
10C
100
AcDbEntity
  8
DEFAULT
  6
CONTINUOUS
 62
     7
 48
25.4
100
AcDbText
 10
64.9713929089
 20
114.3226667606
 30
0.0
 40
3.0
  1
 / 37 / 42 / 47
 50
90.0
  7
SEACAD_SEISO_TTF
 11
61.9713929089
 21
114.3226667606
 31
0.0
100
AcDbText
 73
     3
  0
ENDBLK
  5
116
330
10C
100
AcDbEntity
  8
0
100
AcDbBlockEnd
  0
ENDSEC
  0
SECTION
  2
ENTITIES
  0
TEXT
  5
2F
330
1F
100
AcDbEntity
  8
DEFAULT
  6
CONTINUOUS
 62
     7
 48
25.4
100
AcDbText
 10
189.3253146384
 20
7.9996998611
 30
0.0
 40
5.0
  1
38.005
  7
SEACAD_SEISO_TTF
 11
189.3253146384
 21
12.9996998611
 31
0.0
100
AcDbText
 73
     3
  0
INSERT
  5
32
330
1F
100
AcDbEntity
  8
0
100
AcDbBlockReference
  2
SE
 10
0.0
 20
0.0
 30
0.0
  0
INSERT
  5
38
330
1F
100
AcDbEntity
  8
0
100
AcDbBlockReference
  2
SE1
 10
0.0
 20
0.0
 30
0.0
  0
INSERT
  5
3D
330
1F
100
AcDbEntity
  8
0
100
AcDbBlockReference
  2
SE2
 10
0.0
 20
0.0
 30
0.0
  0
INSERT
  5
57
330
1F
100
AcDbEntity
  8
0
100
AcDbBlockReference
  2
SE3
 10
0.0
 20
0.0
 30
0.0
  0
INSERT
  5
74
330
1F
100
AcDbEntity
  8
0
100
AcDbBlockReference
  2
SE4
 10
0.0
 20
0.0
 30
0.0
  0
INSERT
  5
7F
330
1F
100
AcDbEntity
  8
0
100
AcDbBlockReference
  2
SE5
 10
0.0
 20
0.0
 30
0.0
  0
INSERT
  5
8A
330
1F
100
AcDbEntity
  8
0
100
AcDbBlockReference
  2
SE6
 10
0.0
 20
0.0
 30
0.0
  0
INSERT
  5
95
330
1F
100
AcDbEntity
  8
0
100
AcDbBlockReference
  2
SE7
 10
0.0
 20
0.0
 30
0.0
  0
INSERT
  5
9F
330
1F
100
AcDbEntity
  8
0
100
AcDbBlockReference
  2
SE8
 10
0.0
 20
0.0
 30
0.0
  0
INSERT
  5
B1
330
1F
100
AcDbEntity
  8
0
100
AcDbBlockReference
  2
SE9
 10
0.0
 20
0.0
 30
0.0
  0
INSERT
  5
B9
330
1F
100
AcDbEntity
  8
0
100
AcDbBlockReference
  2
SE10
 10
0.0
 20
0.0
 30
0.0
  0
INSERT
  5
C4
330
1F
100
AcDbEntity
  8
0
100
AcDbBlockReference
  2
SE11
 10
0.0
 20
0.0
 30
0.0
  0
INSERT
  5
CF
330
1F
100
AcDbEntity
  8
0
100
AcDbBlockReference
  2
SE12
 10
0.0
 20
0.0
 30
0.0
  0
INSERT
  5
D9
330
1F
100
AcDbEntity
  8
0
100
AcDbBlockReference
  2
SE13
 10
0.0
 20
0.0
 30
0.0
  0
INSERT
  5
E3
330
1F
100
AcDbEntity
  8
0
100
AcDbBlockReference
  2
SE14
 10
0.0
 20
0.0
 30
0.0
  0
INSERT
  5
EE
330
1F
100
AcDbEntity
  8
0
100
AcDbBlockReference
  2
SE15
 10
0.0
 20
0.0
 30
0.0
  0
INSERT
  5
F9
330
1F
100
AcDbEntity
  8
0
100
AcDbBlockReference
  2
SE16
 10
0.0
 20
0.0
 30
0.0
  0
INSERT
  5
103
330
1F
100
AcDbEntity
  8
0
100
AcDbBlockReference
  2
SE17
 10
0.0
 20
0.0
 30
0.0
  0
INSERT
  5
10D
330
1F
100
AcDbEntity
  8
0
100
AcDbBlockReference
  2
SE18
 10
0.0
 20
0.0
 30
0.0
  0
ENDSEC
  0
SECTION
  2
OBJECTS
  0
DICTIONARY
  5
C
330
0
100
AcDbDictionary
  3
ACAD_GROUP
350
D
  3
ACAD_LAYOUT
350
1A
  3
ACAD_MLINESTYLE
350
17
  3
ACAD_PLOTSETTINGS
350
19
  3
ACAD_TABLESTYLE
350
2A
  3
ACDBVARIABLEDICTIONARY
350
2C
1001
ACAD
1000
TREAT_AS_HARD
1070
     0
  0
DICTIONARY
  5
18F
330
29
100
AcDbDictionary
  3
ACAD_XREC_ROUNDTRIP
360
190
  0
DICTIONARY
  5
D
102
{ACAD_REACTORS
330
C
102
}
330
C
100
AcDbDictionary
1001
ACAD
1000
TREAT_AS_HARD
1070
     0
  0
DICTIONARY
  5
1A
102
{ACAD_REACTORS
330
C
102
}
330
C
100
AcDbDictionary
1001
ACAD
1000
TREAT_AS_HARD
1070
     0
  0
DICTIONARY
  5
17
102
{ACAD_REACTORS
330
C
102
}
330
C
100
AcDbDictionary
  3
STANDARD
350
18
1001
ACAD
1000
TREAT_AS_HARD
1070
     0
  0
DICTIONARY
  5
19
102
{ACAD_REACTORS
330
C
102
}
330
C
100
AcDbDictionary
1001
ACAD
1000
TREAT_AS_HARD
1070
     0
  0
DICTIONARY
  5
2A
102
{ACAD_REACTORS
330
C
102
}
330
C
100
AcDbDictionary
  3
STANDARD
350
2B
1001
ACAD
1000
TREAT_AS_HARD
1070
     0
  0
DICTIONARY
  5
2C
102
{ACAD_REACTORS
330
C
102
}
330
C
100
AcDbDictionary
  3
CTABLESTYLE
350
2D
1001
ACAD
1000
TREAT_AS_HARD
1070
     0
  0
XRECORD
  5
190
102
{ACAD_REACTORS
330
18F
102
}
330
18F
100
AcDbXrecord
102
UCS
 74
     0
 71
     1
 10
0.0
 20
0.0
 30
0.0
 10
1.0
 20
0.0
 30
0.0
 10
0.0
 20
1.0
 30
0.0
146
0.0
 79
     0
102
VIEW
281
     0
  0
MLINESTYLE
  5
18
102
{ACAD_REACTORS
330
17
102
}
330
17
100
AcDbMlineStyle
  2
Standard
 70
     0
  3

 62
   256
 51
90.0
 52
90.0
 71
     2
 49
0.5
 62
   256
  6
BYLAYER
 49
-0.5
 62
   256
  6
BYLAYER
  0
TABLESTYLE
  5
2B
102
{ACAD_REACTORS
330
2A
102
}
330
2A
100
AcDbTableStyle
  3
Standard
 70
     0
 71
     0
 40
0.06
 41
0.06
280
     0
281
     0
  7
STANDARD
140
0.18
170
     2
 62
     0
 63
     7
283
     0
274
    -2
284
     1
 64
     0
275
    -2
285
     1
 65
     0
276
    -2
286
     1
 66
     0
277
    -2
287
     1
 67
     0
278
    -2
288
     1
 68
     0
279
    -2
289
     1
 69
     0
  7
STANDARD
140
0.25
170
     5
 62
     0
 63
     7
283
     0
274
    -2
284
     1
 64
     0
275
    -2
285
     1
 65
     0
276
    -2
286
     1
 66
     0
277
    -2
287
     1
 67
     0
278
    -2
288
     1
 68
     0
279
    -2
289
     1
 69
     0
  7
STANDARD
140
0.18
170
     5
 62
     0
 63
     7
283
     0
274
    -2
284
     1
 64
     0
275
    -2
285
     1
 65
     0
276
    -2
286
     1
 66
     0
277
    -2
287
     1
 67
     0
278
    -2
288
     1
 68
     0
279
    -2
289
     1
 69
     0
  0
DICTIONARYVAR
  5
2D
102
{ACAD_REACTORS
330
2C
102
}
330
2C
100
DictionaryVariables
280
     0
  1
Standard
  0
ENDSEC
  0
EOF
