  0
SECTION
  2
HEADER
  9
$ACADVER
  1
AC1012
  9
$DWGCODEPAGE
  3
ansi_1252
  9
$INSBASE
 10
0.0
 20
0.0
 30
0.0
  9
$EXTMIN
 10
0.0
 20
0.0
 30
0.0
  9
$EXTMAX
 10
210.0
 20
297.0
 30
0.0
  9
$LIMMIN
 10
0.0
 20
0.0
  9
$LIMMAX
 10
210.0
 20
297.0
  9
$ORTHOMODE
 70
     0
  9
$REGENMODE
 70
     1
  9
$FILLMODE
 70
     1
  9
$QTEXTMODE
 70
     0
  9
$MIRRTEXT
 70
     1
  9
$DRAGMODE
 70
     2
  9
$LTSCALE
 40
1.0
  9
$OSMODE
 70
    37
  9
$ATTMODE
 70
     1
  9
$TEXTSIZE
 40
0.2
  9
$TRACEWID
 40
0.05
  9
$TEXTSTYLE
  7
STANDARD
  9
$CLAYER
  8
0
  9
$CELTYPE
  6
BYLAYER
  9
$CECOLOR
 62
   256
  9
$CELTSCALE
 40
25.4
  9
$DELOBJ
 70
     1
  9
$DISPSILH
 70
     0
  9
$DIMSCALE
 40
1.0
  9
$DIMASZ
 40
0.18
  9
$DIMEXO
 40
0.0625
  9
$DIMDLI
 40
0.38
  9
$DIMRND
 40
0.0
  9
$DIMDLE
 40
0.0
  9
$DIMEXE
 40
0.18
  9
$DIMTP
 40
0.0
  9
$DIMTM
 40
0.0
  9
$DIMTXT
 40
0.18
  9
$DIMCEN
 40
0.09
  9
$DIMTSZ
 40
0.0
  9
$DIMTOL
 70
     0
  9
$DIMLIM
 70
     0
  9
$DIMTIH
 70
     1
  9
$DIMTOH
 70
     1
  9
$DIMSE1
 70
     0
  9
$DIMSE2
 70
     0
  9
$DIMTAD
 70
     0
  9
$DIMZIN
 70
     0
  9
$DIMBLK
  1

  9
$DIMASO
 70
     1
  9
$DIMSHO
 70
     1
  9
$DIMPOST
  1

  9
$DIMAPOST
  1

  9
$DIMALT
 70
     0
  9
$DIMALTD
 70
     2
  9
$DIMALTF
 40
25.4
  9
$DIMLFAC
 40
1.0
  9
$DIMTOFL
 70
     0
  9
$DIMTVP
 40
0.0
  9
$DIMTIX
 70
     0
  9
$DIMSOXD
 70
     0
  9
$DIMSAH
 70
     0
  9
$DIMBLK1
  1

  9
$DIMBLK2
  1

  9
$DIMSTYLE
  2
STANDARD
  9
$DIMCLRD
 70
     0
  9
$DIMCLRE
 70
     0
  9
$DIMCLRT
 70
     0
  9
$DIMTFAC
 40
1.0
  9
$DIMGAP
 40
0.09
  9
$DIMJUST
 70
     0
  9
$DIMSD1
 70
     0
  9
$DIMSD2
 70
     0
  9
$DIMTOLJ
 70
     1
  9
$DIMTZIN
 70
     0
  9
$DIMALTZ
 70
     0
  9
$DIMALTTZ
 70
     0
  9
$DIMFIT
 70
     3
  9
$DIMUPT
 70
     0
  9
$DIMUNIT
 70
     2
  9
$DIMDEC
 70
     4
  9
$DIMTDEC
 70
     4
  9
$DIMALTU
 70
     2
  9
$DIMALTTD
 70
     2
  9
$DIMTXSTY
  7
STANDARD
  9
$DIMAUNIT
 70
     0
  9
$LUNITS
 70
     2
  9
$LUPREC
 70
     4
  9
$SKETCHINC
 40
0.1
  9
$FILLETRAD
 40
0.5
  9
$AUNITS
 70
     0
  9
$AUPREC
 70
     0
  9
$MENU
  1
.
  9
$ELEVATION
 40
0.0
  9
$PELEVATION
 40
0.0
  9
$THICKNESS
 40
0.0
  9
$LIMCHECK
 70
     0
  9
$CHAMFERA
 40
0.5
  9
$CHAMFERB
 40
0.5
  9
$CHAMFERC
 40
1.0
  9
$CHAMFERD
 40
0.0
  9
$SKPOLY
 70
     0
  9
$TDCREATE
 40
2453762.545567234
  9
$TDUPDATE
 40
2453762.545567245
  9
$TDINDWG
 40
0.0000000116
  9
$TDUSRTIMER
 40
0.0000000116
  9
$USRTIMER
 70
     1
  9
$ANGBASE
 50
0.0
  9
$ANGDIR
 70
     0
  9
$PDMODE
 70
     0
  9
$PDSIZE
 40
0.0
  9
$PLINEWID
 40
0.0
  9
$COORDS
 70
     1
  9
$SPLFRAME
 70
     0
  9
$SPLINETYPE
 70
     6
  9
$SPLINESEGS
 70
     8
  9
$ATTDIA
 70
     0
  9
$ATTREQ
 70
     1
  9
$HANDLING
 70
     1
  9
$HANDSEED
  5
A9
  9
$SURFTAB1
 70
     6
  9
$SURFTAB2
 70
     6
  9
$SURFTYPE
 70
     6
  9
$SURFU
 70
     6
  9
$SURFV
 70
     6
  9
$UCSNAME
  2

  9
$UCSORG
 10
0.0
 20
0.0
 30
0.0
  9
$UCSXDIR
 10
1.0
 20
0.0
 30
0.0
  9
$UCSYDIR
 10
0.0
 20
1.0
 30
0.0
  9
$PUCSNAME
  2

  9
$PUCSORG
 10
0.0
 20
0.0
 30
0.0
  9
$PUCSXDIR
 10
1.0
 20
0.0
 30
0.0
  9
$PUCSYDIR
 10
0.0
 20
1.0
 30
0.0
  9
$USERI1
 70
     0
  9
$USERI2
 70
     0
  9
$USERI3
 70
     0
  9
$USERI4
 70
     0
  9
$USERI5
 70
     0
  9
$USERR1
 40
0.0
  9
$USERR2
 40
0.0
  9
$USERR3
 40
0.0
  9
$USERR4
 40
0.0
  9
$USERR5
 40
0.0
  9
$WORLDVIEW
 70
     1
  9
$SHADEDGE
 70
     3
  9
$SHADEDIF
 70
    70
  9
$TILEMODE
 70
     1
  9
$MAXACTVP
 70
    64
  9
$PINSBASE
 10
0.0
 20
0.0
 30
0.0
  9
$PLIMCHECK
 70
     0
  9
$PEXTMIN
 10
0.0
 20
0.0
 30
0.0
  9
$PEXTMAX
 10
210.0
 20
297.0
 30
0.0
  9
$PLIMMIN
 10
0.0
 20
0.0
  9
$PLIMMAX
 10
12.0
 20
9.0
  9
$UNITMODE
 70
     0
  9
$VISRETAIN
 70
     1
  9
$PLINEGEN
 70
     0
  9
$PSLTSCALE
 70
     1
  9
$TREEDEPTH
 70
  3020
  9
$PICKSTYLE
 70
     1
  9
$CMLSTYLE
  2
STANDARD
  9
$CMLJUST
 70
     0
  9
$CMLSCALE
 40
1.0
  9
$SAVEIMAGES
 70
     1
  0
ENDSEC
  0
SECTION
  2
CLASSES
  0
CLASS
  1
ACDBDICTIONARYWDFLT
  2
AcDbDictionaryWithDefault
  3
ObjectDBX Classes
 90
        0
280
     0
281
     0
  0
CLASS
  1
TABLESTYLE
  2
AcDbTableStyle
  3
ObjectDBX Classes
 90
     2047
280
     0
281
     0
  0
CLASS
  1
DICTIONARYVAR
  2
AcDbDictionaryVar
  3
ObjectDBX Classes
 90
        0
280
     0
281
     0
  0
CLASS
  1
XRECORD
  2
AcDbXrecord
  3
AutoCAD 2000
 90
    32768
280
     0
281
     0
  0
CLASS
  1
LWPOLYLINE
  2
AcDbPolyline
  3
AutoCAD 2000
 90
    32768
280
     0
281
     1
  0
CLASS
  1
HATCH
  2
AcDbHatch
  3
AutoCAD 2000
 90
    32768
280
     0
281
     1
  0
CLASS
  1
ACDBPLACEHOLDER
  2
AcDbPlaceHolder
  3
ObjectDBX Classes
 90
        0
280
     0
281
     0
  0
CLASS
  1
LAYOUT
  2
AcDbLayout
  3
ObjectDBX Classes
 90
        0
280
     0
281
     0
  0
ENDSEC
  0
SECTION
  2
TABLES
  0
TABLE
  2
VPORT
  5
8
330
0
100
AcDbSymbolTable
 70
     2
  0
VPORT
  5
29
102
{ACAD_XDICTIONARY
360
A7
102
}
330
8
100
AcDbSymbolTableRecord
100
AcDbViewportTableRecord
  2
*ACTIVE
 70
     0
 10
0.0
 20
0.0
 11
1.0
 21
1.0
 12
10.4299065421
 22
4.5
 13
0.0
 23
0.0
 14
0.5
 24
0.5
 15
0.5
 25
0.5
 16
0.0
 26
0.0
 36
1.0
 17
0.0
 27
0.0
 37
0.0
 40
9.0
 41
1.9729729729
 42
50.0
 43
0.0
 44
0.0
 50
0.0
 51
0.0
 71
     0
 72
   100
 73
     1
 74
     3
 75
     0
 76
     0
 77
     0
 78
     0
  0
ENDTAB
  0
TABLE
  2
LTYPE
  5
5
330
0
100
AcDbSymbolTable
 70
     3
  0
LTYPE
  5
14
330
5
100
AcDbSymbolTableRecord
100
AcDbLinetypeTableRecord
  2
BYBLOCK
 70
     0
  3

 72
    65
 73
     0
 40
0.0
  0
LTYPE
  5
15
330
5
100
AcDbSymbolTableRecord
100
AcDbLinetypeTableRecord
  2
BYLAYER
 70
     0
  3

 72
    65
 73
     0
 40
0.0
  0
LTYPE
  5
16
330
5
100
AcDbSymbolTableRecord
100
AcDbLinetypeTableRecord
  2
CONTINUOUS
 70
     0
  3
Solid line
 72
    65
 73
     0
 40
0.0
  0
LTYPE
  5
31
330
5
100
AcDbSymbolTableRecord
100
AcDbLinetypeTableRecord
  2
CENTER2
 70
     0
  3
___ _ ___ _ ___ _ ___ _ ___ _ ___ _ ___ _ ___ _
 72
    65
 73
     4
 40
1.125
 49
0.75
 74
     4
 75
     0
340
0
 46
0.0
 50
0.0
 44
0.0
 45
0.0
 49
-0.125
 74
     4
 75
     0
340
0
 46
0.0
 50
0.0
 44
0.0
 45
0.0
 49
0.125
 74
     4
 75
     0
340
0
 46
0.0
 50
0.0
 44
0.0
 45
0.0
 49
-0.125
 74
     4
 75
     0
340
0
 46
0.0
 50
0.0
 44
0.0
 45
0.0
  0
LTYPE
  5
45
330
5
100
AcDbSymbolTableRecord
100
AcDbLinetypeTableRecord
  2
HIDDEN2
 70
     0
  3
_ _ _ _ _ _ _ _ _ _ _ _ _ _ _ _ _ _ _ _ _ _ _ _
 72
    65
 73
     2
 40
0.1875
 49
0.125
 74
     4
 75
     0
340
0
 46
0.0
 50
0.0
 44
0.0
 45
0.0
 49
-0.0625
 74
     4
 75
     0
340
0
 46
0.0
 50
0.0
 44
0.0
 45
0.0
  0
ENDTAB
  0
TABLE
  2
LAYER
  5
2
330
0
100
AcDbSymbolTable
 70
     3
  0
LAYER
  5
10
330
2
100
AcDbSymbolTableRecord
100
AcDbLayerTableRecord
  2
0
 70
     0
 62
     7
  6
CONTINUOUS
  0
LAYER
  5
30
330
2
100
AcDbSymbolTableRecord
100
AcDbLayerTableRecord
  2
DEFAULT
 70
     0
 62
     7
  6
CONTINUOUS
  0
LAYER
  5
37
330
2
100
AcDbSymbolTableRecord
100
AcDbLayerTableRecord
  2
MEGA_002204
 70
     0
 62
     7
  6
CONTINUOUS
  0
ENDTAB
  0
TABLE
  2
STYLE
  5
3
330
0
100
AcDbSymbolTable
 70
     3
  0
STYLE
  5
11
330
3
100
AcDbSymbolTableRecord
100
AcDbTextStyleTableRecord
  2
STANDARD
 70
     0
 40
0.0
 41
1.0
 50
0.0
 71
     0
 42
0.2
  3
txt
  4

  0
STYLE
  5
5F
330
3
100
AcDbSymbolTableRecord
100
AcDbTextStyleTableRecord
  2
SEACAD_SEISO_TTF
 70
     0
 40
0.2
 41
1.0
 50
0.0
 71
     0
 42
0.2
  3
seiso.ttf
  4

  0
STYLE
  5
61
330
3
100
AcDbSymbolTableRecord
100
AcDbTextStyleTableRecord
  2
SEACAD_SEMECI1_TTF
 70
     0
 40
0.2
 41
1.0
 50
0.0
 71
     0
 42
0.2
  3
semeci1.ttf
  4

  0
ENDTAB
  0
TABLE
  2
VIEW
  5
6
330
0
100
AcDbSymbolTable
 70
     0
  0
ENDTAB
  0
TABLE
  2
UCS
  5
7
330
0
100
AcDbSymbolTable
 70
     0
  0
ENDTAB
  0
TABLE
  2
APPID
  5
9
330
0
100
AcDbSymbolTable
 70
     1
  0
APPID
  5
12
330
9
100
AcDbSymbolTableRecord
100
AcDbRegAppTableRecord
  2
ACAD
 70
     0
  0
ENDTAB
  0
TABLE
  2
DIMSTYLE
  5
A
330
0
100
AcDbSymbolTable
 70
     1
  0
DIMSTYLE
105
27
330
A
100
AcDbSymbolTableRecord
100
AcDbDimStyleTableRecord
  2
STANDARD
 70
     0
  3

  4

  5

  6

  7

 40
1.0
 41
0.18
 42
0.0625
 43
0.38
 44
0.18
 45
0.0
 46
0.0
 47
0.0
 48
0.0
140
0.18
141
0.09
142
0.0
143
25.4
144
1.0
145
0.0
146
1.0
147
0.09
 71
     0
 72
     0
 73
     1
 74
     1
 75
     0
 76
     0
 77
     0
 78
     0
170
     0
171
     2
172
     0
173
     0
174
     0
175
     0
176
     0
177
     0
178
     0
270
     2
271
     4
272
     4
273
     2
274
     2
340
11
275
     0
280
     0
281
     0
282
     0
283
     1
284
     0
285
     0
286
     0
287
     3
288
     0
  0
ENDTAB
  0
TABLE
  2
BLOCK_RECORD
  5
1
330
0
100
AcDbSymbolTable
 70
     7
  0
BLOCK_RECORD
  5
1F
330
1
100
AcDbSymbolTableRecord
100
AcDbBlockTableRecord
  2
*MODEL_SPACE
  0
BLOCK_RECORD
  5
1B
330
1
100
AcDbSymbolTableRecord
100
AcDbBlockTableRecord
  2
*PAPER_SPACE
  0
BLOCK_RECORD
  5
2E
330
1
100
AcDbSymbolTableRecord
100
AcDbBlockTableRecord
  2
SE
  0
BLOCK_RECORD
  5
35
330
1
100
AcDbSymbolTableRecord
100
AcDbBlockTableRecord
  2
SE1
  0
BLOCK_RECORD
  5
59
330
1
100
AcDbSymbolTableRecord
100
AcDbBlockTableRecord
  2
SE2
  0
BLOCK_RECORD
  5
65
330
1
100
AcDbSymbolTableRecord
100
AcDbBlockTableRecord
  2
SE3
  0
BLOCK_RECORD
  5
70
330
1
100
AcDbSymbolTableRecord
100
AcDbBlockTableRecord
  2
SE4
  0
BLOCK_RECORD
  5
7A
330
1
100
AcDbSymbolTableRecord
100
AcDbBlockTableRecord
  2
SE5
  0
ENDTAB
  0
ENDSEC
  0
SECTION
  2
BLOCKS
  0
BLOCK
  5
20
330
1F
100
AcDbEntity
  8
0
100
AcDbBlockBegin
  2
*MODEL_SPACE
 70
     0
 71
     0
 10
0.0
 20
0.0
 30
0.0
  3
*MODEL_SPACE
  1

  0
ENDBLK
  5
21
330
1F
100
AcDbEntity
  8
0
100
AcDbBlockEnd
  0
BLOCK
  5
1C
330
1B
100
AcDbEntity
 67
     1
  8
0
100
AcDbBlockBegin
  2
*PAPER_SPACE
 70
     0
 71
     0
 10
0.0
 20
0.0
 30
0.0
  3
*PAPER_SPACE
  1

  0
ENDBLK
  5
1D
330
1B
100
AcDbEntity
 67
     1
  8
0
100
AcDbBlockEnd
  0
BLOCK
  5
33
330
2E
100
AcDbEntity
  8
0
100
AcDbBlockBegin
  2
SE
 70
     0
 71
     0
 10
0.0
 20
0.0
 30
0.0
  3
SE
  1

  0
LINE
  5
32
330
2E
100
AcDbEntity
  8
DEFAULT
  6
CENTER2
 62
     7
 48
25.4
100
AcDbLine
 10
108.030297078
 20
165.4609858846
 30
0.0
 11
108.030297078
 21
216.8224985115
 31
0.0
  0
ENDBLK
  5
34
330
2E
100
AcDbEntity
  8
0
100
AcDbBlockEnd
  0
BLOCK
  5
57
330
35
100
AcDbEntity
  8
0
100
AcDbBlockBegin
  2
SE1
 70
     0
 71
     0
 10
0.0
 20
0.0
 30
0.0
  3
SE1
  1

  0
LINE
  5
38
330
35
100
AcDbEntity
  8
MEGA_002204
  6
CONTINUOUS
 62
     7
 48
25.4
100
AcDbLine
 10
118.0302970983
 20
175.2029630089
 30
0.0
 11
115.0695253779
 21
192.9413245981
 31
0.0
  0
LINE
  5
39
330
35
100
AcDbEntity
  8
MEGA_002204
  6
CONTINUOUS
 62
     7
 48
25.4
100
AcDbLine
 10
100.9910687786
 20
192.9413246009
 30
0.0
 11
98.0302970577
 21
175.2029630089
 31
0.0
  0
ELLIPSE
  5
3A
330
35
100
AcDbEntity
  8
MEGA_002204
  6
CONTINUOUS
 62
     7
 48
25.4
100
AcDbEllipse
 10
119.9555605505
 20
193.7675517227
 30
0.0
 11
0.3349793110244553
 21
4.988766266441655
 31
0.0
210
0.0
220
0.0
230
1.0
 40
0.996118403
 41
0.0
 42
0.3724066258817157
  0
ARC
  5
3B
330
35
100
AcDbEntity
  8
MEGA_002204
  6
CONTINUOUS
 62
     7
 48
25.4
100
AcDbCircle
 10
119.9994408393
 20
193.7697801847
 30
0.0
 40
4.995030478700002
100
AcDbArc
 50
86.556022276
 51
189.5400376044
  0
LINE
  5
3C
330
35
100
AcDbEntity
  8
MEGA_002204
  6
CONTINUOUS
 62
     7
 48
25.4
100
AcDbLine
 10
136.2985897609
 20
196.9709671522
 30
0.0
 11
136.2888488295
 21
196.9724898601
 31
0.0
  0
LINE
  5
3D
330
35
100
AcDbEntity
  8
MEGA_002204
  6
CONTINUOUS
 62
     7
 48
25.4
100
AcDbLine
 10
79.7717453265
 20
196.9724898601
 30
0.0
 11
79.7620043951
 21
196.9709671522
 31
0.0
  0
LINE
  5
3E
330
35
100
AcDbEntity
  8
MEGA_002204
  6
CONTINUOUS
 62
     7
 48
25.4
100
AcDbLine
 10
95.7460401681
 20
198.7547055192
 30
0.0
 11
95.7700542945
 21
198.7563179891
 31
0.0
  0
ARC
  5
3F
330
35
100
AcDbEntity
  8
MEGA_002204
  6
CONTINUOUS
 62
     7
 48
25.4
100
AcDbCircle
 10
108.0223187198
 20
16.2390267502
 30
0.0
 40
182.9280721616
100
AcDbArc
 50
93.8404656807
 51
98.8840538593
  0
ARC
  5
40
330
35
100
AcDbEntity
  8
MEGA_002204
  6
CONTINUOUS
 62
     7
 48
25.4
100
AcDbCircle
 10
108.0382754362
 20
16.2390267502
 30
0.0
 40
182.9280721616
100
AcDbArc
 50
81.1159461407
 51
86.1595343193
  0
ARC
  5
41
330
35
100
AcDbEntity
  8
MEGA_002204
  6
CONTINUOUS
 62
     7
 48
25.4
100
AcDbCircle
 10
96.0607226058
 20
193.7698696104
 30
0.0
 40
4.995255617699997
100
AcDbArc
 50
350.4610489464
 51
93.5505723308
  0
LINE
  5
42
330
35
100
AcDbEntity
  8
MEGA_002204
  6
CONTINUOUS
 62
     7
 48
25.4
100
AcDbLine
 10
98.0302970577
 20
175.2029630089
 30
0.0
 11
118.0302970983
 21
175.2029630089
 31
0.0
  0
LINE
  5
43
330
35
100
AcDbEntity
  8
MEGA_002204
  6
CONTINUOUS
 62
     7
 48
25.4
100
AcDbLine
 10
135.1439749427
 20
211.125901116
 30
0.0
 11
135.1444844393
 21
211.1236942436
 31
0.0
  0
ARC
  5
44
330
35
100
AcDbEntity
  8
MEGA_002204
  6
CONTINUOUS
 62
     7
 48
25.4
100
AcDbCircle
 10
79.530297078
 20
198.4529630089
 30
0.0
 40
1.5
100
AcDbArc
 50
167.0
 51
278.8861488747
  0
LINE
  5
46
330
35
100
AcDbEntity
  8
MEGA_002204
  6
HIDDEN2
 62
     7
 48
25.4
100
AcDbLine
 10
80.9161097167
 20
211.1236942436
 30
0.0
 11
80.9166192133
 21
211.125901116
 31
0.0
  0
ARC
  5
47
330
35
100
AcDbEntity
  8
MEGA_002204
  6
CONTINUOUS
 62
     7
 48
25.4
100
AcDbCircle
 10
82.3781743105
 20
210.7884745345
 30
0.0
 40
1.5
100
AcDbArc
 50
97.4250898567
 51
167.0
  0
ARC
  5
48
330
35
100
AcDbEntity
  8
MEGA_002204
  6
CONTINUOUS
 62
     7
 48
25.4
100
AcDbCircle
 10
133.6824198455
 20
210.7884745345
 30
0.0
 40
1.5
100
AcDbArc
 50
13.0
 51
82.5749101433
  0
LINE
  5
49
330
35
100
AcDbEntity
  8
MEGA_002204
  6
CONTINUOUS
 62
     7
 48
25.4
100
AcDbLine
 10
135.1444844393
 20
211.1236942436
 30
0.0
 11
137.9918521752
 21
198.7903895904
 31
0.0
  0
LINE
  5
4A
330
35
100
AcDbEntity
  8
MEGA_002204
  6
CONTINUOUS
 62
     7
 48
25.4
100
AcDbLine
 10
78.0687419808
 20
198.7903895904
 30
0.0
 11
80.9161097167
 21
211.1236942436
 31
0.0
  0
ARC
  5
4B
330
35
100
AcDbEntity
  8
MEGA_002204
  6
CONTINUOUS
 62
     7
 48
25.4
100
AcDbCircle
 10
108.030297078
 20
13.9529630089
 30
0.0
 40
200.0
100
AcDbArc
 50
82.5749101433
 51
97.4250898567
  0
ARC
  5
4C
330
35
100
AcDbEntity
  8
MEGA_002204
  6
CONTINUOUS
 62
     7
 48
25.4
100
AcDbCircle
 10
136.530297078
 20
198.4529630089
 30
0.0
 40
1.5
100
AcDbArc
 50
261.1138511253
 51
13.0
  0
LINE
  5
4D
330
35
100
AcDbEntity
  8
MEGA_002204
  6
CONTINUOUS
 62
     7
 48
25.4
100
AcDbLine
 10
120.2905398616
 20
198.7563179891
 30
0.0
 11
120.3376567501
 21
198.7531542444
 31
0.0
  0
LINE
  5
4E
330
35
100
AcDbEntity
  8
MEGA_002204
  6
CONTINUOUS
 62
     7
 48
25.4
100
AcDbLine
 10
100.530297078
 20
167.7029630089
 30
0.0
 11
115.530297078
 21
167.7029630089
 31
0.0
  0
LINE
  5
4F
330
35
100
AcDbEntity
  8
MEGA_002204
  6
CONTINUOUS
 62
     7
 48
25.4
100
AcDbLine
 10
100.530297078
 20
169.0029630089
 30
0.0
 11
115.530297078
 21
169.0029630089
 31
0.0
  0
LINE
  5
50
330
35
100
AcDbEntity
  8
MEGA_002204
  6
CONTINUOUS
 62
     7
 48
25.4
100
AcDbLine
 10
100.530297078
 20
170.2029630089
 30
0.0
 11
115.530297078
 21
170.2029630089
 31
0.0
  0
LINE
  5
51
330
35
100
AcDbEntity
  8
MEGA_002204
  6
CONTINUOUS
 62
     7
 48
25.4
100
AcDbLine
 10
115.530297078
 20
167.7029630089
 30
0.0
 11
115.530297078
 21
169.0029630089
 31
0.0
  0
LINE
  5
52
330
35
100
AcDbEntity
  8
MEGA_002204
  6
CONTINUOUS
 62
     7
 48
25.4
100
AcDbLine
 10
115.530297078
 20
170.2029630089
 30
0.0
 11
115.530297078
 21
175.2029630089
 31
0.0
  0
LINE
  5
53
330
35
100
AcDbEntity
  8
MEGA_002204
  6
CONTINUOUS
 62
     7
 48
25.4
100
AcDbLine
 10
114.930297078
 20
169.0029630089
 30
0.0
 11
114.930297078
 21
170.2029630089
 31
0.0
  0
LINE
  5
54
330
35
100
AcDbEntity
  8
MEGA_002204
  6
CONTINUOUS
 62
     7
 48
25.4
100
AcDbLine
 10
100.530297078
 20
169.0029630089
 30
0.0
 11
100.530297078
 21
167.7029630089
 31
0.0
  0
LINE
  5
55
330
35
100
AcDbEntity
  8
MEGA_002204
  6
CONTINUOUS
 62
     7
 48
25.4
100
AcDbLine
 10
100.530297078
 20
175.2029630089
 30
0.0
 11
100.530297078
 21
170.2029630089
 31
0.0
  0
LINE
  5
56
330
35
100
AcDbEntity
  8
MEGA_002204
  6
CONTINUOUS
 62
     7
 48
25.4
100
AcDbLine
 10
101.130297078
 20
170.2029630089
 30
0.0
 11
101.130297078
 21
169.0029630089
 31
0.0
  0
ENDBLK
  5
58
330
35
100
AcDbEntity
  8
0
100
AcDbBlockEnd
  0
BLOCK
  5
63
330
59
100
AcDbEntity
  8
0
100
AcDbBlockBegin
  2
SE2
 70
     0
 71
     0
 10
0.0
 20
0.0
 30
0.0
  3
SE2
  1

  0
POLYLINE
  5
5B
330
59
100
AcDbEntity
  8
DEFAULT
  6
CONTINUOUS
 62
     7
 48
25.4
100
AcDb2dPolyline
 66
     1
 10
0.0
 20
0.0
 30
0.0
 70
     1
  0
VERTEX
  5
85
330
5B
100
AcDbEntity
  8
DEFAULT
  6
CONTINUOUS
 62
     7
100
AcDbVertex
100
AcDb2dVertex
 10
114.5302971041
 20
154.8443245466
 30
0.0
  0
VERTEX
  5
86
330
5B
100
AcDbEntity
  8
DEFAULT
  6
CONTINUOUS
 62
     7
100
AcDbVertex
100
AcDb2dVertex
 10
111.530297078
 20
155.344324551
 30
0.0
  0
VERTEX
  5
87
330
5B
100
AcDbEntity
  8
DEFAULT
  6
CONTINUOUS
 62
     7
100
AcDbVertex
100
AcDb2dVertex
 10
114.5302971041
 20
155.8443245553
 30
0.0
  0
VERTEX
  5
88
330
5B
100
AcDbEntity
  8
DEFAULT
  6
CONTINUOUS
 62
     7
100
AcDbVertex
100
AcDb2dVertex
 10
114.5302971041
 20
154.8443245466
 30
0.0
  0
SEQEND
  5
84
330
5B
100
AcDbEntity
  8
DEFAULT
  6
CONTINUOUS
 62
     7
 48
25.4
  0
LINE
  5
5C
330
59
100
AcDbEntity
  8
DEFAULT
  6
CONTINUOUS
 62
     7
 48
25.4
100
AcDbLine
 10
104.530297078
 20
167.7029630089
 30
0.0
 11
104.530297078
 21
153.8443245379
 31
0.0
  0
LINE
  5
5D
330
59
100
AcDbEntity
  8
DEFAULT
  6
CONTINUOUS
 62
     7
 48
25.4
100
AcDbLine
 10
111.530297078
 20
167.7029630089
 30
0.0
 11
111.530297078
 21
153.8443245379
 31
0.0
  0
LINE
  5
5E
330
59
100
AcDbEntity
  8
DEFAULT
  6
CONTINUOUS
 62
     7
 48
25.4
100
AcDbLine
 10
98.5302970259
 20
155.344324551
 30
0.0
 11
117.5302973462
 21
155.344324551
 31
0.0
  0
TEXT
  5
60
330
59
100
AcDbEntity
  8
DEFAULT
  6
CONTINUOUS
 62
     7
 48
25.4
100
AcDbText
 10
108.9288085001
 20
156.094324551
 30
0.0
 40
3.0
  1
7
  7
SEACAD_SEISO_TTF
 11
108.9288085001
 21
159.094324551
 31
0.0
100
AcDbText
 73
     3
  0
TEXT
  5
62
330
59
100
AcDbEntity
  8
DEFAULT
  6
CONTINUOUS
 62
     7
 48
25.4
100
AcDbText
 10
105.2226949629
 20
156.094324551
 30
0.0
 40
3.0
  1
q
  7
SEACAD_SEMECI1_TTF
 11
105.2226949629
 21
159.094324551
 31
0.0
100
AcDbText
 73
     3
  0
ENDBLK
  5
64
330
59
100
AcDbEntity
  8
0
100
AcDbBlockEnd
  0
BLOCK
  5
6E
330
65
100
AcDbEntity
  8
0
100
AcDbBlockBegin
  2
SE3
 70
     0
 71
     0
 10
0.0
 20
0.0
 30
0.0
  3
SE3
  1

  0
POLYLINE
  5
67
330
65
100
AcDbEntity
  8
DEFAULT
  6
CONTINUOUS
 62
     7
 48
25.4
100
AcDb2dPolyline
 66
     1
 10
0.0
 20
0.0
 30
0.0
 70
     1
  0
VERTEX
  5
8A
330
67
100
AcDbEntity
  8
DEFAULT
  6
CONTINUOUS
 62
     7
100
AcDbVertex
100
AcDb2dVertex
 10
103.5302971041
 20
145.0707977961
 30
0.0
  0
VERTEX
  5
8B
330
67
100
AcDbEntity
  8
DEFAULT
  6
CONTINUOUS
 62
     7
100
AcDbVertex
100
AcDb2dVertex
 10
100.530297078
 20
145.5707978005
 30
0.0
  0
VERTEX
  5
8C
330
67
100
AcDbEntity
  8
DEFAULT
  6
CONTINUOUS
 62
     7
100
AcDbVertex
100
AcDb2dVertex
 10
103.5302971041
 20
146.0707978048
 30
0.0
  0
VERTEX
  5
8D
330
67
100
AcDbEntity
  8
DEFAULT
  6
CONTINUOUS
 62
     7
100
AcDbVertex
100
AcDb2dVertex
 10
103.5302971041
 20
145.0707977961
 30
0.0
  0
SEQEND
  5
89
330
67
100
AcDbEntity
  8
DEFAULT
  6
CONTINUOUS
 62
     7
 48
25.4
  0
POLYLINE
  5
68
330
65
100
AcDbEntity
  8
DEFAULT
  6
CONTINUOUS
 62
     7
 48
25.4
100
AcDb2dPolyline
 66
     1
 10
0.0
 20
0.0
 30
0.0
 70
     1
  0
VERTEX
  5
8F
330
68
100
AcDbEntity
  8
DEFAULT
  6
CONTINUOUS
 62
     7
100
AcDbVertex
100
AcDb2dVertex
 10
112.5302970519
 20
145.0707977961
 30
0.0
  0
VERTEX
  5
90
330
68
100
AcDbEntity
  8
DEFAULT
  6
CONTINUOUS
 62
     7
100
AcDbVertex
100
AcDb2dVertex
 10
115.530297078
 20
145.5707978005
 30
0.0
  0
VERTEX
  5
91
330
68
100
AcDbEntity
  8
DEFAULT
  6
CONTINUOUS
 62
     7
100
AcDbVertex
100
AcDb2dVertex
 10
112.5302970519
 20
146.0707978048
 30
0.0
  0
VERTEX
  5
92
330
68
100
AcDbEntity
  8
DEFAULT
  6
CONTINUOUS
 62
     7
100
AcDbVertex
100
AcDb2dVertex
 10
112.5302970519
 20
145.0707977961
 30
0.0
  0
SEQEND
  5
8E
330
68
100
AcDbEntity
  8
DEFAULT
  6
CONTINUOUS
 62
     7
 48
25.4
  0
LINE
  5
69
330
65
100
AcDbEntity
  8
DEFAULT
  6
CONTINUOUS
 62
     7
 48
25.4
100
AcDbLine
 10
100.530297078
 20
170.2029630089
 30
0.0
 11
100.530297078
 21
144.0707977874
 31
0.0
  0
LINE
  5
6A
330
65
100
AcDbEntity
  8
DEFAULT
  6
CONTINUOUS
 62
     7
 48
25.4
100
AcDbLine
 10
115.530297078
 20
170.2029630089
 30
0.0
 11
115.530297078
 21
144.0707977874
 31
0.0
  0
LINE
  5
6B
330
65
100
AcDbEntity
  8
DEFAULT
  6
CONTINUOUS
 62
     7
 48
25.4
100
AcDbLine
 10
100.530297078
 20
145.5707978005
 30
0.0
 11
115.5302967427
 21
145.5707978005
 31
0.0
  0
TEXT
  5
6C
330
65
100
AcDbEntity
  8
DEFAULT
  6
CONTINUOUS
 62
     7
 48
25.4
100
AcDbText
 10
108.3846934963
 20
146.3207978005
 30
0.0
 40
3.0
  1
15
  7
SEACAD_SEISO_TTF
 11
108.3846934963
 21
149.3207978005
 31
0.0
100
AcDbText
 73
     3
  0
TEXT
  5
6D
330
65
100
AcDbEntity
  8
DEFAULT
  6
CONTINUOUS
 62
     7
 48
25.4
100
AcDbText
 10
104.7440821426
 20
146.3207978005
 30
0.0
 40
3.0
  1
O
  7
SEACAD_SEMECI1_TTF
 11
104.7440821426
 21
149.3207978005
 31
0.0
100
AcDbText
 73
     3
  0
ENDBLK
  5
6F
330
65
100
AcDbEntity
  8
0
100
AcDbBlockEnd
  0
BLOCK
  5
78
330
70
100
AcDbEntity
  8
0
100
AcDbBlockBegin
  2
SE4
 70
     0
 71
     0
 10
0.0
 20
0.0
 30
0.0
  3
SE4
  1

  0
POLYLINE
  5
72
330
70
100
AcDbEntity
  8
DEFAULT
  6
CONTINUOUS
 62
     7
 48
25.4
100
AcDb2dPolyline
 66
     1
 10
0.0
 20
0.0
 30
0.0
 70
     1
  0
VERTEX
  5
94
330
72
100
AcDbEntity
  8
DEFAULT
  6
CONTINUOUS
 62
     7
100
AcDbVertex
100
AcDb2dVertex
 10
61.4253443807
 20
210.9529629828
 30
0.0
  0
VERTEX
  5
95
330
72
100
AcDbEntity
  8
DEFAULT
  6
CONTINUOUS
 62
     7
100
AcDbVertex
100
AcDb2dVertex
 10
61.925344385
 20
213.9529630089
 30
0.0
  0
VERTEX
  5
96
330
72
100
AcDbEntity
  8
DEFAULT
  6
CONTINUOUS
 62
     7
100
AcDbVertex
100
AcDb2dVertex
 10
62.4253443894
 20
210.9529629828
 30
0.0
  0
VERTEX
  5
97
330
72
100
AcDbEntity
  8
DEFAULT
  6
CONTINUOUS
 62
     7
100
AcDbVertex
100
AcDb2dVertex
 10
61.4253443807
 20
210.9529629828
 30
0.0
  0
SEQEND
  5
93
330
72
100
AcDbEntity
  8
DEFAULT
  6
CONTINUOUS
 62
     7
 48
25.4
  0
POLYLINE
  5
73
330
70
100
AcDbEntity
  8
DEFAULT
  6
CONTINUOUS
 62
     7
 48
25.4
100
AcDb2dPolyline
 66
     1
 10
0.0
 20
0.0
 30
0.0
 70
     1
  0
VERTEX
  5
99
330
73
100
AcDbEntity
  8
DEFAULT
  6
CONTINUOUS
 62
     7
100
AcDbVertex
100
AcDb2dVertex
 10
61.4253443807
 20
178.202963035
 30
0.0
  0
VERTEX
  5
9A
330
73
100
AcDbEntity
  8
DEFAULT
  6
CONTINUOUS
 62
     7
100
AcDbVertex
100
AcDb2dVertex
 10
61.925344385
 20
175.2029630089
 30
0.0
  0
VERTEX
  5
9B
330
73
100
AcDbEntity
  8
DEFAULT
  6
CONTINUOUS
 62
     7
100
AcDbVertex
100
AcDb2dVertex
 10
62.4253443894
 20
178.202963035
 30
0.0
  0
VERTEX
  5
9C
330
73
100
AcDbEntity
  8
DEFAULT
  6
CONTINUOUS
 62
     7
100
AcDbVertex
100
AcDb2dVertex
 10
61.4253443807
 20
178.202963035
 30
0.0
  0
SEQEND
  5
98
330
73
100
AcDbEntity
  8
DEFAULT
  6
CONTINUOUS
 62
     7
 48
25.4
  0
LINE
  5
74
330
70
100
AcDbEntity
  8
DEFAULT
  6
CONTINUOUS
 62
     7
 48
25.4
100
AcDbLine
 10
108.030297078
 20
213.9529630089
 30
0.0
 11
60.425344372
 21
213.9529630089
 31
0.0
  0
LINE
  5
75
330
70
100
AcDbEntity
  8
DEFAULT
  6
CONTINUOUS
 62
     7
 48
25.4
100
AcDbLine
 10
98.0302970577
 20
175.2029630089
 30
0.0
 11
60.425344372
 21
175.2029630089
 31
0.0
  0
LINE
  5
76
330
70
100
AcDbEntity
  8
DEFAULT
  6
CONTINUOUS
 62
     7
 48
25.4
100
AcDbLine
 10
61.925344385
 20
213.9529630089
 30
0.0
 11
61.925344385
 21
175.2029627109
 31
0.0
  0
TEXT
  5
77
330
70
100
AcDbEntity
  8
DEFAULT
  6
CONTINUOUS
 62
     7
 48
25.4
100
AcDbText
 10
61.175344385
 20
192.8734174054
 30
0.0
 40
3.0
  1
39
 50
90.0
  7
SEACAD_SEISO_TTF
 11
58.175344385
 21
192.8734174054
 31
0.0
100
AcDbText
 73
     3
  0
ENDBLK
  5
79
330
70
100
AcDbEntity
  8
0
100
AcDbBlockEnd
  0
BLOCK
  5
82
330
7A
100
AcDbEntity
  8
0
100
AcDbBlockBegin
  2
SE5
 70
     0
 71
     0
 10
0.0
 20
0.0
 30
0.0
  3
SE5
  1

  0
POLYLINE
  5
7C
330
7A
100
AcDbEntity
  8
DEFAULT
  6
CONTINUOUS
 62
     7
 48
25.4
100
AcDb2dPolyline
 66
     1
 10
0.0
 20
0.0
 30
0.0
 70
     1
  0
VERTEX
  5
9E
330
7C
100
AcDbEntity
  8
DEFAULT
  6
CONTINUOUS
 62
     7
100
AcDbVertex
100
AcDb2dVertex
 10
81.0302971041
 20
230.6335283407
 30
0.0
  0
VERTEX
  5
9F
330
7C
100
AcDbEntity
  8
DEFAULT
  6
CONTINUOUS
 62
     7
100
AcDbVertex
100
AcDb2dVertex
 10
78.030297078
 20
230.1335283363
 30
0.0
  0
VERTEX
  5
A0
330
7C
100
AcDbEntity
  8
DEFAULT
  6
CONTINUOUS
 62
     7
100
AcDbVertex
100
AcDb2dVertex
 10
81.0302971041
 20
229.633528332
 30
0.0
  0
VERTEX
  5
A1
330
7C
100
AcDbEntity
  8
DEFAULT
  6
CONTINUOUS
 62
     7
100
AcDbVertex
100
AcDb2dVertex
 10
81.0302971041
 20
230.6335283407
 30
0.0
  0
SEQEND
  5
9D
330
7C
100
AcDbEntity
  8
DEFAULT
  6
CONTINUOUS
 62
     7
 48
25.4
  0
POLYLINE
  5
7D
330
7A
100
AcDbEntity
  8
DEFAULT
  6
CONTINUOUS
 62
     7
 48
25.4
100
AcDb2dPolyline
 66
     1
 10
0.0
 20
0.0
 30
0.0
 70
     1
  0
VERTEX
  5
A3
330
7D
100
AcDbEntity
  8
DEFAULT
  6
CONTINUOUS
 62
     7
100
AcDbVertex
100
AcDb2dVertex
 10
135.0302970519
 20
230.6335283407
 30
0.0
  0
VERTEX
  5
A4
330
7D
100
AcDbEntity
  8
DEFAULT
  6
CONTINUOUS
 62
     7
100
AcDbVertex
100
AcDb2dVertex
 10
138.030297078
 20
230.1335283363
 30
0.0
  0
VERTEX
  5
A5
330
7D
100
AcDbEntity
  8
DEFAULT
  6
CONTINUOUS
 62
     7
100
AcDbVertex
100
AcDb2dVertex
 10
135.0302970519
 20
229.633528332
 30
0.0
  0
VERTEX
  5
A6
330
7D
100
AcDbEntity
  8
DEFAULT
  6
CONTINUOUS
 62
     7
100
AcDbVertex
100
AcDb2dVertex
 10
135.0302970519
 20
230.6335283407
 30
0.0
  0
SEQEND
  5
A2
330
7D
100
AcDbEntity
  8
DEFAULT
  6
CONTINUOUS
 62
     7
 48
25.4
  0
LINE
  5
7E
330
7A
100
AcDbEntity
  8
DEFAULT
  6
CONTINUOUS
 62
     7
 48
25.4
100
AcDbLine
 10
78.030297078
 20
198.4529630089
 30
0.0
 11
78.030297078
 21
231.6335283494
 31
0.0
  0
LINE
  5
7F
330
7A
100
AcDbEntity
  8
DEFAULT
  6
CONTINUOUS
 62
     7
 48
25.4
100
AcDbLine
 10
138.030297078
 20
198.4529630089
 30
0.0
 11
138.030297078
 21
231.6335283494
 31
0.0
  0
LINE
  5
80
330
7A
100
AcDbEntity
  8
DEFAULT
  6
CONTINUOUS
 62
     7
 48
25.4
100
AcDbLine
 10
78.030297078
 20
230.1335283363
 30
0.0
 11
138.0302957369
 21
230.1335283363
 31
0.0
  0
TEXT
  5
81
330
7A
100
AcDbEntity
  8
DEFAULT
  6
CONTINUOUS
 62
     7
 48
25.4
100
AcDbText
 10
106.2234782256
 20
230.8835283363
 30
0.0
 40
3.0
  1
60
  7
SEACAD_SEISO_TTF
 11
106.2234782256
 21
233.8835283363
 31
0.0
100
AcDbText
 73
     3
  0
ENDBLK
  5
83
330
7A
100
AcDbEntity
  8
0
100
AcDbBlockEnd
  0
ENDSEC
  0
SECTION
  2
ENTITIES
  0
INSERT
  5
2F
330
1F
100
AcDbEntity
  8
0
100
AcDbBlockReference
  2
SE
 10
0.0
 20
0.0
 30
0.0
  0
INSERT
  5
36
330
1F
100
AcDbEntity
  8
0
100
AcDbBlockReference
  2
SE1
 10
0.0
 20
0.0
 30
0.0
  0
INSERT
  5
5A
330
1F
100
AcDbEntity
  8
0
100
AcDbBlockReference
  2
SE2
 10
0.0
 20
0.0
 30
0.0
  0
INSERT
  5
66
330
1F
100
AcDbEntity
  8
0
100
AcDbBlockReference
  2
SE3
 10
0.0
 20
0.0
 30
0.0
  0
INSERT
  5
71
330
1F
100
AcDbEntity
  8
0
100
AcDbBlockReference
  2
SE4
 10
0.0
 20
0.0
 30
0.0
  0
INSERT
  5
7B
330
1F
100
AcDbEntity
  8
0
100
AcDbBlockReference
  2
SE5
 10
0.0
 20
0.0
 30
0.0
  0
ENDSEC
  0
SECTION
  2
OBJECTS
  0
DICTIONARY
  5
C
330
0
100
AcDbDictionary
  3
ACAD_GROUP
350
D
  3
ACAD_LAYOUT
350
1A
  3
ACAD_MLINESTYLE
350
17
  3
ACAD_PLOTSETTINGS
350
19
  3
ACAD_TABLESTYLE
350
2A
  3
ACDBVARIABLEDICTIONARY
350
2C
1001
ACAD
1000
TREAT_AS_HARD
1070
     0
  0
DICTIONARY
  5
A7
330
29
100
AcDbDictionary
  3
ACAD_XREC_ROUNDTRIP
360
A8
  0
DICTIONARY
  5
D
102
{ACAD_REACTORS
330
C
102
}
330
C
100
AcDbDictionary
1001
ACAD
1000
TREAT_AS_HARD
1070
     0
  0
DICTIONARY
  5
1A
102
{ACAD_REACTORS
330
C
102
}
330
C
100
AcDbDictionary
1001
ACAD
1000
TREAT_AS_HARD
1070
     0
  0
DICTIONARY
  5
17
102
{ACAD_REACTORS
330
C
102
}
330
C
100
AcDbDictionary
  3
STANDARD
350
18
1001
ACAD
1000
TREAT_AS_HARD
1070
     0
  0
DICTIONARY
  5
19
102
{ACAD_REACTORS
330
C
102
}
330
C
100
AcDbDictionary
1001
ACAD
1000
TREAT_AS_HARD
1070
     0
  0
DICTIONARY
  5
2A
102
{ACAD_REACTORS
330
C
102
}
330
C
100
AcDbDictionary
  3
STANDARD
350
2B
1001
ACAD
1000
TREAT_AS_HARD
1070
     0
  0
DICTIONARY
  5
2C
102
{ACAD_REACTORS
330
C
102
}
330
C
100
AcDbDictionary
  3
CTABLESTYLE
350
2D
1001
ACAD
1000
TREAT_AS_HARD
1070
     0
  0
XRECORD
  5
A8
102
{ACAD_REACTORS
330
A7
102
}
330
A7
100
AcDbXrecord
102
UCS
 74
     0
 71
     1
 10
0.0
 20
0.0
 30
0.0
 10
1.0
 20
0.0
 30
0.0
 10
0.0
 20
1.0
 30
0.0
146
0.0
 79
     0
102
VIEW
281
     0
  0
MLINESTYLE
  5
18
102
{ACAD_REACTORS
330
17
102
}
330
17
100
AcDbMlineStyle
  2
Standard
 70
     0
  3

 62
   256
 51
90.0
 52
90.0
 71
     2
 49
0.5
 62
   256
  6
BYLAYER
 49
-0.5
 62
   256
  6
BYLAYER
  0
TABLESTYLE
  5
2B
102
{ACAD_REACTORS
330
2A
102
}
330
2A
100
AcDbTableStyle
  3
Standard
 70
     0
 71
     0
 40
0.06
 41
0.06
280
     0
281
     0
  7
STANDARD
140
0.18
170
     2
 62
     0
 63
     7
283
     0
274
    -2
284
     1
 64
     0
275
    -2
285
     1
 65
     0
276
    -2
286
     1
 66
     0
277
    -2
287
     1
 67
     0
278
    -2
288
     1
 68
     0
279
    -2
289
     1
 69
     0
  7
STANDARD
140
0.25
170
     5
 62
     0
 63
     7
283
     0
274
    -2
284
     1
 64
     0
275
    -2
285
     1
 65
     0
276
    -2
286
     1
 66
     0
277
    -2
287
     1
 67
     0
278
    -2
288
     1
 68
     0
279
    -2
289
     1
 69
     0
  7
STANDARD
140
0.18
170
     5
 62
     0
 63
     7
283
     0
274
    -2
284
     1
 64
     0
275
    -2
285
     1
 65
     0
276
    -2
286
     1
 66
     0
277
    -2
287
     1
 67
     0
278
    -2
288
     1
 68
     0
279
    -2
289
     1
 69
     0
  0
DICTIONARYVAR
  5
2D
102
{ACAD_REACTORS
330
2C
102
}
330
2C
100
DictionaryVariables
280
     0
  1
Standard
  0
ENDSEC
  0
EOF
