  0
SECTION
  2
HEADER
  9
$ACADVER
  1
AC1009
  9
$INSBASE
 10
0.0
 20
0.0
 30
0.0
  9
$EXTMIN
 10
-33.75
 20
-8.2523330563820831
 30
-0.1
  9
$EXTMAX
 10
7.5
 20
8.2500000000000036
 30
10.8000000000000007
  9
$LIMMIN
 10
0.0
 20
0.0
  9
$LIMMAX
 10
12.0
 20
9.0
  9
$ORTHOMODE
 70
     0
  9
$REGENMODE
 70
     1
  9
$FILLMODE
 70
     1
  9
$QTEXTMODE
 70
     0
  9
$MIRRTEXT
 70
     0
  9
$DRAGMODE
 70
     2
  9
$LTSCALE
 40
1.0
  9
$OSMODE
 70
    37
  9
$ATTMODE
 70
     1
  9
$TEXTSIZE
 40
0.2
  9
$TRACEWID
 40
0.05
  9
$TEXTSTYLE
  7
STANDARD
  9
$CLAYER
  8
0
  9
$CELTYPE
  6
BYLAYER
  9
$CECOLOR
 62
   256
  9
$DIMSCALE
 40
1.0
  9
$DIMASZ
 40
1.7999999999999989
  9
$DIMEXO
 40
0.0625
  9
$DIMDLI
 40
0.38
  9
$DIMRND
 40
0.0
  9
$DIMDLE
 40
0.0
  9
$DIMEXE
 40
0.18
  9
$DIMTP
 40
0.0
  9
$DIMTM
 40
0.0
  9
$DIMTXT
 40
1.7999999999999989
  9
$DIMCEN
 40
0.09
  9
$DIMTSZ
 40
0.0
  9
$DIMTOL
 70
     0
  9
$DIMLIM
 70
     0
  9
$DIMTIH
 70
     1
  9
$DIMTOH
 70
     1
  9
$DIMSE1
 70
     0
  9
$DIMSE2
 70
     0
  9
$DIMTAD
 70
     0
  9
$DIMZIN
 70
     0
  9
$DIMBLK
  1

  9
$DIMASO
 70
     1
  9
$DIMSHO
 70
     1
  9
$DIMPOST
  1

  9
$DIMAPOST
  1

  9
$DIMALT
 70
     0
  9
$DIMALTD
 70
     2
  9
$DIMALTF
 40
25.3999999999999986
  9
$DIMLFAC
 40
1.0
  9
$DIMTOFL
 70
     0
  9
$DIMTVP
 40
0.0
  9
$DIMTIX
 70
     0
  9
$DIMSOXD
 70
     0
  9
$DIMSAH
 70
     0
  9
$DIMBLK1
  1

  9
$DIMBLK2
  1

  9
$DIMSTYLE
  2
STANDARD
  9
$DIMCLRD
 70
     0
  9
$DIMCLRE
 70
     0
  9
$DIMCLRT
 70
     0
  9
$DIMTFAC
 40
1.0
  9
$DIMGAP
 40
0.09
  9
$LUNITS
 70
     2
  9
$LUPREC
 70
     4
  9
$SKETCHINC
 40
0.1
  9
$FILLETRAD
 40
0.0
  9
$AUNITS
 70
     0
  9
$AUPREC
 70
     0
  9
$MENU
  1
.
  9
$ELEVATION
 40
0.0
  9
$PELEVATION
 40
0.0
  9
$THICKNESS
 40
0.0
  9
$LIMCHECK
 70
     0
  9
$BLIPMODE
 70
     0
  9
$CHAMFERA
 40
0.0
  9
$CHAMFERB
 40
0.0
  9
$SKPOLY
 70
     0
  9
$TDCREATE
 40
2457780.4949305560439825
  9
$TDUPDATE
 40
2457780.4968518521636724
  9
$TDINDWG
 40
0.0011458333
  9
$TDUSRTIMER
 40
0.0011458333
  9
$USRTIMER
 70
     1
  9
$ANGBASE
 50
0.0
  9
$ANGDIR
 70
     0
  9
$PDMODE
 70
     0
  9
$PDSIZE
 40
0.0
  9
$PLINEWID
 40
0.0
  9
$COORDS
 70
     1
  9
$SPLFRAME
 70
     0
  9
$SPLINETYPE
 70
     6
  9
$SPLINESEGS
 70
     8
  9
$ATTDIA
 70
     1
  9
$ATTREQ
 70
     1
  9
$HANDLING
 70
     1
  9
$HANDSEED
  5
1BB
  9
$SURFTAB1
 70
     6
  9
$SURFTAB2
 70
     6
  9
$SURFTYPE
 70
     6
  9
$SURFU
 70
     6
  9
$SURFV
 70
     6
  9
$UCSNAME
  2

  9
$UCSORG
 10
0.0
 20
0.0
 30
0.0
  9
$UCSXDIR
 10
1.0
 20
0.0
 30
0.0
  9
$UCSYDIR
 10
0.0
 20
1.0
 30
0.0
  9
$PUCSNAME
  2

  9
$PUCSORG
 10
0.0
 20
0.0
 30
0.0
  9
$PUCSXDIR
 10
1.0
 20
0.0
 30
0.0
  9
$PUCSYDIR
 10
0.0
 20
1.0
 30
0.0
  9
$USERI1
 70
     0
  9
$USERI2
 70
     0
  9
$USERI3
 70
     0
  9
$USERI4
 70
     0
  9
$USERI5
 70
     0
  9
$USERR1
 40
0.0
  9
$USERR2
 40
0.0
  9
$USERR3
 40
0.0
  9
$USERR4
 40
0.0
  9
$USERR5
 40
0.0
  9
$WORLDVIEW
 70
     1
  9
$SHADEDGE
 70
     3
  9
$SHADEDIF
 70
    70
  9
$TILEMODE
 70
     1
  9
$MAXACTVP
 70
    64
  9
$PLIMCHECK
 70
     0
  9
$PEXTMIN
 10
1.0000000000000000E+20
 20
1.0000000000000000E+20
 30
1.0000000000000000E+20
  9
$PEXTMAX
 10
-1.0000000000000000E+20
 20
-1.0000000000000000E+20
 30
-1.0000000000000000E+20
  9
$PLIMMIN
 10
0.0
 20
0.0
  9
$PLIMMAX
 10
12.0
 20
9.0
  9
$UNITMODE
 70
     0
  9
$VISRETAIN
 70
     1
  9
$PLINEGEN
 70
     0
  9
$PSLTSCALE
 70
     1
  0
ENDSEC
  0
SECTION
  2
TABLES
  0
TABLE
  2
VPORT
 70
     1
  0
VPORT
  2
*ACTIVE
 70
     0
 10
0.0
 20
0.0
 11
1.0
 21
1.0
 12
-13.7206874221391502
 22
2.4522052043667282
 13
0.0
 23
0.0
 14
1.0
 24
1.0
 15
0.0
 25
0.0
 16
0.0
 26
0.0
 36
1.0
 17
0.0
 27
0.0
 37
0.0
 40
21.1782477952034895
 41
2.127494456762749
 42
50.0
 43
0.0
 44
0.0
 50
0.0
 51
0.0
 71
     0
 72
   100
 73
     1
 74
     1
 75
     0
 76
     0
 77
     0
 78
     0
  0
ENDTAB
  0
TABLE
  2
LTYPE
 70
    46
  0
LTYPE
  2
CONTINUOUS
 70
     0
  3
Solid line
 72
    65
 73
     0
 40
0.0
  0
LTYPE
  2
BORDER
 70
     0
  3
Border __ __ . __ __ . __ __ . __ __ . __ __ .
 72
    65
 73
     6
 40
1.75
 49
0.5
 49
-0.25
 49
0.5
 49
-0.25
 49
0.0
 49
-0.25
  0
LTYPE
  2
BORDER2
 70
     0
  3
Border (.5x) __.__.__.__.__.__.__.__.__.__.__.
 72
    65
 73
     6
 40
0.875
 49
0.25
 49
-0.125
 49
0.25
 49
-0.125
 49
0.0
 49
-0.125
  0
LTYPE
  2
BORDERX2
 70
     0
  3
Border (2x) ____  ____  .  ____  ____  .  ___
 72
    65
 73
     6
 40
3.5
 49
1.0
 49
-0.5
 49
1.0
 49
-0.5
 49
0.0
 49
-0.5
  0
LTYPE
  2
CENTER
 70
     0
  3
Center ____ _ ____ _ ____ _ ____ _ ____ _ ____
 72
    65
 73
     4
 40
2.0
 49
1.25
 49
-0.25
 49
0.25
 49
-0.25
  0
LTYPE
  2
CENTER2
 70
     0
  3
Center (.5x) ___ _ ___ _ ___ _ ___ _ ___ _ ___
 72
    65
 73
     4
 40
1.125
 49
0.75
 49
-0.125
 49
0.125
 49
-0.125
  0
LTYPE
  2
CENTERX2
 70
     0
  3
Center (2x) ________  __  ________  __  _____
 72
    65
 73
     4
 40
4.0
 49
2.5
 49
-0.5
 49
0.5
 49
-0.5
  0
LTYPE
  2
DASHDOT
 70
     0
  3
Dash dot __ . __ . __ . __ . __ . __ . __ . __
 72
    65
 73
     4
 40
1.0
 49
0.5
 49
-0.25
 49
0.0
 49
-0.25
  0
LTYPE
  2
DASHDOT2
 70
     0
  3
Dash dot (.5x) _._._._._._._._._._._._._._._.
 72
    65
 73
     4
 40
0.5
 49
0.25
 49
-0.125
 49
0.0
 49
-0.125
  0
LTYPE
  2
DASHDOTX2
 70
     0
  3
Dash dot (2x) ____  .  ____  .  ____  .  ___
 72
    65
 73
     4
 40
2.0
 49
1.0
 49
-0.5
 49
0.0
 49
-0.5
  0
LTYPE
  2
DASHED
 70
     0
  3
Dashed __ __ __ __ __ __ __ __ __ __ __ __ __ _
 72
    65
 73
     2
 40
0.75
 49
0.5
 49
-0.25
  0
LTYPE
  2
DASHED2
 70
     0
  3
Dashed (.5x) _ _ _ _ _ _ _ _ _ _ _ _ _ _ _ _ _
 72
    65
 73
     2
 40
0.375
 49
0.25
 49
-0.125
  0
LTYPE
  2
DASHEDX2
 70
     0
  3
Dashed (2x) ____  ____  ____  ____  ____  ___
 72
    65
 73
     2
 40
1.5
 49
1.0
 49
-0.5
  0
LTYPE
  2
DIVIDE
 70
     0
  3
Divide ____ . . ____ . . ____ . . ____ . . ____
 72
    65
 73
     6
 40
1.25
 49
0.5
 49
-0.25
 49
0.0
 49
-0.25
 49
0.0
 49
-0.25
  0
LTYPE
  2
DIVIDE2
 70
     0
  3
Divide (.5x) __..__..__..__..__..__..__..__.._
 72
    65
 73
     6
 40
0.625
 49
0.25
 49
-0.125
 49
0.0
 49
-0.125
 49
0.0
 49
-0.125
  0
LTYPE
  2
DIVIDEX2
 70
     0
  3
Divide (2x) ________  .  .  ________  .  .  _
 72
    65
 73
     6
 40
2.5
 49
1.0
 49
-0.5
 49
0.0
 49
-0.5
 49
0.0
 49
-0.5
  0
LTYPE
  2
DOT
 70
     0
  3
Dot . . . . . . . . . . . . . . . . . . . . . .
 72
    65
 73
     2
 40
0.25
 49
0.0
 49
-0.25
  0
LTYPE
  2
DOT2
 70
     0
  3
Dot (.5x) .....................................
 72
    65
 73
     2
 40
0.125
 49
0.0
 49
-0.125
  0
LTYPE
  2
DOTX2
 70
     0
  3
Dot (2x) .  .  .  .  .  .  .  .  .  .  .  .  . 
 72
    65
 73
     2
 40
0.5
 49
0.0
 49
-0.5
  0
LTYPE
  2
HIDDEN
 70
     0
  3
Hidden __ __ __ __ __ __ __ __ __ __ __ __ __ _
 72
    65
 73
     2
 40
0.375
 49
0.25
 49
-0.125
  0
LTYPE
  2
HIDDEN2
 70
     0
  3
Hidden (.5x) _ _ _ _ _ _ _ _ _ _ _ _ _ _ _ _ _
 72
    65
 73
     2
 40
0.1875
 49
0.125
 49
-0.0625
  0
LTYPE
  2
HIDDENX2
 70
     0
  3
Hidden (2x) ____ ____ ____ ____ ____ ____ ____
 72
    65
 73
     2
 40
0.75
 49
0.5
 49
-0.25
  0
LTYPE
  2
PHANTOM
 70
     0
  3
Phantom ______  __  __  ______  __  __  ______
 72
    65
 73
     6
 40
2.5
 49
1.25
 49
-0.25
 49
0.25
 49
-0.25
 49
0.25
 49
-0.25
  0
LTYPE
  2
PHANTOM2
 70
     0
  3
Phantom (.5x) ___ _ _ ___ _ _ ___ _ _ ___ _ _
 72
    65
 73
     6
 40
1.25
 49
0.625
 49
-0.125
 49
0.125
 49
-0.125
 49
0.125
 49
-0.125
  0
LTYPE
  2
PHANTOMX2
 70
     0
  3
Phantom (2x) ____________    ____    ____   _
 72
    65
 73
     6
 40
5.0
 49
2.5
 49
-0.5
 49
0.5
 49
-0.5
 49
0.5
 49
-0.5
  0
LTYPE
  2
ACAD_ISO02W100
 70
     0
  3
ISO dash __ __ __ __ __ __ __ __ __ __ __ __ __
 72
    65
 73
     2
 40
15.0
 49
12.0
 49
-3.0
  0
LTYPE
  2
ACAD_ISO03W100
 70
     0
  3
ISO dash space __    __    __    __    __    __
 72
    65
 73
     2
 40
30.0
 49
12.0
 49
-18.0
  0
LTYPE
  2
ACAD_ISO04W100
 70
     0
  3
ISO long-dash dot ____ . ____ . ____ . ____ . _
 72
    65
 73
     4
 40
30.0
 49
24.0
 49
-3.0
 49
0.0
 49
-3.0
  0
LTYPE
  2
ACAD_ISO05W100
 70
     0
  3
ISO long-dash double-dot ____ .. ____ .. ____ .
 72
    65
 73
     6
 40
33.0
 49
24.0
 49
-3.0
 49
0.0
 49
-3.0
 49
0.0
 49
-3.0
  0
LTYPE
  2
ACAD_ISO06W100
 70
     0
  3
ISO long-dash triple-dot ____ ... ____ ... ____
 72
    65
 73
     8
 40
36.0
 49
24.0
 49
-3.0
 49
0.0
 49
-3.0
 49
0.0
 49
-3.0
 49
0.0
 49
-3.0
  0
LTYPE
  2
ACAD_ISO07W100
 70
     0
  3
ISO dot . . . . . . . . . . . . . . . . . . . .
 72
    65
 73
     2
 40
3.0
 49
0.0
 49
-3.0
  0
LTYPE
  2
ACAD_ISO08W100
 70
     0
  3
ISO long-dash short-dash ____ __ ____ __ ____ _
 72
    65
 73
     4
 40
36.0
 49
24.0
 49
-3.0
 49
6.0
 49
-3.0
  0
LTYPE
  2
ACAD_ISO09W100
 70
     0
  3
ISO long-dash double-short-dash ____ __ __ ____
 72
    65
 73
     6
 40
45.0
 49
24.0
 49
-3.0
 49
6.0
 49
-3.0
 49
6.0
 49
-3.0
  0
LTYPE
  2
ACAD_ISO10W100
 70
     0
  3
ISO dash dot __ . __ . __ . __ . __ . __ . __ .
 72
    65
 73
     4
 40
18.0
 49
12.0
 49
-3.0
 49
0.0
 49
-3.0
  0
LTYPE
  2
ACAD_ISO11W100
 70
     0
  3
ISO double-dash dot __ __ . __ __ . __ __ . __ 
 72
    65
 73
     6
 40
33.0
 49
12.0
 49
-3.0
 49
12.0
 49
-3.0
 49
0.0
 49
-3.0
  0
LTYPE
  2
ACAD_ISO12W100
 70
     0
  3
ISO dash double-dot __ . . __ . . __ . . __ . .
 72
    65
 73
     6
 40
21.0
 49
12.0
 49
-3.0
 49
0.0
 49
-3.0
 49
0.0
 49
-3.0
  0
LTYPE
  2
ACAD_ISO13W100
 70
     0
  3
ISO double-dash double-dot __ __ . . __ __ . . 
 72
    65
 73
     8
 40
36.0
 49
12.0
 49
-3.0
 49
12.0
 49
-3.0
 49
0.0
 49
-3.0
 49
0.0
 49
-3.0
  0
LTYPE
  2
ACAD_ISO14W100
 70
     0
  3
ISO dash triple-dot __ . . . __ . . . __ . . . 
 72
    65
 73
     8
 40
24.0
 49
12.0
 49
-3.0
 49
0.0
 49
-3.0
 49
0.0
 49
-3.0
 49
0.0
 49
-3.0
  0
LTYPE
  2
ACAD_ISO15W100
 70
     0
  3
ISO double-dash triple-dot __ __ . . . __ __ . 
 72
    65
 73
    10
 40
39.0
 49
12.0
 49
-3.0
 49
12.0
 49
-3.0
 49
0.0
 49
-3.0
 49
0.0
 49
-3.0
 49
0.0
 49
-3.0
  0
LTYPE
  2
FENCELINE1
 70
     0
  3
Fenceline circle ----0-----0----0-----0----0---
 72
    65
 73
     4
 40
1.45
 49
0.25
 49
-0.1
 49
-0.1
 49
1.0
  0
LTYPE
  2
FENCELINE2
 70
     0
  3
Fenceline square ----[]-----[]----[]-----[]----
 72
    65
 73
     4
 40
1.45
 49
0.25
 49
-0.1
 49
-0.1
 49
1.0
  0
LTYPE
  2
TRACKS
 70
     0
  3
Tracks -|-|-|-|-|-|-|-|-|-|-|-|-|-|-|-|-|-|-|-|
 72
    65
 73
     2
 40
0.3
 49
0.15
 49
0.15
  0
LTYPE
  2
BATTING
 70
     0
  3
Batting SSSSSSSSSSSSSSSSSSSSSSSSSSSSSSSSSSSSSSS
 72
    65
 73
     4
 40
0.4001000000000001
 49
0.0001
 49
-0.1
 49
-0.2
 49
-0.1
  0
LTYPE
  2
HOT_WATER_SUPPLY
 70
     0
  3
Hot water supply ---- HW ---- HW ---- HW ----
 72
    65
 73
     3
 40
0.9
 49
0.5
 49
-0.2
 49
-0.2
  0
LTYPE
  2
GAS_LINE
 70
     0
  3
Gas line ----GAS----GAS----GAS----GAS----GAS---
 72
    65
 73
     3
 40
0.95
 49
0.5
 49
-0.2
 49
-0.25
  0
LTYPE
  2
ZIGZAG
 70
     0
  3
Zig zag /\/\/\/\/\/\/\/\/\/\/\/\/\/\/\/\/\/\/\/
 72
    65
 73
     4
 40
0.8001000000000001
 49
0.0001
 49
-0.2
 49
-0.4
 49
-0.2
  0
ENDTAB
  0
TABLE
  2
LAYER
 70
     1
  0
LAYER
  2
0
 70
     0
 62
     7
  6
CONTINUOUS
  0
ENDTAB
  0
TABLE
  2
STYLE
 70
     3
  0
STYLE
  2
STANDARD
 70
     0
 40
0.0
 41
1.0
 50
0.0
 71
     0
 42
0.2
  3
txt
  4

  0
STYLE
  2
ANNOTATIVE
 70
     0
 40
0.0
 41
1.0
 50
0.0
 71
     0
 42
0.2
  3
txt
  4

  0
STYLE
  2

 70
     1
 40
0.0
 41
1.0
 50
0.0
 71
     0
 42
0.2
  3
ltypeshp.shx
  4

  0
ENDTAB
  0
TABLE
  2
VIEW
 70
     0
  0
ENDTAB
  0
TABLE
  2
UCS
 70
     0
  0
ENDTAB
  0
TABLE
  2
APPID
 70
     7
  0
APPID
  2
ACAD
 70
     0
  0
APPID
  2
ACADANNOTATIVE
 70
     0
  0
APPID
  2
ACAD_MATERIAL_MAPPER
 70
     0
  0
APPID
  2
ACAD_MATERIAL_MAPPER_2
 70
     0
  0
APPID
  2
AMACAD
 70
     0
  0
APPID
  2
ACAD_NAV_VCDISPLAY
 70
     0
  0
APPID
  2
ACAD_MLEADERVER
 70
     0
  0
ENDTAB
  0
TABLE
  2
DIMSTYLE
 70
     2
  0
DIMSTYLE
  2
STANDARD
 70
     0
  3

  4

  5

  6

  7

 40
1.0
 41
0.18
 42
0.0625
 43
0.38
 44
0.18
 45
0.0
 46
0.0
 47
0.0
 48
0.0
140
0.18
141
0.09
142
0.0
143
25.3999999999999986
144
1.0
145
0.0
146
1.0
147
0.09
 71
     0
 72
     0
 73
     1
 74
     1
 75
     0
 76
     0
 77
     0
 78
     0
170
     0
171
     2
172
     0
173
     0
174
     0
175
     0
176
     0
177
     0
178
     0
  0
DIMSTYLE
  2
ANNOTATIVE
 70
     0
  3

  4

  5

  6

  7

 40
1.0
 41
0.18
 42
0.0625
 43
0.38
 44
0.18
 45
0.0
 46
0.0
 47
0.0
 48
0.0
140
0.18
141
0.09
142
0.0
143
25.3999999999999986
144
1.0
145
0.0
146
1.0
147
0.09
 71
     0
 72
     0
 73
     1
 74
     1
 75
     0
 76
     0
 77
     0
 78
     0
170
     0
171
     2
172
     0
173
     0
174
     0
175
     0
176
     0
177
     0
178
     0
  0
ENDTAB
  0
ENDSEC
  0
SECTION
  2
BLOCKS
  0
BLOCK
  8
0
  2
$MODEL_SPACE
 70
     0
 10
0.0
 20
0.0
 30
0.0
  3
$MODEL_SPACE
  1

  0
ENDBLK
  5
72
  8
0
  0
BLOCK
 67
     1
  8
0
  2
$PAPER_SPACE
 70
     0
 10
0.0
 20
0.0
 30
0.0
  3
$PAPER_SPACE
  1

  0
ENDBLK
  5
6E
 67
     1
  8
0
  0
BLOCK
  8
0
  2
*U1
 70
     1
 10
0.0
 20
0.0
 30
0.0
  3
*U1
  1

  0
CIRCLE
  5
14B
  8
0
 10
0.0
 20
5.7999999999999998
 30
7.0
 40
2.5
210
1.0
220
0.0
230
0.0
  0
CIRCLE
  5
14C
  8
0
 10
0.0
 20
5.7999999999999998
 30
-7.5
 40
1.9999999999999989
210
-1.0
220
0.0
230
0.0
  0
CIRCLE
  5
14D
  8
0
 10
0.0
 20
5.7999999999999998
 30
0.0
 40
2.5
210
-1.0
220
0.0
230
0.0
  0
CIRCLE
  5
14E
  8
0
 10
0.0
 20
5.7999999999999998
 30
7.0
 40
2.5
210
1.0
220
0.0
230
0.0
  0
CIRCLE
  5
14F
  8
0
 10
0.0
 20
5.7999999999999998
 30
7.5
 40
1.9999999999999989
210
1.0
220
0.0
230
0.0
  0
ARC
  5
150
  8
0
 10
-1.500000000000024
 20
0.0
 30
0.0
 40
4.9999999999999734
 50
126.8698976458436931
 51
233.1301023541562074
  0
LINE
  5
151
  8
0
 10
-4.4999999999999982
 20
4.0
 30
0.0
 11
-4.4999999999999982
 21
4.0
 31
-0.1
  0
ARC
  5
152
  8
0
 10
1.500000000000024
 20
0.0
 30
0.1
 40
4.9999999999999734
210
0.0
220
0.0
230
-1.0
 50
306.869897645843821
 51
53.1301023541562074
  0
LINE
  5
153
  8
0
 10
-4.4999999999999982
 20
-4.0
 30
0.0
 11
-4.4999999999999982
 21
-4.0
 31
-0.1
  0
ARC
  5
154
  8
0
 10
-7.4999999999999716
 20
0.0
 30
0.0
 40
4.9999999999999734
 50
306.869897645843821
 51
53.1301023541562074
  0
LINE
  5
155
  8
0
 10
-4.4999999999999982
 20
-4.0
 30
0.0
 11
-4.4999999999999982
 21
-4.0
 31
-0.1
  0
ARC
  5
156
  8
0
 10
7.4999999999999716
 20
0.0
 30
0.1
 40
4.9999999999999734
210
0.0
220
0.0
230
-1.0
 50
126.8698976458438068
 51
233.1301023541562074
  0
LINE
  5
157
  8
0
 10
-4.4999999999999982
 20
4.0
 30
0.0
 11
-4.4999999999999982
 21
4.0
 31
-0.1
  0
ARC
  5
158
  8
0
 10
7.4999999999999716
 20
0.0
 30
0.1
 40
4.9999999999999734
210
0.0
220
0.0
230
-1.0
 50
126.8698976458438068
 51
233.1301023541562074
  0
ARC
  5
159
  8
0
 10
1.500000000000024
 20
0.0
 30
0.1
 40
4.9999999999999734
210
0.0
220
0.0
230
-1.0
 50
306.869897645843821
 51
53.1301023541562074
  0
ARC
  5
15A
  8
0
 10
-0.3000000000000003
 20
-7.9500000000000028
 30
0.3
 40
0.3000000000000003
 50
180.0
 51
270.0
  0
ARC
  5
15B
  8
0
 10
7.9500000000000028
 20
0.3
 30
0.3000000000000003
 40
0.3
210
-1.0
220
0.0
230
0.0
 50
180.0
 51
270.0
  0
ARC
  5
15C
  8
0
 10
0.2999999999999997
 20
0.3
 30
-7.9500000000000028
 40
0.2999999999999997
210
0.0
220
1.0
230
0.0
 50
90.0
 51
180.0
  0
ARC
  5
15D
  8
0
 10
-0.2999999999999997
 20
0.3
 30
-7.9499999999999948
 40
0.3
210
0.0
220
-1.0
230
0.0
 50
180.0
 51
270.0
  0
ARC
  5
15E
  8
0
 10
-7.9499999999999966
 20
0.3000000000000003
 30
0.2999999999999997
 40
0.3000000000000003
210
-1.0
220
0.0
230
-0.0000000000000009
 50
90.0
 51
180.0
  0
ARC
  5
15F
  8
0
 10
-0.3
 20
7.9499999999999966
 30
0.3
 40
0.3
 50
270.0
 51
0.0
  0
ARC
  5
160
  8
0
 10
7.9499999999999966
 20
0.3
 30
-25.5000000000000107
 40
0.3
210
1.0
220
0.0
230
0.0
 50
270.0
 51
0.0
  0
LINE
  5
161
  8
0
 10
-25.5000000000000107
 20
8.2499999999999964
 30
0.3
 11
-0.3
 21
8.2499999999999964
 31
0.3
  0
ARC
  5
162
  8
0
 10
-7.9499999999999966
 20
0.3000000000000003
 30
0.2999999999999997
 40
0.3000000000000003
210
-1.0
220
0.0
230
-0.0000000000000009
 50
90.0
 51
180.0
  0
LINE
  5
163
  8
0
 10
-0.2999999999999997
 20
7.9499999999999966
 30
0.0
 11
-25.5000000000000107
 21
7.9499999999999966
 31
0.0
  0
ARC
  5
164
  8
0
 10
7.9500000000000028
 20
0.3
 30
25.5000000000000107
 40
0.3
210
-1.0
220
0.0
230
0.0
 50
270.0
 51
0.0
  0
ARC
  5
165
  8
0
 10
25.5000000000000107
 20
-0.0000000000000033
 30
-0.3
 40
8.25
210
0.0
220
0.0
230
-1.0
 50
270.0
 51
90.0
  0
ARC
  5
166
  8
0
 10
7.9499999999999966
 20
0.3
 30
-25.5000000000000107
 40
0.3
210
1.0
220
0.0
230
0.0
 50
270.0
 51
0.0
  0
ARC
  5
167
  8
0
 10
-25.5000000000000107
 20
-0.0000000000000033
 30
0.0
 40
7.9500000000000002
 50
90.0
 51
270.0
  0
ARC
  5
168
  8
0
 10
7.9500000000000028
 20
0.3
 30
0.3000000000000003
 40
0.3
210
-1.0
220
0.0
230
0.0
 50
180.0
 51
270.0
  0
LINE
  5
169
  8
0
 10
-0.3000000000000003
 20
-8.2500000000000036
 30
0.3
 11
-25.5000000000000107
 21
-8.2500000000000036
 31
0.3
  0
ARC
  5
16A
  8
0
 10
7.9500000000000028
 20
0.3
 30
25.5000000000000107
 40
0.3
210
-1.0
220
0.0
230
0.0
 50
270.0
 51
0.0
  0
LINE
  5
16B
  8
0
 10
-25.5000000000000107
 20
-7.9500000000000028
 30
0.0
 11
-0.2999999999999997
 21
-7.9500000000000028
 31
0.0
  0
ARC
  5
16C
  8
0
 10
0.3
 20
7.9499999999999966
 30
-0.8000000000000007
 40
0.2999999999999999
210
0.0
220
0.0
230
-1.0
 50
90.0
 51
180.0
  0
LINE
  5
16D
  8
0
 10
0.000000000000001
 20
7.9499999999999966
 30
0.8000000000000007
 11
0.0
 21
7.9499999999999948
 31
0.3
  0
ARC
  5
16E
  8
0
 10
-0.3
 20
7.9499999999999966
 30
0.3
 40
0.3
 50
270.0
 51
0.0
  0
LINE
  5
16F
  8
0
 10
-0.3
 20
8.2499999999999964
 30
0.3
 11
-0.3
 21
8.2499999999999964
 31
0.8000000000000007
  0
ARC
  5
170
  8
0
 10
-0.2999999999999997
 20
0.3
 30
-7.9499999999999948
 40
0.3
210
0.0
220
-1.0
230
0.0
 50
180.0
 51
270.0
  0
LINE
  5
171
  8
0
 10
0.0
 20
7.9499999999999948
 30
0.3
 11
0.0
 21
-7.9500000000000028
 31
0.3
  0
ARC
  5
172
  8
0
 10
0.2999999999999997
 20
0.3
 30
-7.9500000000000028
 40
0.2999999999999997
210
0.0
220
1.0
230
0.0
 50
90.0
 51
180.0
  0
LINE
  5
173
  8
0
 10
-0.2999999999999997
 20
-7.9500000000000028
 30
0.0
 11
-0.2999999999999997
 21
7.9499999999999966
 31
0.0
  0
ARC
  5
174
  8
0
 10
0.3000000000000003
 20
-7.9500000000000028
 30
-0.8000000000000007
 40
0.3
210
0.0
220
0.0
230
-1.0
 50
180.0
 51
269.9999999999996021
  0
LINE
  5
175
  8
0
 10
-0.299999999999998
 20
-8.2500000000000036
 30
0.8000000000000007
 11
-0.3000000000000003
 21
-8.2500000000000036
 31
0.3
  0
ARC
  5
176
  8
0
 10
-0.3000000000000003
 20
-7.9500000000000028
 30
0.3
 40
0.3000000000000003
 50
180.0
 51
270.0
  0
LINE
  5
177
  8
0
 10
0.0
 20
-7.9500000000000028
 30
0.3
 11
0.0
 21
-7.9500000000000028
 31
0.8000000000000007
  0
LINE
  5
178
  8
0
 10
-0.3
 20
8.2499999999999964
 30
0.3
 11
-0.3
 21
8.2499999999999964
 31
0.8000000000000007
210
0.0
220
1.0
230
0.0
  0
LINE
  5
179
  8
0
 10
-25.5000000000000107
 20
8.2499999999999964
 30
0.3
 11
-0.3
 21
8.2499999999999964
 31
0.3
210
0.0
220
1.0
230
0.0
  0
LINE
  5
17A
  8
0
 10
-25.5000000000000107
 20
8.2499999999999964
 30
0.3
 11
-25.5000000000000107
 21
8.2499999999999964
 31
0.8000000000000007
210
0.0
220
1.0
230
0.0
  0
LINE
  5
17B
  8
0
 10
-0.3
 20
8.2499999999999964
 30
0.8000000000000007
 11
-25.5000000000000107
 21
8.2499999999999964
 31
0.8000000000000007
210
0.0
220
1.0
230
0.0
  0
ARC
  5
17C
  8
0
 10
25.5000000000000107
 20
-0.0000000000000033
 30
-0.3
 40
8.25
210
0.0
220
0.0
230
-1.0
 50
270.0
 51
90.0
  0
LINE
  5
17D
  8
0
 10
-25.5000000000000107
 20
-8.2500000000000036
 30
0.3
 11
-25.5000000000000107
 21
-8.2500000000000018
 31
0.8000000000000007
  0
ARC
  5
17E
  8
0
 10
-25.5000000000000107
 20
-0.0000000000000033
 30
0.8000000000000007
 40
8.25
 50
90.0
 51
270.0
  0
LINE
  5
17F
  8
0
 10
-25.5000000000000107
 20
8.2499999999999964
 30
0.3
 11
-25.5000000000000107
 21
8.2499999999999964
 31
0.8000000000000007
  0
LINE
  5
180
  8
0
 10
-0.3000000000000003
 20
-8.2500000000000036
 30
0.3
 11
-25.5000000000000107
 21
-8.2500000000000036
 31
0.3
210
0.0
220
-1.0
230
0.0
  0
LINE
  5
181
  8
0
 10
-0.299999999999998
 20
-8.2500000000000036
 30
0.8000000000000007
 11
-0.3000000000000003
 21
-8.2500000000000036
 31
0.3
210
0.0
220
-1.0
230
0.0
  0
LINE
  5
182
  8
0
 10
-25.5000000000000107
 20
-8.2500000000000018
 30
0.8000000000000007
 11
-0.299999999999998
 21
-8.2500000000000036
 31
0.8000000000000007
210
0.0
220
-1.0
230
0.0
  0
LINE
  5
183
  8
0
 10
-25.5000000000000107
 20
-8.2500000000000036
 30
0.3
 11
-25.5000000000000107
 21
-8.2500000000000018
 31
0.8000000000000007
210
0.0
220
-1.0
230
0.0
  0
ARC
  5
184
  8
0
 10
1.500000000000024
 20
0.0
 30
0.0
 40
4.9999999999999734
210
0.0
220
0.0
230
-1.0
 50
306.869897645843821
 51
53.1301023541562074
  0
ARC
  5
185
  8
0
 10
7.4999999999999716
 20
0.0
 30
0.0
 40
4.9999999999999734
210
0.0
220
0.0
230
-1.0
 50
126.8698976458438068
 51
233.1301023541562074
  0
LINE
  5
186
  8
0
 10
-0.2999999999999997
 20
7.9499999999999966
 30
0.0
 11
-25.5000000000000107
 21
7.9499999999999966
 31
0.0
210
0.0
220
0.0
230
-1.0
  0
LINE
  5
187
  8
0
 10
-0.2999999999999997
 20
-7.9500000000000028
 30
0.0
 11
-0.2999999999999997
 21
7.9499999999999966
 31
0.0
210
0.0
220
0.0
230
-1.0
  0
LINE
  5
188
  8
0
 10
-25.5000000000000107
 20
-7.9500000000000028
 30
0.0
 11
-0.2999999999999997
 21
-7.9500000000000028
 31
0.0
210
0.0
220
0.0
230
-1.0
  0
ARC
  5
189
  8
0
 10
25.5000000000000107
 20
-0.0000000000000033
 30
0.0
 40
7.9500000000000002
210
0.0
220
0.0
230
-1.0
 50
270.0
 51
90.0
  0
ARC
  5
18A
  8
0
 10
-0.3
 20
7.9499999999999966
 30
0.8000000000000007
 40
0.2999999999999999
 50
0.0
 51
90.0
  0
LINE
  5
18B
  8
0
 10
-0.3
 20
8.2499999999999964
 30
0.8000000000000007
 11
-25.5000000000000107
 21
8.2499999999999964
 31
0.8000000000000007
  0
ARC
  5
18C
  8
0
 10
-25.5000000000000107
 20
-0.0000000000000033
 30
0.8000000000000007
 40
8.25
 50
90.0
 51
270.0
  0
LINE
  5
18D
  8
0
 10
-25.5000000000000107
 20
-8.2500000000000018
 30
0.8000000000000007
 11
-0.299999999999998
 21
-8.2500000000000036
 31
0.8000000000000007
  0
ARC
  5
18E
  8
0
 10
-0.3000000000000003
 20
-7.9500000000000028
 30
0.8000000000000007
 40
0.3
 50
270.0000000000003979
 51
0.0
  0
LINE
  5
18F
  8
0
 10
0.0
 20
-7.9500000000000028
 30
0.8000000000000007
 11
0.0000000000000001
 21
-6.8113631913804698
 31
0.8000000000000007
  0
ARC
  5
190
  8
0
 10
-3.1393202250021011
 20
0.0
 30
0.8000000000000007
 40
7.5
 50
221.8103148957785891
 51
294.7447189090428878
  0
ARC
  5
191
  8
0
 10
-14.3196601125010492
 20
-0.0000000000000017
 30
0.8000000000000007
 40
7.5
 50
221.8103148957785891
 51
318.1896851042213825
  0
ARC
  5
192
  8
0
 10
-25.5000000000000107
 20
-0.0000000000000031
 30
0.8000000000000007
 40
7.5
 50
41.8103148957785677
 51
318.1896851042213825
  0
ARC
  5
193
  8
0
 10
-14.3196601125010492
 20
-0.0000000000000017
 30
0.8000000000000007
 40
7.5
 50
41.8103148957786175
 51
138.1896851042214109
  0
ARC
  5
194
  8
0
 10
-3.1393202250021011
 20
0.0
 30
0.8000000000000007
 40
7.5
 50
65.2552810909571548
 51
138.1896851042214109
  0
LINE
  5
195
  8
0
 10
0.000000000000001
 20
6.8113631913804698
 30
0.8000000000000007
 11
0.000000000000001
 21
7.9499999999999966
 31
0.8000000000000007
  0
ARC
  5
196
  8
0
 10
-14.3196601125010492
 20
-0.0000000000000017
 30
0.8000000000000007
 40
7.5
 50
221.8103148957785891
 51
318.1896851042213825
  0
LINE
  5
197
  8
0
 10
-8.7294901687515747
 20
-5.0000000000000009
 30
0.8000000000000007
 11
-8.7294901687515747
 21
-5.0000000000000009
 31
10.8000000000000007
  0
ARC
  5
198
  8
0
 10
-14.3196601125010492
 20
-0.0000000000000017
 30
10.8000000000000007
 40
7.5
 50
221.8103148957785891
 51
318.1896851042213825
  0
LINE
  5
199
  8
0
 10
-19.9098300562505308
 20
-5.0
 30
10.8000000000000007
 11
-19.9098300562505202
 21
-5.0
 31
0.8000000000000007
  0
ARC
  5
19A
  8
0
 10
-3.1393202250021011
 20
0.0
 30
0.8000000000000007
 40
7.5
 50
221.8103148957785891
 51
294.7447189090428878
  0
LINE
  5
19B
  8
0
 10
0.0000000000000001
 20
-6.8113631913804698
 30
0.8000000000000007
 11
0.0
 21
-6.8113631913804698
 31
10.8000000000000007
  0
ARC
  5
19C
  8
0
 10
-3.1393202250021011
 20
0.0
 30
10.8000000000000007
 40
7.5
 50
221.8103148957785891
 51
294.7447189090428878
  0
LINE
  5
19D
  8
0
 10
-8.7294901687515747
 20
-5.0000000000000009
 30
0.8000000000000007
 11
-8.7294901687515747
 21
-5.0000000000000009
 31
10.8000000000000007
  0
CIRCLE
  5
19E
  8
0
 10
0.0
 20
5.7999999999999998
 30
0.0
 40
2.5
210
1.0
220
0.0
230
0.0
  0
LINE
  5
19F
  8
0
 10
0.000000000000001
 20
7.9499999999999966
 30
0.8000000000000007
 11
0.0
 21
7.9499999999999948
 31
0.3
210
1.0
220
0.0
230
0.0
  0
LINE
  5
1A0
  8
0
 10
0.000000000000001
 20
6.8113631913804698
 30
0.8000000000000007
 11
0.000000000000001
 21
7.9499999999999966
 31
0.8000000000000007
210
1.0
220
0.0
230
0.0
  0
LINE
  5
1A1
  8
0
 10
0.000000000000001
 20
6.8113631913804698
 30
0.8000000000000007
 11
0.0
 21
6.8113631913804698
 31
10.8000000000000007
210
1.0
220
0.0
230
0.0
  0
LINE
  5
1A2
  8
0
 10
0.0
 20
-6.8113631913804698
 30
10.8000000000000007
 11
0.0
 21
6.8113631913804698
 31
10.8000000000000007
210
1.0
220
0.0
230
0.0
  0
LINE
  5
1A3
  8
0
 10
0.0000000000000001
 20
-6.8113631913804698
 30
0.8000000000000007
 11
0.0
 21
-6.8113631913804698
 31
10.8000000000000007
210
1.0
220
0.0
230
0.0
  0
LINE
  5
1A4
  8
0
 10
0.0
 20
-7.9500000000000028
 30
0.8000000000000007
 11
0.0000000000000001
 21
-6.8113631913804698
 31
0.8000000000000007
210
1.0
220
0.0
230
0.0
  0
LINE
  5
1A5
  8
0
 10
0.0
 20
-7.9500000000000028
 30
0.3
 11
0.0
 21
-7.9500000000000028
 31
0.8000000000000007
210
1.0
220
0.0
230
0.0
  0
LINE
  5
1A6
  8
0
 10
0.0
 20
7.9499999999999948
 30
0.3
 11
0.0
 21
-7.9500000000000028
 31
0.3
210
1.0
220
0.0
230
0.0
  0
ARC
  5
1A7
  8
0
 10
-25.5000000000000107
 20
-0.0000000000000031
 30
10.8000000000000007
 40
7.5
 50
41.8103148957785891
 51
318.1896851042213825
  0
ARC
  5
1A8
  8
0
 10
-14.3196601125010492
 20
-0.0000000000000017
 30
10.8000000000000007
 40
7.5
 50
221.8103148957785891
 51
318.1896851042213825
  0
ARC
  5
1A9
  8
0
 10
-3.1393202250021011
 20
0.0
 30
10.8000000000000007
 40
7.5
 50
221.8103148957785891
 51
294.7447189090428878
  0
LINE
  5
1AA
  8
0
 10
0.0
 20
-6.8113631913804698
 30
10.8000000000000007
 11
0.0
 21
6.8113631913804698
 31
10.8000000000000007
  0
ARC
  5
1AB
  8
0
 10
-3.1393202250021011
 20
0.0
 30
10.8000000000000007
 40
7.5
 50
65.2552810909571548
 51
138.1896851042214109
  0
ARC
  5
1AC
  8
0
 10
-14.3196601125010492
 20
-0.0000000000000017
 30
10.8000000000000007
 40
7.5
 50
41.8103148957786175
 51
138.1896851042214109
  0
ARC
  5
1AD
  8
0
 10
-25.5000000000000107
 20
-0.0000000000000031
 30
0.8000000000000007
 40
7.5
 50
41.8103148957785677
 51
318.1896851042213825
  0
LINE
  5
1AE
  8
0
 10
-19.9098300562505308
 20
-5.0
 30
10.8000000000000007
 11
-19.9098300562505202
 21
-5.0
 31
0.8000000000000007
  0
ARC
  5
1AF
  8
0
 10
-25.5000000000000107
 20
-0.0000000000000031
 30
10.8000000000000007
 40
7.5
 50
41.8103148957785891
 51
318.1896851042213825
  0
LINE
  5
1B0
  8
0
 10
-19.9098300562505308
 20
4.9999999999999938
 30
0.8000000000000007
 11
-19.9098300562505308
 21
4.9999999999999956
 31
10.8000000000000007
  0
ARC
  5
1B1
  8
0
 10
-14.3196601125010492
 20
-0.0000000000000017
 30
0.8000000000000007
 40
7.5
 50
41.8103148957786175
 51
138.1896851042214109
  0
LINE
  5
1B2
  8
0
 10
-19.9098300562505308
 20
4.9999999999999938
 30
0.8000000000000007
 11
-19.9098300562505308
 21
4.9999999999999956
 31
10.8000000000000007
  0
ARC
  5
1B3
  8
0
 10
-14.3196601125010492
 20
-0.0000000000000017
 30
10.8000000000000007
 40
7.5
 50
41.8103148957786175
 51
138.1896851042214109
  0
LINE
  5
1B4
  8
0
 10
-8.7294901687515765
 20
5.0
 30
0.8000000000000007
 11
-8.7294901687515765
 21
5.0
 31
10.8000000000000007
  0
ARC
  5
1B5
  8
0
 10
-3.1393202250021011
 20
0.0
 30
0.8000000000000007
 40
7.5
 50
65.2552810909571548
 51
138.1896851042214109
  0
LINE
  5
1B6
  8
0
 10
-8.7294901687515765
 20
5.0
 30
0.8000000000000007
 11
-8.7294901687515765
 21
5.0
 31
10.8000000000000007
  0
ARC
  5
1B7
  8
0
 10
-3.1393202250021011
 20
0.0
 30
10.8000000000000007
 40
7.5
 50
65.2552810909571548
 51
138.1896851042214109
  0
LINE
  5
1B8
  8
0
 10
0.000000000000001
 20
6.8113631913804698
 30
0.8000000000000007
 11
0.0
 21
6.8113631913804698
 31
10.8000000000000007
  0
ENDBLK
  5
1BA
  8
0
  0
ENDSEC
  0
SECTION
  2
ENTITIES
  0
INSERT
  5
B8
  8
0
  2
*U1
 10
0.0
 20
0.0
 30
0.0
  0
ENDSEC
  0
EOF
